Oops, an error
Loading. Please wait.

Unholy Confessions Bass Tab

ver6
ver6
More versions @911Tabs.com
337 views 1 this week
no commentswrite comment
1 2 3 4 5
not so good
x 2
Autoscroll
+/-
esc
set tempo
stop
Contributor
Difficulty
Tuning
novice
D A D G B E
WARNING: You are trying to view
                                    content from Ultimate-Guitar.com
                                    in an unauthorized application,
                                    which is prohibited.

                                    Please use an official Ultimate
                                    Guitar Tabs application for iPhone,
                                    iPad or Android to access legitimate
                                    chords, guitar, bass, and drum tabs
                                    from Ultimate-Guitar.com database.

                                    Type "ultimate guitar tabs" in Apple
                                    App Store's or Android Market's
                                    search to find the application.
Unholy Confessions - Avenged Sevenfold

Drop D (DADG)

bass tab by Kieran Nikolich.



intro

|---------------------------------------------|
|---------------------------------------------|
|---------------------------------------------|
|-0-0----------------0-0--------8-8---7-7-----|

pre-verse

|------------------------------------|
|------------------------------------|
|------5-5-7-7-8-8-10-10-8-8-7-7-8-8-|
|--0-0-------------------------------|

|----------------------------------------|
|----------------------------------------|
|------10-10-8-8-7-7-----7-7-8-8---------|
|--8-8---------------7-7---------10-10---|

|------------------------------------|
|------------------------------------|
|------5-5-7-7-8-8-10-10-8-8-7-7-8-8-|
|--0-0-------------------------------|

|----------------------------------------|
|----------------------------------------|
|------10-10-8-8-7-7-----7-7-8-8---------|
|--8-8---------------7-7---------10-10---|

|------------------------------------|
|------------------------------------|
|------5-5-7-7-8-8-10-10-8-8-7-7-8-8-|
|--0-0-------------------------------|

|----------------------------------------|
|----------------------------------------|
|------10-10-8-8-7-7-----7-7-8-8---------|
|--8-8---------------7-7---------10-10---|

|------------------------------------|
|------------------------------------|
|------5-5-7-7-8-8-10-10-8-8-7-7-8-8-|
|--0-0-------------------------------|

|----------------------------------------|
|----------------------------------------|
|------10-10-8-8-7-7-----7-7-8-8---------|
|--8-8---------------7-7---------10-10---|

|------------------------------------|
|------------------------------------|
|------5-5-7-7-8-8-10-10-8-8-7-7-8-8-|
|--0-0-------------------------------|

|----------------|
|----------------|
|----------------|
|--8-8----7-7----|

verse

|-------------------------------------------------------|
|--------------7-7-5-5-2-2-3-------------2-2-3-3-0-0----|
|-5--5-5-5-------------------1--1-1-1-3--------------3--|
|-----------0-------------------------------------------|

|-------------------------------------------------------|
|--------------7-7-5-5-2-2-3-------------2-2-3-3-0-0----|
|-5--5-5-5-------------------1--1-1-1-3--------------3--|
|-----------0-------------------------------------------|

|---------------------------------------------------------------|
|---------------------------------------------------------------|
|-5--5-5-5---------------------1-1-1-1-1---3-3-3-3-3---3-3-3-3--|
|-----------0-0-0-0-0--0-0-2-3----------------------------------|

|-------------------------------------------------------|
|--------------7-7-5-5-2-2-3-------------2-2-3-3-0-0----|
|-5--5-5-5-------------------1--1-1-1-3--------------3--|
|-----------0-------------------------------------------|

pre-chorus

|---------------------|
|---------------------|
|---------------------|
|--0-0---0-0-0-0-0----|

|---------------------|
|---------------------|
|---------------------|
|--0-0---0-0-0-0-0----|

|---------------------|
|---------------------|
|---------------------|
|--0-0---0-0-0-0-0----|

|---------------------|
|---------------------|
|---------------------|
|--0-0---0-0-0-0-0----|

|---------------------|
|---------------------|
|---------------------|
|--0-0---0-0-0-0-0----|

|---------------------|
|---------------------|
|---------------------|
|--0-0---0-0-0-0-0----|

|---------------------|
|---------------------|
|---------------------|
|--0-0---0-0-0-0-0----|

|---------------------|
|---------------------|
|---------------------|
|--0-0---0-0-0-0-0----|

chorus

|-----------------------------------------------------------------------|
|-------------------------3-2h3p2-0-------------------------------------|
|-5-5---------3---3-3-3-------------3----------------1--1-1-1-1-1-1-1---|
|------0--2-3---------------------------3-3--3--3-3---------------------|

|---------------------------------------------------------------|
|---------------------------------------------------------------|
|-5-5---------3---3-3-3-3-3-3-3---------------------------------|
|------0--2-3-----------------------3-3--3--3-3-3--5-5--3---3-3-|

|-------------------------------------------------------------------------------------|
|-------------------------3-2h3p2-0---------------------------------------------------|
|-5-5---------3---3-3-3-------------3----------------1--1-1-1/13-13-13-13-13-13-13-13-|
|------0--2-3---------------------------3-3--3--3-3-----------------------------------|

|------------------------------------------------------------|
|------------------------------------------------------------|
|-5-5---------3---3-3-3-3-3-3-3------------------------------|
|------0--2-3-----------------------3-3--3--3-3-3--5-5--0----|

bridge

|--------------------------------------------------------------|
|-3-2-3-----------2-3-2----------------------------------------|
|---------5-4-5-----------4-3-4--0---1--4--3--1---0---4-3-4----|
|--------------------------------------------------------------|

|---------------------------------------------------------------|
|--3-2-3-----------2-3-2----------------------------------------|
|----------5-4-5-----------4-3-4--0---1--4--3--1---0---4-3-4----|
|---------------------------------------------------------------|

|--------------------------------------------------|
|--------------------------------------------------|
|--------------------------------------------------|
|-0---------(0)---------0-0---------8-8---7-7------|

|------------------------------------|
|------------------------------------|
|------5-5-7-7-8-8-10-10-8-8-7-7-8-8-|
|--0-0-------------------------------|

|----------------------------------------|
|----------------------------------------|
|------10-10-8-8-7-7-----7-7-8-8---------|
|--8-8---------------7-7---------10-10---|

|------------------------------------|
|------------------------------------|
|------5-5-7-7-8-8-10-10-8-8-7-7-8-8-|
|--0-0-------------------------------|

|----------------------------------------|
|----------------------------------------|
|------10-10-8-8-7-7-----7-7-8-8---------|
|--8-8---------------7-7---------10-10---|

|------------------------------------|
|------------------------------------|
|------5-5-7-7-8-8-10-10-8-8-7-7-8-8-|
|--0-0-------------------------------|

|----------------------------------------|
|----------------------------------------|
|------10-10-8-8-7-7-----7-7-8-8---------|
|--8-8---------------7-7---------10-10---|

|------------------------------------|
|------------------------------------|
|------5-5-7-7-8-8-10-10-8-8-7-7-8-8-|
|--0-0-------------------------------|

|----------------------------------------|
|----------------------------------------|
|------10-10-8-8-7-7-----7-7-8-8---------|
|--8-8---------------7-7---------10-10---|

breakdown

|---------------------------------------------------|
|---------------------------------------------------|
|---------------------------------------------------|
|-0-0-0-0-0-0-0-0--0-0-0-0-0-0-0-0--0-0-0-0-0-0-0-0-|

|-----------------------------------------------------------|
|-----------------------------------------------------------|
|-----------------------------------------------------------|
|-0-12-11-0-10-9-8-0-7-0-6-5--0-12-11-0--10-9-8-0-7-0-6-5---|

pre-chorus

|---------------------|
|---------------------|
|---------------------|
|--0-0---0-0-0-0-0----|

|---------------------|
|---------------------|
|---------------------|
|--0-0---0-0-0-0-0----|

|---------------------|
|---------------------|
|---------------------|
|--0-0---0-0-0-0-0----|

|---------------------|
|---------------------|
|---------------------|
|--0-0---0-0-0-0-0----|

|---------------------|
|---------------------|
|---------------------|
|--0-0---0-0-0-0-0----|

|---------------------|
|---------------------|
|---------------------|
|--0-0---0-0-0-0-0----|

|---------------------|
|---------------------|
|---------------------|
|--0-0---0-0-0-0-0----|

|---------------------|
|---------------------|
|---------------------|
|--0-0---0-0-0-0-0----|

breakdown

|---------------------|
|---------------------|
|---------------------|
|--0-0---0-0-0-0-0----|

|---------------------|
|---------------------|
|---------------------|
|--0-0---0-0-0-0-0----|

|---------------------|
|---------------------|
|---------------------|
|--0-0---0-0-0-0-0----|

|---------------------|
|---------------------|
|---------------------|
|--0-0---0-0-0-0-0----|

|--------------------------------|
|--------------------------------|
|--------------------------7-4---|
|--0-5---0-5---0-5---0-3-0-------|

chorus

|-----------------------------------------------------------------------|
|-------------------------3-2h3p2-0-------------------------------------|
|-5-5---------3---3-3-3-------------3----------------1--1-1-1-1-1-1-1---|
|------0--2-3---------------------------3-3--3--3-3---------------------|

|---------------------------------------------------------------|
|---------------------------------------------------------------|
|-5-5---------3---3-3-3-3-3-3-3---------------------------------|
|------0--2-3-----------------------3-3--3--3-3-3--5-5--3---3-3-|

|-------------------------------------------------------------------------------------|
|-------------------------3-2h3p2-0---------------------------------------------------|
|-5-5---------3---3-3-3-------------3----------------1--1-1-1/13-13-13-13-13-13-13-13-|
|------0--2-3---------------------------3-3--3--3-3-----------------------------------|

|------------------------------------------------------------|
|------------------------------------------------------------|
|-5-5---------3---3-3-3-3-3-3-3------------------------------|
|------0--2-3-----------------------3-3--3--3-3-3--5-5--3----|

outro

|---------------------|
|---------------------|
|---------------------|
|--0-0---0-0-0-0-0----|

|---------------------|
|---------------------|
|---------------------|
|--0-0---0-0-0-0-0----|

|---------------------|
|---------------------|
|---------------------|
|--0-0---0-0-0-0-0----|

|---------------------|
|---------------------|
|---------------------|
|--0-0---0-0-0-0-0----|

|---------------------|
|---------------------|
|---------------------|
|--0-0---0-0-0-0-0----|

|---------------------|
|---------------------|
|---------------------|
|--0-0---0-0-0-0-0----|

|---------------------|
|---------------------|
|---------------------|
|--0-0---0-0-0-0-0----|

|---------------------|
|---------------------|
|---------------------|
|--0-0---0-0-0-0-0----|

|---------------------|
|---------------------|
|---------------------|
|--0-0----------------|
comments
We did not receive enough feedback on this tab! Please rate:
1 2 3 4 5
I want to post or [tab]
guest
You may want to rate the tab now too:
select rating
Please do not post tabs as comments. Select "correction" instead!