Oops, an error
Loading. Please wait.

Unholy Confessions Tab

876 views 3 this week
1 commentread comment
1 2 3 4 5
worth learning
x 3
Autoscroll
+/-
esc
set tempo
stop
Contributor
Hey! There's an official Ultimate Guitar app which is ideal
for learning songs when you're away from computer. Get the app
WARNING: You are trying to view
                                    content from Ultimate-Guitar.com
                                    in an unauthorized application,
                                    which is prohibited.

                                    Please use an official Ultimate
                                    Guitar Tabs application for iPhone,
                                    iPad or Android to access legitimate
                                    chords, guitar, bass, and drum tabs
                                    from Ultimate-Guitar.com database.

                                    Type "ultimate guitar tabs" in Apple
                                    App Store's or Android Market's
                                    search to find the application.
-------------------------------------------------------------------------------
                             Unholy Confessions – Avenged Sevenfold
-------------------------------------------------------------------------------
Tabbed by:JJ-Chaos
E-mail:jjcarreon65@gmail.com

This is my way which I learned by ear on a lot of it and I also watched Zacky V
and Synyster Gates play it THEMSELVES! This is only for the lead guitar and you
will need to listen to the song itself to have perfect tempo, I believe this is
the correct and best way to play it enjoy!!
Tuning: Drop D

e|-----------------------------------------------------------------------------|
B|-----------------------------------------------------------------------------|
G|-----------------------------------------------------------------------------|
D|---------------------------10---------------------------10-------------------|
A|----5---7--8---10--8—7h8p7-10-----10---8---7----7---8---10-------------------|
D|-00---0--0---0---0--0------10--88----8---8---77---7---7-10-------------------|
PM --   -  -   -   -  -          --    -   -   --   -   -

e|-----------------------------------------------------------------------------|
B|-----------------------------------------------------------------------------|
G|-----------------------------------------------------------------------------|
D|---------------------------10--88--77----------------------------------------|
A|----5---7--8---10--8—7h8p7-10--88--77----------------------------------------|
D|-00---0--0---0---0--0------10--88--77----------------------------------------|
PM --   -  -   -   -  -

e|-----------------------------------------------------------------------------|
B|-----------------------------------------------------------------------------|
G|-----------------------------------------------------------------------------|
D|---------------------------10---------------------------10-------------------|
A|----5---7--8---10--8—7h8p7-10-----10---8---7----7---8---10-------------------|
D|-00---0--0---0---0--0------10--88----8---8---77---7---7-10-------------------|
PM --   -  -   -   -  -          --    -   -   --   -   -

e|-----------------------------------------------------------------------------|
B|-----------------------------------------------------------------------------|
G|-----------------------------------------------------------------------------|
D|---------------------------10---------------------------10-------------------|
A|----5---7--8---10--8—7h8p7-10-----10---8---7----7---8---10-------------------|
D|-00---0--0---0---0--0------10--88----8---8---77---7---7-10-------------------|
PM --   -  -   -   -  -          --    -   -   --   -   -

e|-----------------------------------------------------------------------------|
B|-----------------------------------------------------------------------------|
G|-----------------------------------------------------------------------------|
D|---------------------------10---------------------------10-------------------|
A|----5---7--8---10--8—7h8p7-10-----10---8---7----7---8---10-------------------|
D|-00---0--0---0---0--0------10--88----8---8---77---7---7-10-------------------|
PM --   -  -   -   -  -          --    -   -   --   -   -

e|-----------------------------------------------------------------------------|
B|-----------------------------------------------------------------------------|
G|-----------------------------------------------------------------------------|
D|---------------------------10--88--77----------------------------------------|
A|----5---7--8---10--8—7h8p7-10--88--77----------------------------------------|
D|-00---0--0---0---0--0------10--88--77----------------------------------------|
PM --   -  -   -   -  -

e|------------------------------------------------------------------------------|
B|------------------------------------------------------------------------------|
G|--9-9\10/7/6-------------14/12/9\10--------------9-9\10/7/6-------------------|
D|--x-x-x-x-x---7--77--0----x--x-x-x---8—88h10-10--x-x-x-x-x----7--77--0--------|
A|--7-7\8/5/4---5--55--0---12/10/7\8---8—88h10-10--7-7\8/5/4----5--55--0--------|
D|---------------------0---------------8—88h10-10----------------------0--------|









e|-----------------------------------------------------------------------------|
B|-----------------------------------------------------------------------------|
G|--14/12/9\10--------------9-9\10/7/6-----------------------------------------|
D|---x--x-x-x---8-88h10-10--x-x-x-x-x----------7---------7---------------------|
A|--12/10/7\8---8-88h10-10--7-7\8/5/4----------5---------5---------------------|
D|--------------8-88h10-10-------------0-0-0-0---0-0-0-0---0-0-5-7-------------|
PM                                     - - - -   - - - -   - - - -
|

e|-----------------------------------------------------------------------------|
B|-----------------------------------------------------------------------------|
G|----------------------------------------------14/12/9\10---------------------|
D|----------8-------------10-------10--7-77-0----x--x-x-x--8-88h10-10----------|
A|----------8-------------10-------10--5-55-0---12/10/7\8--8-88h10-10----------|
D|--8-8-8-8-8-10-10-10-10-10-10-10-10-------0--------------8-88h10-10----------|
PM  - - - -   -  -  -  -     -  -
|

e|-----------------------------------------------------------------------------|
B|-----------------------------------------------------------------------------|
G|--9-9\10/7/6-----------------------------------------------------------------|
D|--x-x-x-x-x------------------------------------------------------------------|
A|--7-7\8/5/4------------------------------------------------------------------|
D|--------------00--000000--00--000000--00--000000--00--000000-----------------|
PM              --  ------  --  ------  --  ------  --  ------
|

e|-----------------------------------------------------------------------------|
B|-----------------------------------------------------------------------------|
G|----------------------------------------6+-----------------------------------|
D|---------------------------------7p8p7p--------------------------------------|
A|-----7p8p---7p8p---5p-4~----7p8p--------------7p8p---7p8p---5p-4~----7p8p----|
D|--00------0------0-------00----------------00------0------0-------00---------|
PM  --      -      -       --                --      -      -       --
|

e|---------------------------------------------------------------------------|
B|---------------------------------------------------------------------------|
G|--------6+-----------------------------------------------------------------|
D|-7p8p7p----7--77-0--2-3--5-55-0--3-2h3------3--3-x-3--33-x-3-3-3-3-3-3-3-3-|
A|-----------5--55-0--2-3--3-33-0--------5-3--3--3-x-3--33-x-1-1-1-1-1-1-1-1-|
D|-----------------0--2-3---------------------3--3-x-3--33-x-----------------|

e|---------------------------------------------------------------------------|
B|---------------------------------------------------------------------------|
G|---------------------------------------------------------------------------|
D|--7--77-0--2-3--5--5-5-5-5-5-5-5-3-3-x-333-555-0~--------------------------|
A|--5--55-0--2-3--3--3-3-3-3-3-3-3-3-3-x-333-555-0~--------------------------|
D|--------0--2-3-------------------3-3-x-333-555-0~--------------------------|

e|---------------------------------------------------------------------------|
B|---------------------------------------------------------------------------|
G|---------------------------------------------------------------------------|
D|-----7--77-0--2-3--5-55-0--3-2h3------3--3-x-3--33-x-3-3-3-3-3-3-3-3-------|
A|-----5--55-0--2-3--3-33-0--------5-3--3--3-x-3--33-x-1-1-1-1-1-1-1-1-------|
D|-----------0--2-3---------------------3--3-x-3--33-x-----------------------|

e|---------------------------------------------------------------------------|
B|---------------------------------------------------------------------------|
G|---------------------------------------------------------------------------|
D|--7--77-0--2-3--5--5-5-5-5-5-5-5-3-3-x-333-555-0~--------------------------|
A|--5--55-0--2-3--3--3-3-3-3-3-3-3-3-3-x-333-555-0~--------------------------|
D|--------0--2-3-------------------3-3-x-333-555-0~--------------------------|






Solo
e|---------------------------------------------------------------------------|
B|---------------------------------------------------------------------------|
G|---------------------------------------------------------------------------|
D|---------------------------------------------------------------------------|
A|--8-7-8~--5-4-5~--7-8-7~--4-3-4~--0-1-1\4-3-1-0-4-3-4 ~--------------------|
D|---------------------------------------------------------------------------|

e|---------------------------------------------------------------------------|
B|---------------------------------------------------------------------------|
G|---------------------------------------------------------------------------|
D|---------------------------------------------------------------------------|
A|--8-7-8~--5-4-5~--7-8-7~--4-3-4~--0-1-1\4-3-1-0-4-3-4 ~--------------------|
D|---------------------------------------------------------------------------|

e|-----------------------------------------------------------------------------|
B|-----------------------------------------------------------------------------|
G|-----------------------------------------------------------------------------|
D|---------------------------10---------------------------10-------------------|
A|----5---7--8---10--8—7h8p7-10-----10---8---7----7---8---10-------------------|
D|-00---0--0---0---0--0------10--88----8---8---77---7---7-10-------------------|
PM --   -  -   -   -  -          --    -   -   --   -   -

e|-----------------------------------------------------------------------------|
B|-----------------------------------------------------------------------------|
G|-----------------------------------------------------------------------------|
D|---------------------------10--88--77----------------------------------------|
A|----5---7--8---10--8—7h8p7-10--88--77----------------------------------------|
D|-00---0--0---0---0--0------10--88--77----------------------------------------|
PM --   -  -   -   -  -





e|-----------------------------------------------------------------------------|
B|-----------------------------------------------------------------------------|
G|-----------------------------------------------------------------------------|
D|---------------------------10---------------------------10-------------------|
A|----5---7--8---10--8—7h8p7-10-----10---8---7----7---8---10-------------------|
D|-00---0--0---0---0--0------10--88----8---8---77---7---7-10-------------------|
PM --   -  -   -   -  -          --    -   -   --   -   -

e|-----------------------------------------------------------------------------|
B|-----------------------------------------------------------------------------|
G|-----------------------------------------------------------------------------|
D|---------------------------10---------------------------10-------------------|
A|----5---7--8---10--8—7h8p7-10-----10---8---7----7---8---10-------------------|
D|-00---0--0---0---0--0------10--88----8---8---77---7---7-10-------------------|
PM --   -  -   -   -  -          --    -   -   --   -   -

e|-----------------------------------------------------------------------------|
B|-----------------------------------------------------------------------------|
G|-----------------------------------------------------------------------------|
D|---------------------------10---------------------------10-------------------|
A|----5---7--8---10--8—7h8p7-10-----10---8---7----7---8---10-------------------|
D|-00---0--0---0---0--0------10--88----8---8---77---7---7-10-------------------|
PM --   -  -   -   -  -          --    -   -   --   -   -

e|-----------------------------------------------------------------------------|
B|-----------------------------------------------------------------------------|
G|-----------------------------------------------------------------------------|
D|---------------------------10---------------------------10-------------------|
A|----5---7--8---10--8—7h8p7-10-----10---8---7----7---8---10-------------------|
D|-00---0--0---0---0--0------10--88----8---8---77---7---7-10-------------------|
PM --   -  -   -   -  -          --    -   -   --   -   -






e|-----------------------------------------------------------------------------|
B|-----------------------------------------------------------------------------|
G|-----------------------------------------------------------------------------|
D|-----------------------------------------------------------------------------|
A|--0-0-0-0-0-0-0-0-0-0-0-0-0-0-0-0-0-0-0-0-0-0-0-0----------------------------|
D|--0-0-0-0-0-0-0-0-0-0-0-0-0-0-0-0-0-0-0-0-0-0-0-0----------------------------|
PM  - - - - - - - - - - - - - - - - - - - - - - - -

e|---------------------------------------------------------------------------|
B|---------------------------------------------------------------------------|
G|---------------------------------------------------------------------------|
D|---------------------------------------------------------------------------|
A|--0-12-11-0-10-9-8-0-7-0-6-5--0-12-11-0-9-8-0-7-0-6-5----------------------|
D|--0-12-11-0-10-9-8-0-7-0-6-5--0-12-11-0-9-8-0-7-0-6-5----------------------|

e|-----------------------------------------------------------------------------|
B|-----------------------------------------------------------------------------|
G|-----------------------------------------------------------------------------|
D|-----------------------------------------------------------------------------|
A|-----------------------------------------------------------------------------|
D|--00--000000--00--000000--00--000000--00--000000-----------------------------|
PM  --  ------  --  ------  --  ------  --  ------

e|-----------------------------------------------------------------------------|
B|-----------------------------------------------------------------------------|
G|---------------------------------------6+------------------------------------|
D|--------------------------------7p8p7p---------------------------------------|
A|----7p8p---7p8p---5p-4~----7p8p--------------7p8p---7p8p---5p-4~----7p8p-----|
D|-00------0------0-------00----------------00------0------0-------00----------|
PM --      -      -       --                --      -      -       --

e|---------------------------------------------------------------------------|
B|---------------------------------------------------------------------------|
G|---------6+----------------------------------------------------------------|
D|--7p8p7p-------------------------------------------------------------------|
A|---------------------------------------------------------------------------|
D|------------0h12p-h10p-h8p-h7p-h5b--0h12-h10p-h8p-h7p-h5b-—0h12p-h10p-h8p--|

e|---------------------------------------------------------------------------|
B|---------------------------------------------------------------------------|
G|---------------------------------------------------------------------------|
D|---------------------------------------------------------------------------|
A|---------------------------------------------------------------------------|
D|-h7p-h5b—-0h12p-h10p-h8p-h7p-h5b—0h5p-h5p-h5p-h3p-h5p----------------------|

e|---------------------------------------------------------------------------|
B|---------------------------------------------------------------------------|
G|---------------------------------------------------------------------------|
D|-----7--77-0--2-3--5-55-0--3-2h3------3--3-x-3--33-x-3-3-3-3-3-3-3-3-------|
A|-----5--55-0--2-3--3-33-0--------5-3--3--3-x-3--33-x-1-1-1-1-1-1-1-1-------|
D|-----------0--2-3---------------------3--3-x-3--33-x-----------------------|

e|---------------------------------------------------------------------------|
B|---------------------------------------------------------------------------|
G|---------------------------------------------------------------------------|
D|--7--77-0--2-3--5--5-5-5-5-5-5-5-3-3-x-333-555-0~--------------------------|
A|--5--55-0--2-3--3--3-3-3-3-3-3-3-3-3-x-333-555-0~--------------------------|
D|--------0--2-3-------------------3-3-x-333-555-0~--------------------------|

e|---------------------------------------------------------------------------|
B|---------------------------------------------------------------------------|
G|---------------------------------------------------------------------------|
D|-----7--77-0--2-3--5-55-0--3-2h3------3--3-x-3--33-x-3-3-3-3-3-3-3-3-------|
A|-----5--55-0--2-3--3-33-0--------5-3--3--3-x-3--33-x-1-1-1-1-1-1-1-1-------|
D|-----------0--2-3---------------------3--3-x-3--33-x-----------------------|

e|---------------------------------------------------------------------------|
B|---------------------------------------------------------------------------|
G|---------------------------------------------------------------------------|
D|--7--77-0--2-3--5--5-5-5-5-5-5-5-3-3-x-333-555-0~--------------------------|
A|--5--55-0--2-3--3--3-3-3-3-3-3-3-3-3-x-333-555-0~--------------------------|
D|--------0--2-3-------------------3-3-x-333-555-0~--------------------------|

e|---------------------------------------------------------------------------|
B|---------------------------------------------------------------------------|
G|---------------------------------------------------------------------------|
D|---------------------------------------------------------------------------|
A|---------------------------------------------------------------------------|
D|-0h12p-h10p-h8p-h7p-h5b--0h12p-h10p-h8p-h7p-h5b--0h12p-h10p-h8p-h7p-h5b----|

e|---------------------------------------------------------------------------|
B|---------------------------------------------------------------------------|
G|---------------------------------------------------------------------------|
D|---------------------------------------------------------------------------|
A|---------------------------------------------------------------------------|
D|-0h12p-h10p-h8p-h7p-h5b--0h12p-h10p-h8p-h7p-h5b--0h12p-h10p-h8p-h7p-h5b----|

e|-----------------------------------------------------------------------------|
B|-----------------------------------------------------------------------------|
G|-----------------------------------------------------------------------------|
D|-------------------------00--------------------------------------------------|
A|-------------------------00--------------------------------------------------|
D|-0h12p-h10p-h8p-h7p-h5b--00--------------------------------------------------|
PM                         --



************************************

| /   slide up
| \   slide down
| h   hammer-on
| p   pull-off
| ~   vibrato
| +   harmonic
| x   Mute note
| b   Bend
| pb  Pre-bend
| br  Bend release
| pbr Pre-bend release
| brb Bend release bend

************************************
comments
We did not receive enough feedback on this tab! Please rate:
print report bad tab
1 2 3 4 5
1 comment total.
0 reply
robbie.thecloud wrote on May 31 2012, 05:28 pm

umm the crunchish kinda riff goes like this

a12-11-0-10-9-8-0-7-0-6-5
D12-11-0-10-9-8-0-7-0-6-5 2Xpower chords.but still good job :)

I want to post or [tab]
guest
You may want to rate the tab now too:
select rating
Please do not post tabs as comments. Select "correction" instead!