Oops, an error
Loading. Please wait.

Victim Bass Tab

ver1
ver1

Whole song

More versions @911Tabs.com
4,435 views 9 this week
1 commentread comment
1 2 3 4 5
excellent!
x 5
Autoscroll
+/-
esc
set tempo
stop
Contributor
Tuning
D A D G B E
Hey! There's an official Ultimate Guitar app which is ideal
for learning songs when you're away from computer. Get the app
WARNING: You are trying to view
                                    content from Ultimate-Guitar.com
                                    in an unauthorized application,
                                    which is prohibited.

                                    Please use an official Ultimate
                                    Guitar Tabs application for iPhone,
                                    iPad or Android to access legitimate
                                    chords, guitar, bass, and drum tabs
                                    from Ultimate-Guitar.com database.

                                    Type "ultimate guitar tabs" in Apple
                                    App Store's or Android Market's
                                    search to find the application.
Intro
G|-------------------------------------------------------------------|
D|o-------------------------------5---------------------------------o|
A|o-3-------------------------------3-------------------------------o|x4
D|-------------------------------------------------------------------|
    1 e + a 2 e + a 3 e + a 4 e + a 1 e + a 2 e + a 3 e + a 4 e + a 

0:28
G|-----------------------------------------------------------------|
D|-----------------------------------------------------------------|
A|-6-------------6-6-r-6-------6-6-6-------------6-6-r-6-------6-\-|
D|-----------------------------------------------------------------|
   1 e + a 2 e + a 3 e + a 4 e + a 1 e + a 2 e + a 3 e + a 4 e + a 

G|-----------------------------------------------------------------|
D|-----------------------------------------------------------------|
A|-3-------------3-3-r-3-3-3---3---3-------------3-3-r-3-------3-5-|
D|-------------------------------5---------------------------------|
   1 e + a 2 e + a 3 e + a 4 e + a 1 e + a 2 e + a 3 e + a 4 e + a 

G|-----------------------------------------------------------------|
D|-----------------------------------------------------------------|
A|-6-------------6-6-r-6-------6-6/8---6---------6-6-r-6-----------|
D|-----------------------------------------------------------------|
   1 e + a 2 e + a 3 e + a 4 e + a 1 e + a 2 e + a 3 e + a 4 e + a 

G|-------------------------------------------------------------------|
D|o-------------------------------5---------------------------------o|
A|o-3-------------------------------3-------------------------------o|
D|-------------------------------------------------------------------|
    1 e + a 2 e + a 3 e + a 4 e + a 1 e + a 2 e + a 3 e + a 4 e + a 

1:06 Verse
G|-------------------------------------------------------------------|
D|o-----------------------------------------------------------------o|
A|o-3-------------3-3-r-3---3---------------------------------------o|
D|----------------------------------6-------------6-6-r-6---6--------|
    1 e + a 2 e + a 3 e + a 4 e + a 1 e + a 2 e + a 3 e + a 4 e + a 

G|-----------------------------------------------------------------|
D|-----------------------------------------------------------------|
A|-----------------------------------------------------------------|
D|-6/8-----------8-8-r-8---8---8---8\6-------------6---6---6-------|
   1 e + a 2 e + a 3 e + a 4 e + a 1 e + a 2 e + a 3 e + a 4 e + a 

G|-----------------------------------------------------------------|
D|-----------------------------------------------------------------|
A|-------------------------------------------------------------1---|
D|-6/8-----------8-8-r-8-----------8\6-----------6-6-r-6-----------|
   1 e + a 2 e + a 3 e + a 4 e + a 1 e + a 2 e + a 3 e + a 4 e + a 

G|-----------------------------------------------------------------|
D|---------------------5---5---------------------6---------6-5-----|
A|-3-------3-----3-3-r---------3-------------------------------6---|
D|---------------------------------6-------6-------6-r-6-----------|
   1 e + a 2 e + a 3 e + a 4 e + a 1 e + a 2 e + a 3 e + a 4 e + a 

G|-----------------------------------------------------------------|
D|---------5-------------------------------------------------------|
A|-3-------------3-5-r-3---3---------------------------------------|
D|-----------------------------3-5-6-----------6-6-6-r-6---6---6---|
   1 e + a 2 e + a 3 e + a 4 e + a 1 e + a 2 e + a 3 e + a 4 e + a 

G|-----------------------------------------------------------------|
D|-----------------------------------------------------------------|
A|-----------------------------------------------------------------|
D|-6/8-----------8-8-r-8---8-------8\6-----------6-6-r-6---6-------|
   1 e + a 2 e + a 3 e + a 4 e + a 1 e + a 2 e + a 3 e + a 4 e + a 

G|-----------------------------------------------------------------|
D|-----------------------------------------------------------------|
A|-----------------------------------------------------------------|
D|-6/8-----------8-8-r-8---8-------8\6-------------6---6---6---6-8-|
   1 e + a 2 e + a 3 e + a 4 e + a 1 e + a 2 e + a 3 e + a 4 e + a 

2:05 Chorus
G|-------------------------5-------------------------------5-------|
D|---------5-----------5-----5---5-6-------6-----------6-----6---6-|
A|-3-3---3---3-3-3---3---3-----3-----3---3---3-3-3---3---3-----3---|
D|-----------------------------------------------------------------|
   1 e + a 2 e + a 3 e + a 4 e + a 1 e + a 2 e + a 3 e + a 4 e + a 

G|-----------------------------------------------------------------|
D|-----------------------------------------------------------------|
A|-1-1---1-1-1-1-1---1-1-1-1-1-1-1---------------------------------|
D|---------------------------------1-----1---1-5-----5-5---5---5---|
   1 e + a 2 e + a 3 e + a 4 e + a 1 e + a 2 e + a 3 e + a 4 e + a 

G|-------------------------5-------------------------------5-------|
D|---------5-----------5-----5---5-6-------6-----------6-----6---6-|
A|-3-3---3---3-3-3---3---3-----3-----3---3---3-3-3---3---3-----3---|
D|-----------------------------------------------------------------|
   1 e + a 2 e + a 3 e + a 4 e + a 1 e + a 2 e + a 3 e + a 4 e + a 

G|-----------------------------------------------------------------|
D|-----------------------------------------------------------------|
A|-1-1---1-1-1-1-1---1-1-1-1-1-1-1---------------------------------|
D|---------------------------------1-----1---1-5-------------------|
   1 e + a 2 e + a 3 e + a 4 e + a 1 e + a 2 e + a 3 e + a 4 e + a 

G|---------------------------------|
D|---------------------------------|
A|-3-------------------------------|
D|---------------------------------|
   1 e + a 2 e + a 3 e + a 4 e + a

Verse 2:38
G|-----------------------------------------------------------------|
D|-----------------------------------------------------------------|
A|-3-------3-----3-3-r-3---3---3-----------------------------------|
D|---------------------------------6-------------6-6-r-6---6---6---|
   1 e + a 2 e + a 3 e + a 4 e + a 1 e + a 2 e + a 3 e + a 4 e + a 

G|-----------------------------------------------------------------|
D|-----------------------------------------------------------------|
A|-3-------3-----3-3-r-3---3---------------------------------------|
D|-----------------------------5---6-------6-----6-6-r-6---6-------|
   1 e + a 2 e + a 3 e + a 4 e + a 1 e + a 2 e + a 3 e + a 4 e + a 

G|-----------------------------------------------------------------|
D|-----------------------------------------------------------------|
A|-----------------------------------------------------------------|
D|-6/8-----8-----8-8-r-8---8---8---8\6-----------6-6-r-6---6-------|
   1 e + a 2 e + a 3 e + a 4 e + a 1 e + a 2 e + a 3 e + a 4 e + a 

G|-----------------------------------------------------------------|
D|-----------------------------------------------------------------|
A|-----------------------------------------------------------------|
D|-6/8-----------8-8-r-8---8-------8\6-------------6---6-------6-8-|
   1 e + a 2 e + a 3 e + a 4 e + a 1 e + a 2 e + a 3 e + a 4 e + a 

3:07 Chorus
G|-------------------------5-------------------------------5-------|
D|---------5-----------5-----5---5-6-------6-----------6-----6---6-|
A|-3-3---3---3-3-3---3---3-----3-----3---3---3-3-3---3---3-----3---|
D|-----------------------------------------------------------------|
   1 e + a 2 e + a 3 e + a 4 e + a 1 e + a 2 e + a 3 e + a 4 e + a 

G|-----------------------------------------------------------------|
D|-----------------------------------------------------------------|
A|-1-1---1-1-1-1-1---1-1-1-1-1-1-1---------------------------------|
D|---------------------------------1-----1---1-5-----5-5---5---5---|
   1 e + a 2 e + a 3 e + a 4 e + a 1 e + a 2 e + a 3 e + a 4 e + a 

G|-------------------------5-------------------------------5-------|
D|---------5-----------5-----5---5-6-------6-----------6-----6---6-|
A|-3-3---3---3-3-3---3---3-----3-----3---3---3-3-3---3---3-----3---|
D|-----------------------------------------------------------------|
   1 e + a 2 e + a 3 e + a 4 e + a 1 e + a 2 e + a 3 e + a 4 e + a 

G|-----------------------------------------------------------------|
D|-----------------------------------------------------------------|
A|-1-1---1-1-1-1-1---1-1-1-1-1-1-1---------------------------------|
D|---------------------------------1-----1---1-5-------------------|
   1 e + a 2 e + a 3 e + a 4 e + a 1 e + a 2 e + a 3 e + a 4 e + a 

3:37 Guitar Solo 1
G|-----------------------------------------------------------------|
D|---------------------------------------------------6-------------|
A|-3---3---1-3---3-----3-5-6-5-3-----------------------------------|
D|---------------------------------8---6-----6---6---------6-005-00|
   1 e + a 2 e + a 3 e + a 4 e + a 1 e + a 2 e + a 3 e + a 4 e + a 

G|-----------------------------------------------------------------|
D|-----------------------------------------------------------------|
A|---------------------------------3---3---1-3-----3---3-3---1-3-6-|
D|-3---3-----3---3---3-3---3---3-----------------------------------|
   1 e + a 2 e + a 3 e + a 4 e + a 1 e + a 2 e + a 3 e + a 4 e + a 

Interlude 3:52
G|------------------------------------------------------------------|
D|o-----------------------------------------------------------------|
A|o-3---3---3-3-3---3-3-3-3---3-3-----------------------------------|
D|----------------------------------6---6---6-6-6---6-6-6-6---6-6---|
    1 e + a 2 e + a 3 e + a 4 e + a 1 e + a 2 e + a 3 e + a 4 e + a 

G|------------------------------------------------------------------|
D|-----------------------------------------------------------------o|
A|-6---6---6-6-6---6-6-6-6---6-6-----------------------------------o|
D|---------------------------------5---5---5-5-5---5-5-5-5-5-5-5-5--|
   1 e + a 2 e + a 3 e + a 4 e + a 1 e + a 2 e + a 3 e + a 4 e + a 

Bridge 4:22
G|-----------------------------------------------------------------|
D|-----------------------------------------------------------------|
A|-6-----6-6-------6---6---6-8-6-5-1-----1-1-----1-1---1---1-1-0-1-|
D|-----------------------------------------------------------------|
   1 e + a 2 e + a 3 e + a 4 e + a 1 e + a 2 e + a 3 e + a 4 e + a 

G|-----------------------------------------------------------------|
D|-----------------------------------------------------------6-5---|
A|-3-----3-3-----3-3---3---3-5-3-1-------------------------------6-|
D|---------------------------------6-----6-6-----6-6---6-----------|
   1 e + a 2 e + a 3 e + a 4 e + a 1 e + a 2 e + a 3 e + a 4 e + a 

4:36
G|------------------------------------------------------------------|
D|--------------------------------------------------------------6-8-|
A|-6-----6-6-6---6-6---6---6---6-8--------------------------5-8-----|
D|---------------------------------8-----8-8---8---8-8-8-10---------|
   1 e + a 2 e + a 3 e + a 4 e + a 1 e + a 2 e + a 3 e + a  4 e + a 

G|--------------------------5---------------------------------------|
D|----------------------5-----5-------------------------------------|
A|-3------3-3-----3-3-----3-----3-----------------------------------|
D|----------------------------------6-----6-6-----6-6---6---6---6---|
    1 e + a 2 e + a 3 e + a 4 e + a 1 e + a 2 e + a 3 e + a 4 e + a 

G|-----------------------------------------------------------------|
D|-----------------------------------------------------------------|
A|-3-------------------------------3-------------------------------|
D|-----------------------------------------------------------------|
   1 e + a 2 e + a 3 e + a 4 e + a 1 e + a 2 e + a 3 e + a 4 e + a 

G|-----------------------------------------------------------------|
D|-----------------------------------------------------------------|
A|-3-------------------------------3---------------3-3-3-3-3-3-3-3-|
D|-----------------------------------------------------------------|
   1 e + a 2 e + a 3 e + a 4 e + a 1 e + a 2 e + a 3 e + a 4 e + a 

Guitar Solo 2 5:06
G|-------------------------------------------------3-----3---------|
D|-1---1---1-1-1---1-1-1-1---1-1-1---------------------------------|
A|---------------------------------1---1---1-1-1-----1-1-----1-1-1-|
D|-----------------------------------------------------------------|
   1 e + a 2 e + a 3 e + a 4 e + a 1 e + a 2 e + a 3 e + a 4 e + a 

G|-----------------------------------------------------------------|
D|-----------------------------------------6---------------6-------|
A|-3---3---3-3-3---3-3-3-3---3-3-3---------------------------------|
D|---------------------------------6---6-----6-6---6-6-6-6---6-6-6-|
   1 e + a 2 e + a 3 e + a 4 e + a 1 e + a 2 e + a 3 e + a 4 e + a 

G|-----------------------------------------------------------------|
D|-1---1---1-1-1---1-1-1-1---1-1-1---------------------------------|
A|---------------------------------1---1---1-1-1---1-1-1-1---1-1-1-|
D|-----------------------------------------------------------------|
   1 e + a 2 e + a 3 e + a 4 e + a 1 e + a 2 e + a 3 e + a 4 e + a 

G|-----------------------------------------------------------------|
D|-----------------------------------------------------------------|
A|-3---3---3-3-3---3-3-3-3---3-3-3---------------------------------|
D|---------------------------------6---6---6-6-6---6-6-6-6-6-6-6-6-|
   1 e + a 2 e + a 3 e + a 4 e + a 1 e + a 2 e + a 3 e + a 4 e + a 

Chorus
G|-------------------------5-------------------------------5-------|
D|---------5-----------5-----5---5-6-------6-----------6-----6---6-|
A|-3-3---3---3-3-3---3---3-----3-----3---3---3-3-3---3---3-----3---|
D|-----------------------------------------------------------------|
   1 e + a 2 e + a 3 e + a 4 e + a 1 e + a 2 e + a 3 e + a 4 e + a 

G|-----------------------------------------------------------------|
D|-----------------------------------------------------------------|
A|-1-1---1-1-1-1-1---1-1-1-1-1-1-1---------------------------------|
D|---------------------------------1-----1-----5-----5-5---5---5---|
   1 e + a 2 e + a 3 e + a 4 e + a 1 e + a 2 e + a 3 e + a 4 e + a 

G|-------------------------5-------------------------------5-------|
D|---------5-----------5-----5---5-6-------6-----------6-----6---6-|
A|-3-3---3---3-3-3---3---3-----3-----3---3---3-3-3---3---3-----3---|
D|-----------------------------------------------------------------|
   1 e + a 2 e + a 3 e + a 4 e + a 1 e + a 2 e + a 3 e + a 4 e + a 

G|-----------------------------------------------------------------|
D|-----------------------------------------------------------------|
A|-1-1---1-1-1-1-1---1-1-1-1-1-1-1---------------------------------|
D|---------------------------------1-----1---1-5-------------------|
   1 e + a 2 e + a 3 e + a 4 e + a 1 e + a 2 e + a 3 e + a 4 e + a 

G|-----------------------------------------------------------------|
D|-----------------------------------------------------------------|
A|-----------------------------------------------------------------|
D|-1-----1---1-5-----------5---5---1-1-1-1-----5-------------------|
   1 e + a 2 e + a 3 e + a 4 e + a 1 e + a 2 e + a 3 e + a 4 e + a 

G|-----------------------------------------------------------------|
D|-------------------------------5-------------------------------5-|
A|-3-------------------------------3-------------------------------|
D|-----------------------------------------------------------------|
   1 e + a 2 e + a 3 e + a 4 e + a 1 e + a 2 e + a 3 e + a 4 e + a
G|-----------------------------------------------------------------|
D|-------------------------------5---------------------------------|
A|-3-------------------------------3-------------------------------|
D|-----------------------------------------------------------------|
   1 e + a 2 e + a 3 e + a 4 e + a 1 e + a 2 e + a 3 e + a 4 e + a 
Tabbed by Dave Vucko

And this is my old version (First tab i made)
Intro
G|-------| 
D|---5---| 
A|-3--3--|
D|-------|X4

Pre-Verse
G|--------3----------------------------------------------------| 
D|-1-111-1-1-111-1-------5-------01-111-1/3/1-111-1--5-----5---| 
A|----------------3-333-3-3-333-3------------------3--3--3--3--| 
D|-------------------------------------------------------------| 

Verse
G|----------------------------------------------------------------| 
D|----------------------------------------------------------------| 
A|-3-333-3-------3-333-3------------------------------------------| 
D|--------6-666-6-------6-666-66h8-888-88p6-666-66h8-888-88p6-666-| 

G|------------------------------------------------------------------|
D|-------------54---------------------------------------------------| 
A|-3-333-3-------653-333-3------------------------------------------| 
D|--------6-666-----------6-666-66h8-888-88p6-666-66h8-888-88p6-666-| 

Chorus
G|-------------5----------------5----------------------------------| 
D|-----5-----5--5-5-----5-----5--5-5-------------------------------| 
A|-33-3-333-3-3--3--33-3-333-3-3--3-11-11111-1111111---------------| 
D|----------------------------------------------------1-1-5-5555---| 

G|-------------5----------------5----------------------------------| 
D|-----5-----5--5-5-----5-----5--5-5-------------------------------| 
A|-33-3-333-3-3--3--33-3-333-3-3--3-11-11111-1111111----------3----| 
D|----------------------------------------------------1-1-5--------| 

Verse
G|----------------------------------------------------------------| 
D|----------------------------------------------------------------| 
A|-3-333-3-------3-333-3------------------------------------------| 
D|--------6-666-6-------6-666-66h8-888-88p6-666-66h8-888-88p6-666-| 

Chorus
G|-------------5----------------5----------------------------------| 
D|-----5-----5--5-5-----5-----5--5-5-------------------------------| 
A|-33-3-333-3-3--3--33-3-333-3-3--3-11-11111-1111111---------------| 
D|----------------------------------------------------1-1-5-5555---| 

G|-------------5----------------5----------------------------------| 
D|-----5-----5--5-5-----5-----5--5-5-------------------------------| 
A|-33-3-333-3-3--3--33-3-333-3-3--3-11-11111-1111111---------------| 
D|----------------------------------------------------1-1-5--------| 

Guitar Solo 1
G|-------------------------------------------| 
D|----------------------------------------13-| 
A|-33-33-333---------------------33-1-33-3---| 
D|-----------66-66-666-33-33-333-------------| 

Interlude
G|-----------------------------------------------------------| 
D|-----------------------------------------------------------| 
A|-33-33--33-333---------------------------------------------| 
D|-----------------66-66--66-666-11-11--11-111-55-55--55-555-|X2

Bridge
G|------------------------------------------------------------------| 
D|-1-111-111-1110---------------------------------------------------| 
A|---------------321-111-111-1110123-333-333-333332-----------------| 
D|-------------------------------------------------6-666-666-666666-|X2

G|----------------------| 
D|----------------------| 
A|-3--3--3--3--33333333-| 
D|----------------------| 

Guitar Solo 2
G|----------------------------------------------------------| 
D|-11-11--11-111--------------------------------------------| 
A|---------------11-11--11-111-33-33--33-333----------------| 
D|-------------------------------------------66-66--66-666--|X2

Chorus
G|-------------5----------------5----------------------------------| 
D|-----5-----5--5-5-----5-----5--5-5-------------------------------| 
A|-33-3-333-3-3--3--33-3-333-3-3--3-11-11111-1111111---------------| 
D|----------------------------------------------------1-1-5-5555---| 

G|-------------5----------------5-----------------------------------------| 
D|-----5-----5--5-5-----5-----5--5-5--------------------------------------| 
A|-33-3-333-3-3--3--33-3-333-3-3--3-11-11111-1111111----------------------| 
D|----------------------------------------------------1-1-5--1-1-5--1-1-5-| 

Outro
G|----------------| 
D|----5---5---5---| 
A|-3---3---3---3--| 
D|----------------| 

Hope you liked it!!
Tabbed by: Dave Vucko
comments
print report bad tab
1 comment total.
+1 reply
wesselrockt wrote on October 11 2011, 03:09 pm

good work!

I want to post or [tab]
guest
You may want to rate the tab now too:
select rating
Please do not post tabs as comments. Select "correction" instead!