Oops, an error
Loading. Please wait.

Victim Tab

ver2
ver2

Intro

Whole song

More versions @911Tabs.com
3,563 views 1 this week
1 commentread comment
1 2 3 4 5
accurate
x 4
Autoscroll
+/-
esc
set tempo
stop
Contributor
Difficulty
Tuning
intermediate
C G C F A D
Hey! There's an official Ultimate Guitar app which is ideal
for learning songs when you're away from computer. Get the app
WARNING: You are trying to view
                                    content from Ultimate-Guitar.com
                                    in an unauthorized application,
                                    which is prohibited.

                                    Please use an official Ultimate
                                    Guitar Tabs application for iPhone,
                                    iPad or Android to access legitimate
                                    chords, guitar, bass, and drum tabs
                                    from Ultimate-Guitar.com database.

                                    Type "ultimate guitar tabs" in Apple
                                    App Store's or Android Market's
                                    search to find the application.
#----------------------------------PLEASE NOTE---------------------------------#
#This file is the author's own work and represents their interpretation of the #
#song. You may only use this file for private study, scholarship, or research. #
#------------------------------------------------------------------------------#

VICTIM
As recorded by Avenged Sevenfold
(From the 2010 Album NIGHTMARE)


Transcribed by Liam Briggs - lb.guitar.boy@gmail.com

 Words and Music by Avenged Sevenfold

 

D
x x 0 2 3 2 Bb6b5
x 1 3 0 3 0 C
x 3 5 0 5 0 D5
12 12 12 x x x 
Bb/D
12 13 15 x x x C(type 2)
10 10 14 x x x F5
3 3 x x x x A5
7 7 x x x x 
Dm
x x 0 2 3 1 Bb
x 1 3 3 3 x F
3 x 3 2 1 1 A7
x 0 2 0 2 0 
Copen
x 3 2 0 1 0 D5V
x 5 7 x x x 


Gtr I (C G C F A D) - 'Clean Rhythm'
Gtr II (C G C F A D) - 'Clean Lead'
Gtr III (C G C F A D) - 'Acoustic'
Gtr IV (C G C F A D) - 'Dist. Lead'
Gtr V (C G C F A D) - 'Dist. Rhy. 1'
Gtr VI (C G C F A D) - 'Dist. Rhy. 2'

NB: There's more than six guitars in this. I've got this almost
finished in Guitar Pro; there's about 12 guitars all up and
this was a nightmare to arrange this way. Sorry if it seems
hard to read, but someone had to tab it right. If you're still
having problems reading it, download the Power Tab version of
this, I exported it from my own tab. Enjoy, forREVer :)




   Intro
    Moderately Q=134
    (Dm)
   4/4
    Gtr I
    E E E E E. S +E  E   +H     +Q.   E
||----------3--1-(1)-0-|-(0)----(0)-----|
||o-3-----3------------|----------------|
||------2--------------|--------------2-|
||----0----------------|----------------|
||o--------------------|----------------|
||---------------------|----------------|


  E E E E E. S +E  E   +H     E E E E   4x
|---------3--1-(1)-0-|-(0)----0h1p0-----||
|-------3------------|--------------1--o||
|-----2--------------|------------------||
|--------------------|------------------||
|---0----------------|-----------------o||
|-0------------------|------------------||


  F
  Gtr I
    H     Q    E  E    +E  E E E Q    E  E
|---1-----1----1--1-|--(1)-1-----1----1--1-|
|---1-----1----1--1-|--(1)-1-----1----1----|
|---x---------------|----------------------|
|---3---------------|--------3-3-----------|
|-------------------|----------------------|
|-------------------|----------------------|
|
| Gtr II
|   H.         E  E     H.            E  E
|-------------------|----------------------|
|-^10--------^10-11-|-^10-----------^10-11-|
|-^10--------^10----|-^10-----------^10----|
|-^10--------^10----|-^10-----------^10----|
|-------------------|----------------------|
|-------------------|----------------------|


   Q   E  E   Q     E  E   +E  E E E E E E E
|--1---1--1---1-----1--1-|-(1)-1-----1-------|
|--1---1--1---1-----1--1-|-(1)---1-----1-----|
|--x---------------------|---------0-----0---|
|--3---------------------|-----------------0-|
|------------------------|-------------------|
|------------------------|-------------------|
|
|  Q   E  E  +Q     E  E    H.           Q
|------------------------|-------------------|
|-13--11-10-(10)--^10-11-|-13----------------|
|-----------------^10----|-------------------|
|-----------------^10----|-------------------|
|------------------------|-------------------|
|------------------------|-------------------|


  Dm
  H    Q.   E     +E  E E E  E  E E E
|-1----1----1-|---(1)-1------1--------|
|-3----3----3-|---(3)---3-------3-----|
|-2----2----2-|---(2)-----2-------2---|
|-------------|---------------------0-|
|-------------|-----------------------|
|-------------|-----------------------|
|
| W             a  Q    E E +H
|-------------|-----------------------|
|-6-----------|----6------6-(6)-------|
|-7-----------|-7h=9----7-------------|
|-------------|-----------------------|
|-------------|-----------------------|
|-------------|-----------------------|


    H       Q.   E   +E  E E  E  E E E E
|---1-------1----1-|-(1)-1-------3-1---1---|
|---3-------3----3-|-(3)---3---------3-----|
|---2-------2----2-|-(2)------2------------|
|-----------0------|-----------------------|
|------------------|-----------------------|
|------------------|-----------------------|
|
| a Q  E E +H        +Q    E  E  E E E E
|------------------|-----------------------|
|---6----6-(6)-----|-(6)---8-(6)-8-6---6---|
|-7h9--7-----------|-----------------7-----|
|------------------|-----------------------|
|------------------|-----------------------|
|------------------|-----------------------|


  Fsus2
    E  E  E E   Q     E  E    E  Q   E   E  E E E
|---1-----3-1---1--------1-|-----1-------1--------|
|---1-----------1----------|-----1----------1-----|
|------0--------------0----|--0---------------0---|
|--------------------------|---------3----------3-|
|--------------------------|----------------------|
|--------------------------|----------------------|
|
|   E  Q.      +Q     E  E    E  Q.     +H
|--------------------------|----------------------|
|-^11p10------(10)--^11-10-|-11-10-----(10)-------|
|-^10---------------^10-10-|----10-----(10)-------|
|-^10---------------^10----|----------------------|
|--------------------------|----------------------|
|--------------------------|----------------------|


  Q   Q        Q  E E     E  Q  E Q     E  E
|-------------------1-|------1-----------------|
|--------------1----1-|------------------------|
|-0------------0------|-----------0------------|
|-----3--------3--3---|---3-----3-------3--2---|
|---------------------|------------------------|
|---------------------|------------------------|
|
|     |--3--|
| Q   E  E  E  H         +H.         a  Q
|---------------------|------------------------|
|-------------13------|-(13)-------------------|
|----10s12s14---------|--------------5s10/-----|
|---------------------|------------------------|
|---------------------|------------------------|
|---------------------|------------------------|


  (Dm)
   E E E E E. S +E  E   +H      +Q.     E
|----------3--1-(1)-0-|-(0)-----(0)-------|
|--3-----3------------|-------------------|
|------2--------------|-----------------2-|
|----0----------------|-------------------|
|---------------------|-------------------|
|---------------------|-------------------|
|
|  W                     H       E  Q.
|---------------------|--------^10s12-----|
|-15------------------|-15-----^-x--------|
|---------------------|--------^10S12-----|
|---------------------|-------------------|
|---------------------|-------------------|
|---------------------|-------------------|


    E  E  E E   E. S +E  E    +H     E E E E
|---------------3--1-(1)-0-|--(0)----0h1p0---|
|-----------3--------------|---------------1-|
|---------2----------------|-----------------|
|--------------------------|-----------------|
|------0-------------------|-----------------|
|---0----------------------|-----------------|
|
|   E  Q.      +H             +W
|-^12s10------(10)---------|-(10)------------|
|-^-x----------------------|-----------------|
|-^12S10------(10)---------|-(10)------------|
|--------------------------|-----------------|
|--------------------------|-----------------|
|--------------------------|-----------------|


    E  E E E   E. S +E     E   +H           +Q.       E
|--------------3--1-(1)----0-|-(0)----------(0)---------|
|---3------3-----------------|--------------------------|
|--------2-------------------|------------------------2-|
|------0---------------------|--------------------------|
|----------------------------|--------------------------|
|----------------------------|--------------------------|
|
|              |----3----|      |--3---|     |--3---|
|  +H         +H         Q      Q   Q  Q  a  Q   Q  Q
|-(10)-------(10)------------|-----10-----------12------|
|----------------------------|--------------------------|
|-(10)-------(10)-------10---|-10-----10-10s12-----12---|
|----------------------------|--------------------------|
|----------------------------|--------------------------|
|----------------------------|--------------------------|


      E E    E E   E. S +E  E    +H     E E E E
|------------------3--1-(1)-0-|--(0)----0h1p0----||
|--------------3--------------|---------------1--||
|------------2----------------|------------------||
|-----------------------------|------------------||
|-------0---------------------|------------------||
|-----0-----------------------|------------------||
|
|     |-3--|
|  a  Q    H      +H             +W
|---------13-----(13)---------|-(13)-------------||
|-----------------------------|------------------||
|-12s14-----------------------|------------------||
|-----------------------------|------------------||
|-----------------------------|------------------||
|-----------------------------|------------------||


 Verse 1
  D                                 Bb6b5
  Gtrs I, III
   H    Q.   E   +E  E Q  E Q   E   Q.   E +E E Q    +E  E   Q  E Q  E
   |    |    |    |  | |  | |   |   |    |  | | |     |  |   |  | |  |
   /    /    /    /  / /  / /   x   /    /  / / /     /  /   /  / /  /

  Gtr II
   W             +E  E Q  E E E E   W                +Q    a Q  E Q  E
|--------------|------------------|----------------|---------6--6-6----|
|-^7-----------|-(7)-7------------|-6--------------|-(6)---6h8--6-6----|
|-^7-----------|-(7)-7-7--9p7---7-|-7--------------|-(7)----------0----|
|-^7-----------|-(7)----------7---|----------------|-------------------|
|--------------|------------------|----------------|-----------------8-|
|--------------|------------------|----------------|-------------------|


  D                                   Bb6b5
   H    Q.   E   +E  E Q  E Q   E     Q.     E +E E Q    +E  E Q   E  Q   E
   |    |    |    |  | |  | |   |     |      |  | | |     |  | |   |  |   |
   /    /    /    /  / /  / /   x     /      /  / / /     /  / /   /  /   /

   W             +E  E Q  E Q.      a Q   H.             +E  E Q  +E  E E E
|--------------|------------------|-------6------------|-(6)----------6-----|
|-^7-----------|-(7)-7----7-------|--------------------|-------6--(6)-------|
|-^7-----------|-(7)-9----7-------|-2s7----------------|-----7----------7s9-|
|-^7-----------|-(7)---7----7-----|--------------------|--------------------|
|--------------|------------------|--------------------|--------------------|
|--------------|------------------|--------------------|--------------------|


  BbCb5
  E Q  E E E E E   +E  E    Q    E  E E  E
  | |  | | | | |    |  |    |    |  | |  |
  / /  / / / / /    /  /    /    /  / /  /

  W                +Q    a  Q   +E  Q   +E
|-8--------------|-(8)------8---(8)-8---(8)\-|
|----------------|-------8h10--(10)-8---(8)\-|
|----------------|---------------------------|
|----------------|---------------------------|
|----------------|---------------------------|
|----------------|---------------------------|


    Bb6b5
  E Q  E +E  E Q    +E E Q     E  Q   E
  | |  |  |  | |     | | |     |  |   |
  / /  /  /  / /     / / /     /  /   /

  E Q  E +H          Q   E  E  E  Q   E
|------6-(6)------|-----------10-----10-|
|------x----------|---------------------|
|-9s7--7-(7)------|------7s10----10-----|
|-----------------|---------------------|
|-----------------|---------------------|
|-----------------|---------------------|


  Bb6C5
   E  Q   E   E  E E E   +E E Q        E  E  E  E
   |  |   |   |  | | |    | | |        |  |  |  |
   /  /   /   /  / / /    / / /        /  /  /  /

   E  Q.     +H           H       a a  E  E  E  E
|----------------------|--------------13-12----12s|
|----------------------|------------x-------------|
|-10s12-----(12)-------|---------12---------12----|
|----------------------|--------------------------|
|----------------------|--------------------------|
|----------------------|--------------------------|


     Bb6b5
   E Q  E +E E Q    +E E Q  E Q  E
   | |  |  | | |     | | |  | |  |
   / /  /  / / /     / / /  / /  /

   H       H         W
|-10--------------|-----------------||
|-----------------|-----------------||
|-----------------|-----------------||
|-----------------|-----------------||
|-----------------|-----------------||
|-----------------|-----------------||


 Verse 2
  D
  Gtrs I, III
  H       Q.         E    +E  E Q   E  Q      E
  |       |          |     |  | |   |  |      |
  /       /          /     /  / /   /  /      x

  Gtr II
  Q  E E  E  E a  E  E    +H        E  Q     +E
|----------------------|--------------------------|
|-------------------10-|-(10)---------10----(10)\-|
|------7--9--7-9s11----|-----------11-11----(11)\-|
|----------------------|--------------------------|
|----------------------|--------------------------|
|----------------------|--------------------------|
|
| Gtr IV
| H      +Q.         E    +E  E H        Q
|----------------------|--------------------------|
|----------------------|--------------------------|
|----------------------|------9----------9\-------|
|-7------(7)---------7-|--(7)-7-7--------7\-------|
|-5------(5)---------5-|--(5)-5-5--------5\-------|
|----------------------|--------------------------|


  Bb6b5
  Q.   E +E  E Q     +E  E Q    E Q   E
  |    |  |  | |      |  | |    | |   |
  /    /  /  / /      /  / /    / /   /

  H      +Q.     E   +H       a E E E E
|------------------|------------8-6------|
|-6------(6)-----6-|-(6)------6h8-6-8----|
|-7------(7)-------|---------------------|
|------------------|---------------------|
|------------------|---------------------|
|------------------|---------------------|
|
| H       H          +E  E Q    E E E E
|------------------|---------------------|
|------------------|------------------0--|
|------------------|-----0-0----0-0-0-0--|
|-3-------3--------|-(3)-3-3----3-3-3-0--|
|-1-------1--------|-(1)-1-1----1-1-1----|
|------------------|---------------------|


  D
  H    Q.   E     +E  E  Q     E  Q     E
  |    |    |      |  |  |     |  |     |
  /    /    /      /  /  /     /  /     x

  W                E  E  E  E  E  E  Q
|-------------|---10----12p10-12-10-------|
|-7-----------|------10-10----10----------|
|-7-----------|---------------------11\---|
|-7-----------|---------------------------|
|-------------|---------------------------|
|-------------|---------------------------|
|
| H    H        a  E  E  E  E  E  E  E  E
|-------------|---------------------------|
|-7----7------|----------7----------------|
|-7----7------|----------7-----9--7-------|
|-7----7------|-------7-----7--------9----|
|-5----5------|-7s=9--------------------0-|
|-------------|---------------------------|


  Bb6b5
  Q.   E +E  E Q         +E     E Q    E  Q  E
  |    |  |  | |          |     | |    |  |  |
  /    /  /  / /          /     / /    /  /  /

  W                  a a  S  E.   E E +H
|------------------|------6h=8----6--------------|
|------------------|---6------------6-(6)--------|
|-7----------------|-7---------------------------|
|------------------|-----------------------------|
|------------------|-----------------------------|
|------------------|-----------------------------|
|
| H      +E  E E E       +E     E Q    H
|------------------|-----------------------------|
|------------3-3-3-|-----(3)---------------------|
|------------3-3-3-|-----(3)---------------------|
|-3------(3)-3-3-3-|-----(3)----3-3----3---------|
|-1------(1)-1-1-1-|-----(1)----1-1----1---------|
|------------------|-----------------------------|


  BbCb5
  E Q   E  E  E E E   +E E Q    E  E E E
  | |   |  |  | | |    | | |    |  | | |
  / /   /  /  / / /    / / /    /  / / /

  E Q.    +Q.     E    E E E E +Q    E E
|-6s8-----(8)-------|-10p8---8-(8)-------|
|-6s8-----(8)-------|--------------------|
|-7s9-----(9)-----9-|------9---------9-9-|
|-------------------|--------------------|
|-------------------|--------------------|
|-------------------|--------------------|
|
| E Q.     Q.     E    E E Q    Q    E E
|-------------------|--------------------|
|-------------------|--------------------|
|-------------------|--------------------|
|-3s5------5------5-|--5-5-5----5----5-5-|
|-1s3------3------3-|--3-3-3----3----3-3-|
|-------------------|--------------------|


      Bb6b5
   E  Q   E +E  E Q    +E  E Q  E Q    E
   |  |   |  |  | |     |  | |  | |    |
   /  /   /  /  / /     /  / /  / /    /

   E  E E E +H          H       Q    E E
|--8s=6---6-(6)------|--------------^6----|
|--------------------|--------------^6----|
|-(9)s7-7------------|--------------^7----|
|--------------------|--------------------|
|--------------------|--------------------|
|--------------------|--------------------|
|
|  E  E E E +E  E Q    +E  E Q  E E  Q
|--------------------|--------------------|
|--------------------|--------------------|
|--------------------|--------------------|
|--5s=3-3-3-(3)-3-3--|-(3)-3-3--3-3--3----|
|--3s=1-1-1-(1)-1-1--|-(1)-1-1--1-1--1----|
|--------------------|--------------------|


  BbCb5
  Gtrs I, III
  E Q   E E E    E    E      +E E    Q    E  E  E E
  | |   | | |    |    |       | |    |    |  |  | |
  / /   / / /    /    /       / /    /    /  /  / /

  Gtr II
          |----3----|         |-3--|
  E Q.    Q    Q    Q      a  Q    H     +Q     Q
|-6s8---------10--------|---------10----(10)---12---|
|-x---------------------|-----------------------x---|
|-7s9-----9s==10---10---|-10s12----------------12---|
|-----------------------|---------------------------|
|-----------------------|---------------------------|
|-----------------------|---------------------------|
|
| Gtr IV
| E Q.    Q.          E       E E    Q    Q     E E
|-----------------------|---------------------------|
|-----------------------|---------------------------|
|-----------------------|---------------------------|
|-3s5-----5-----------5-|-----5-5----5----5-----5-5-|
|-1s3-----3-----------3-|-----3-3----3----3-----3-3-|
|-----------------------|---------------------------|
|
| Gtrs V, VI
| W                           W
|-----------------------|---------------------------|
|-----------------------|---------------------------|
|-----------------------|---------------------------|
|-----------------------|---------------------------|
|-----------------------|---------------------------|
|-----------------------|---------------------------|
  W                           W


     Bb6b5
   E  Q     E  +E  E    Q       +E  E   Q   E Q   E
   |  |     |   |  |    |        |  |   |   | |   |
   /  /     /   /  /    /        /  /   /   / /   /

   E  Q     E  +H                W
|-12s10----10-(10)-----------|------------------------||
|--x--------x----------------|------------------------||
|-12s10----10-(10)-----------|------------------------||
|----------------------------|------------------------||
|----------------------------|------------------------||
|----------------------------|------------------------||
|
|  E  E  E  E  +E  E    Q       +E  E   Q   E E Q
|----------------------------|------------------------||
|----------------------------|------------------------||
|----------------------------|------------------------||
|--5s=3--3--3--(3)-3----3----|--(3)-3---3---3-3-3-----||
|--3s=1--1--1--(1)-1----1----|--(1)-1---1---1-1-1-----||
|----------------------------|------------------------||
|
|        <
|                                       ~~~~
|  Q     H              Q       +Q     +H.
|----------------------------|------------------------||
|-------11-----------([11])--|-(11)---(11)------------||
|--------7------------([7])--|--(7)----(7)------------||
|----------------------------|------------------------||
|----------------------------|------------------------||
|----------------------------|------------------------||
   Q     H              Q       +Q     +H.


 Chorus
  D5
  Gtrs V, VI
   E  E E  E  E  E  E  E   E  E  E  E  E  E  E  E
|------------------------|------------------------|
|------------------------|------------------------|
|------------------------|------------------------|
|-12-12---12-12-12-12-12-|---12-12-12-12-12-12-12-|
|-12-12---12-12-12-12-12-|---12-12-12-12-12-12-12-|
|-12-12---12-12-12-12-12-|---12-12-12-12-12-12-12-|


  Bb/D
   E  E E  E  E  E  E  E   E  E  E  E  E  E  E  E
|------------------------|------------------------|
|------------------------|------------------------|
|------------------------|------------------------|
|-15-15---15-15-15-15-15-|---15-15-15-15-15-15-15-|
|-13-13---13-13-13-13-13-|---13-13-13-13-13-13-13-|
|-12-12---12-12-12-12-12-|---12-12-12-12-12-12-12-|


  C
   E  E E  E  E  E  E  E   E  E  E  E  E  E  E E
|------------------------|-----------------------|
|------------------------|-----------------------|
|------------------------|-----------------------|
|-14-14---14-14-14-14-14-|---14-14-14-14-14-14---|
|-10-10---10-10-10-10-10-|---10-10-10-10-10-10---|
|-10-10---10-10-10-10-10-|---10-10-10-10-10-10-0-|


  F5         A5
  Q  E E E E Q    +E  E Q  Q  Q
|---------------|----------------|
|---------------|----------------|
|---------------|----------------|
|---------------|----------------|
|-3--3-3-x-x-7--|-(7)-7-7--7--7--|
|-3--3-3-x-x-7--|-(7)-7-7--7--7--|


    D5
    Gtr IV
    E E E E E E E E    E  E E E E E E E
    | |   | | | | |       | | | | | | |
    / /   / / / / /       / / / / / / /

    Gtr V
  a W                 +H        H
|-------------------|-------------------|
|-------------------|-------------------|
|-9s7---------------|-(7)-------7-------|
|-------------------|-------------------|
|-------------------|-------------------|
|-------------------|-------------------|
|
| Gtr VI
|   W                 +H        H
|-------------------|-------------------|
|-------------------|-------------------|
|-------------------|-------------------|
|-------------------|-------------------|
|---8---------------|-(8)-------8-------|
|-------------------|-------------------|


    Bb/D
    E E E E E E E E    E  E E E E E  E  E
    | |   | | | | |       | | | | |  |  |
    / /   / / / / /       / / / / /  /  /

  a W                 +H        H
|-------------------|-----------------------|
|-------------------|-----------------------|
|-9s7---------------|-(7)-------7-----------|
|-------------------|-----------------------|
|-------------------|-----------------------|
|-------------------|-----------------------|
|
|   W                 +H        Q   +Q
|-------------------|-----------------------|
|-------------------|-----------------------|
|-------------------|-----------------------|
|---8---------------|-(8)-------8---(8)S====|
|-------------------|-----------------------|
|-------------------|-----------------------|


  C(type 2)
   E  E E E E E E E    E  E E E E E  E  E
   |  |   | | | | |       | | | | |  |  |
   /  /   / / / / /       / / / / /  /  /

                       ~~~
   W                  +H.           +Q
|-------------------|---------------------|
|-------------------|---------------------|
|-(5)---------------|-(5)-----------(5)s==|
|-------------------|---------------------|
|-------------------|---------------------|
|-------------------|---------------------|
|
|  W                  +W
|-------------------|---------------------|
|-------------------|---------------------|
|-------------------|---------------------|
|--2----------------|-(2)-----------------|
|-------------------|---------------------|
|-------------------|---------------------|


  F5              A5
   Q.    E   E  E Q    +W
   |     |   |  | |     |
   /     /   x  x /     /

                        ~~~~~~~~~~
   Q.    E  +Q    Q    +H     +Q.   +E
|--------------------|-------------------|
|--------------------|-------------------|
|-10----10-(10)s==6--|-(6)----(6)---(6)\-|
|--------------------|-------------------|
|--------------------|-------------------|
|--------------------|-------------------|
|
|  Q.    E  +E  E Q    +W
|--------------------|-------------------|
|--------------------|-------------------|
|--------------------|-------------------|
|--3-----3--(3)---5--|-(5)---------------|
|--------------------|-------------------|
|--------------------|-------------------|


 Interlude
  Dm
  Gtr I
  E E E E E. S +E   E   +W
|---------3--1-(1)--0-|-(0)--------------------||
|-3-----3-------------|------------------------||
|-----2---------------|------------------------||
|---0-----------------|------------------------||
|---------------------|------------------------||
|---------------------|------------------------||
|
| Gtr II
|                        |--3---|     |--3--|
| H       Q     E   E    Q   Q  Q  a  Q  Q  Q
|---------------------|-----10----------12-----||
|---------------------|------------------------||
|------------------10-|-10-----10-10s12----12--||
|---------------------|------------------------||
|---------------------|------------------------||
|---------------------|------------------------||


 Verse 3
     D
  Gtrs I, III
      H       Q.       E    +E   E  Q   E  Q      E
      |       |        |     |   |  |   |  |      |
      /       /        /     /   /  /   /  /      x

  Gtr II
      |3-|
   a  Q  H   +Q.    a  E    +E   E  Q   E  Q     +E
|-------14--(14)---------|------10-----10-------------|
|------------------10s12-|-(12)----10-----10----(10)\-|
|-12s14------------------|----------------------------|
|------------------------|----------------------------|
|------------------------|----------------------------|
|------------------------|----------------------------|
|
| Gtr IV
|     H      +Q.       E    +E   E  H        Q
|------------------------|----------------------------|
|------------------------|----------------------------|
|------------------------|-------9-----------9\-------|
|-----7------(7)-------7-|--(7)--7--7--------7\-------|
|-----5------(5)-------5-|--(5)--5--5--------5\-------|
|------------------------|----------------------------|


  Bb6b5
  Q.   E +E  E Q    +E  E Q   E  Q    E
  |    |  |  | |     |  | |   |  |    |
  /    /  /  / /     /  / /   /  /    /

  Q.   E +E  E Q    +H       +E  Q.
|-6----6-(6)-6-6--|-(6)------(6)-6\-----|
|-6----6-(6)-6-6--|-(6)------(6)-6\-----|
|-----------------|--------------7\-----|
|-----------------|---------------------|
|-----------------|---------------------|
|-----------------|---------------------|
|
| H       H         +E  E Q   E  E  E E
|-----------------|---------------------|
|-----------------|-------------------0-|
|-----------------|-----0-0---0--0--0-0-|
|-3-------3-------|-(3)-3-3---3--3--3-0-|
|-1-------1-------|-(1)-1-1---1--1--1---|
|-----------------|---------------------|


  D                                      Bb6b5
  H     Q.    E     +E  E Q   E Q    E   Q.   E +E  E Q     +E  E Q   E Q   E
  |     |     |      |  | |   | |    |   |    |  |  | |      |  | |   | |   |
  /     /     /      /  / /   / /    x   /    /  /  / /      /  / /   / /   /

  H.        Q     a  E  E E E E Q.       W                   E  E E E E E E E
|-2-------------|----------------------|------------------|-------8p6-8p6-----|
|-3-------------|------10-------7------|-6----------------|-----6---------6---|
|-2-------------|-9s11----9p7-9-7------|-7----------------|-----------------7-|
|---------------|----------------------|------------------|-------------------|
|---------------|----------------------|------------------|-------------------|
|---------------|----------------------|------------------|-------------------|
|
| H     H         a  E  E E E E E  E E   H      +E  E E E   +E  E Q   H
|---------------|----------------------|------------------|-------------------|
|-7-----7-------|---------7------------|------------3-3-3-|-(3)---------------|
|-7-----7-------|---------7---9-7------|------------3-3-3-|-(3)---------------|
|-7-----7-------|-------7---7------9---|-3------(3)-3-3-3-|-(3)-3-3---3-------|
|-5-----5-------|-7s=9---------------0-|-1------(1)-1-1-1-|-(1)-1-1---1-------|
|---------------|----------------------|------------------|-------------------|


  BbCb5
  E Q   E  E  E E E   +E  E Q  E E E E
  | |   |  |  | | |    |  | |  | | | |
  / /   /  /  / / /    /  / /  / / / /

  E Q.    +E  E E E   +H.          Q
|-------------------|------------------|
|-6s8-----(8)---8---|--------------8---|
|-7s9-----(9)-9---9-|-(9)----------9---|
|-------------------|------------------|
|-------------------|------------------|
|-------------------|------------------|
|
| E Q.     Q.     E    E  E Q  Q   E E
|-------------------|------------------|
|-------------------|------------------|
|-------------------|------------------|
|-3s5------5------5-|--5--5-5--5---5-5-|
|-1s3------3------3-|--3--3-3--3---3-3-|
|-------------------|------------------|


    Bb6b5
  E Q    E +E  E Q    +E  E Q   E Q   E
  | |    |  |  | |     |  | |   | |   |
  / /    /  /  / /     /  / /   / /   /

  E Q.     +H          E  E E E E E E E
|-------------------|--6----8p6---6------|
|-8s6------(6)------|-----6---------6----|
|-9s7------(7)------|-----------7-----7--|
|-------------------|--------------------|
|-------------------|--------------------|
|-------------------|--------------------|
|
| E E  E E +E  E Q    +E  E Q   E E Q
|-------------------|--------------------|
|-------------------|--------------------|
|-------------------|--------------------|
|-5s3--3-3-(3)-3-3--|-(3)-3-3---3-3-3----|
|-3s1--1-1-(1)-1-1--|-(1)-1-1---1-1-1----|
|-------------------|--------------------|


  BbCb5
  Gtrs I, III
  E Q   E  E  E E E   +E  E  Q  E E  E E
  | |   |  |  | | |    |  |  |  | |  | |
  / /   /  /  / / /    /  /  /  / /  / /

  Gtr II
  E Q.    +H           E  E  H       q
|-------------------|-------12------12---|
|-6s8-----(8)-------|----------------x---|
|-7s9-----(9)-------|--9s12---------12---|
|-------------------|--------------------|
|-------------------|--------------------|
|-------------------|--------------------|
|
| Gtr IV
| E Q.     Q.     E    E  E  Q  Q    E E
|-------------------|--------------------|
|-------------------|--------------------|
|-------------------|--------------------|
|-3s5------5------5-|--5--5--5--5----5-5-|
|-1s3------3------3-|--3--3--3--3----3-3-|
|-------------------|--------------------|
|
| Gtrs V, VI
| W                    W
|-------------------|--------------------|
|-------------------|--------------------|
|-------------------|--------------------|
|-------------------|--------------------|
|-------------------|--------------------|
|-------------------|--------------------|
  W                    W


     Bb6b5
   E  Q     E  +E  E   Q      +E  E  Q     E       Q    E
   |  |     |   |  |   |       |  |  |     |       |    |
   /  /     /   /  /   /       /  /  /     /       /    /

   E  Q.       +H              W
|-12s10-------(10)---------|-------------------------------||
|--x-----------------------|-------------------------------||
|-12s10-------(10)---------|-------------------------------||
|--------------------------|-------------------------------||
|--------------------------|-------------------------------||
|--------------------------|-------------------------------||
|
|  E  E   E E  +E  E   Q      +E  E  Q     E       E  Q
|--------------------------|-------------------------------||
|--------------------------|-------------------------------||
|--------------------------|-------------------------------||
|--5s=3---3-3--(3)-3---3---|--(3)-3--3-----3-------3--3----||
|--3s=1---1-1--(1)-1---1---|--(1)-1--1-----1-------1--1----||
|--------------------------|-------------------------------||
|
|         <
|                              ~~~~  ~~~
|  Q      H            Q      +H          +E      +Q.
|--------------------------|-------------------------------||
|--------11----------[11]--|-(11)--------(11)b13-(11)------||
|---------7-----------[7]--|--(7)---(7)--------------------||
|--------------------------|-------------------------------||
|--------------------------|-------------------------------||
|--------------------------|-------------------------------||
   Q      H            Q      +Q    +H.


 Chorus
  D5
  Gtrs V, VI
   E  E E  E  E  E  E  E   E  E  E  E  E  E  E  E
|------------------------|------------------------|
|------------------------|------------------------|
|------------------------|------------------------|
|-12-12---12-12-12-12-12-|---12-12-12-12-12-12-12-|
|-12-12---12-12-12-12-12-|---12-12-12-12-12-12-12-|
|-12-12---12-12-12-12-12-|---12-12-12-12-12-12-12-|


  Bb/D
   E  E E  E  E  E  E  E   E  E  E  E  E  E  E  E
|------------------------|------------------------|
|------------------------|------------------------|
|------------------------|------------------------|
|-15-15---15-15-15-15-15-|---15-15-15-15-15-15-15-|
|-13-13---13-13-13-13-13-|---13-13-13-13-13-13-13-|
|-12-12---12-12-12-12-12-|---12-12-12-12-12-12-12-|


  C
   E  E E  E  E  E  E  E   E  E  E  E  E  E  E E
|------------------------|-----------------------|
|------------------------|-----------------------|
|------------------------|-----------------------|
|-14-14---14-14-14-14-14-|---14-14-14-14-14-14---|
|-10-10---10-10-10-10-10-|---10-10-10-10-10-10---|
|-10-10---10-10-10-10-10-|---10-10-10-10-10-10-0-|


  F5         A5
  Q  E E E E Q    +E  E Q  Q  Q
|---------------|----------------|
|---------------|----------------|
|---------------|----------------|
|---------------|----------------|
|-3--3-3-x-x-7--|-(7)-7-7--7--7--|
|-3--3-3-x-x-7--|-(7)-7-7--7--7--|


    D5
    Gtr IV
    E E E E E E E E   E E E E  E E   E  E
    | |   | | | | |     | | |  | |   |  |
    / /   / / / / /     / / /  / /   /  /

    Gtr V
  a W                 H        Q    +Q
|-------------------|---------------------|
|-------------------|---------------------|
|-5s7---------------|-9-------10---(10)S==|
|-------------------|---------------------|
|-------------------|---------------------|
|-------------------|---------------------|
|
| Gtr VI
|   W                 H        H
|-------------------|---------------------|
|-------------------|---------------------|
|-------------------|---------------------|
|-------------------|-5--------7----------|
|---8---------------|---------------------|
|-------------------|---------------------|


  Bb/D
  E E E E E E E E   E E E E  E E  E  E
  | |   | | | | |     | | |  | |  |  |
  / /   / / / / /     / / /  / /  /  /

  W                 H        H
|-----------------|--------------------|
|-----------------|--------------------|
|-7---------------|-9-------10---------|
|-----------------|--------------------|
|-----------------|--------------------|
|-----------------|--------------------|
|
| W                 H        Q   +Q
|-----------------|--------------------|
|-----------------|--------------------|
|-----------------|--------------------|
|-----------------|-5--------7---(7)S==|
|-8---------------|--------------------|
|-----------------|--------------------|


  C(type 2)
  E  E E E E E E E   E E E E E E E E
  |  |   | | | | |     | | | | | | |
  /  /   / / / / /     / / / / / / /

                     ~
  H.           Q     W
|------------------|-----------------|
|------------------|-----------------|
|-5------------5s==|=9---------------|
|------------------|-----------------|
|------------------|-----------------|
|------------------|-----------------|
|
| W                  W
|------------------|-----------------|
|------------------|-----------------|
|------------------|-----------------|
|-2----------------|-5---------------|
|------------------|-----------------|
|------------------|-----------------|


  F5              A5
   Q.    E   E  E   Q     +W
   |     |   |  |   |      |
   /     /   x  x   /      /

                           ~~~
   Q.    E  +Q     +Q      H     +Q.   +E
|-----------------------|-------------------||
|-----------------------|-------------------||
|-10----10-(10)---(10)s=|==6-----(6)---(6)\-||
|-----------------------|-------------------||
|-----------------------|-------------------||
|-----------------------|-------------------||
|
|  Q.    E  +E  E   Q     +W
|-----------------------|-------------------||
|-----------------------|-------------------||
|-----------------------|-------------------||
|--3-----3--(3)-----2---|-(2)---------------||
|-----------------------|-------------------||
|-----------------------|-------------------||


 Guitar Solo
  D5            C5   D5
  Gtr V
   Q      E S S   E  E E E    +E    E     E  E  E       E   E  E
|--------------------------|-------------------------------------|
|--------------------------|-------------------------------------|
|--------------------------|-------------------------------------|
|--7------7-x-x---5--7---7-|--(7)---7----------------------------|
|--5------5-x-x---3--5---5-|--(5)---5-----5--7--8-------7---5----|
|--------------------------|-----------------------------------7-|
|
| Gtr VI
|  Q      E S S   E  E E E    +E    E     E  E  E       E   E  E
|--------------------------|-------------------------------------|
|--------------------------|-------------------------------------|
|--------------------------|-------------------------------------|
|--7------7-x-x---5--7---7-|--(7)---7/---------------------------|
|--5------5-x-x---3--5---5-|--(5)---5/----8-10-12------10---8----|
|--------------------------|----------------------------------10-|
|
| Gtr IV
|                 ~~~~
|  H             +H           +Q       a  E  E  E      +E   E  E
|--------------------------|-----------7s10-12-12pb13r(12)-10----|
|-13b15=========(13)-------|-(13)r\---------------------------10s|
|--------------------------|-------------------------------------|
|--------------------------|-------------------------------------|
|--------------------------|-------------------------------------|
|--------------------------|-------------------------------------|


    C   Bb        Bb5
  a  Q   E E   E   E  E     E
|-----------------------------|
|-----------------------------|
|-----------------------------|
|-----------------------------|
|--------------x---8--------8-|
|-8s10---8-----x---8--------8-|
|
| a  Q   E E   E   E  E     E
|-----------------------------|
|-----------------------------|
|-----------------------------|
|-----------------------------|
|-5s=7---5-x---x---8--------8-|
|----------x---x---8--------8-|
|
|        ~~
|    Q   Q    +E   E  e  a  E
|-----------------------------|
|---13--11---(11)-11s15-------|
|-----------------------15s10-|
|-----------------------------|
|-----------------------------|
|-----------------------------|


       Bb5                  A5            G5
  Gtrs V, VI
   +E   E E  S S   E   S  S  E     S  S    Q   E     S  S  E     E   E        E
|---------------------------------------|---------------------------------------------|
|---------------------------------------|---------------------------------------------|
|---------------------------------------|---------------------------------------------|
|---------------------------------------|---------------------------------------------|
|--(8)--8-8--x-x---8---x--x--7-----x--x-|--5---5-----x--x--x-----5------------5-------|
|--(8)--8-8--x-x---8---x--x--7-----x--x-|--5---5-----x--x--x-----5------------5-------|
|
| Gtr IV
|                                          ~~  PM|
|  +E   Q    E    +E   S  S  S  S  S  S    Q   S  S  S  S  S  S  E  +E       +S   +S
|---------------------------------------|-----------------10-13s17-(17)b18==(17)r(17)-|
|-----------10---(10)h11p10----10-------|---------------------------------------------|
|-(10)-12-------------------12----12-10-|-12--------10-12-----------------------------|
|---------------------------------------|---------------------------------------------|
|---------------------------------------|-----10-13-----------------------------------|
|---------------------------------------|---------------------------------------------|


  +Q              E    S  S  E        S  S  E     S  S
|------------------------------------------------------|
|------------------------------------------------------|
|------------------------------------------------------|
|------------------------------------------------------|
|-(5)-------------5----x--x--5--------x--x--5-----x--x-|
|-(5)-------------5----x--x--5--------x--x--5-----x--x-|
|
|                            |--3--|
|  S   S  E      +E   +E     S  S  S  S  S  S  S  S  S
|-15---------------------------------------------------|
|--------18b20==(18)r(18)---15h18p15----15-------------|
|-----15-----------------------------17----17-14-------|
|------------------------------------------------17-15-|
|------------------------------------------------------|
|------------------------------------------------------|


  D5                C5    D5
   Q        E   S S   E   E  E        E
|---------------------------------------------|
|---------------------------------------------|
|---------------------------------------------|
|--7--------7---x-x---5---7-----------7-------|
|--5--------5---x-x---3---5-----------5-------|
|---------------------------------------------|
|
|               ~~~~~~~~~~
|                            |------6-------|
|  Q       +E   E    +Q      S  S  S  S  S  S
|---------------------------------------17-18-|
|------------------------------17-18-20-------|
|-17b19===(17)-17---(17)r---19----------------|
|---------------------------------------------|
|---------------------------------------------|
|---------------------------------------------|


                            C5 D5F5
  +E  E  E        S    S     E E  Q
|--------------------------------------------------||
|--------------------------------------------------||
|--------------------------------------------------||
|-(7)-7--7--------x----x-----5-7S10----------------||
|-(5)-5--5--------x----x-----3-5S=8----------------||
|--------------------------------------------------||
|
|  ~~~                       ~~
|        |-------6--------|       |------6-------|
|  Q     S  S  S  S  S    S  Q    S  S  S  S  S  S
|-17----------------17---18-17---------------17-18-||
|----------17-18-20-----------------17-18-20-------||
|-------19-----------------------19----------------||
|--------------------------------------------------||
|--------------------------------------------------||
|--------------------------------------------------||


 Bridge
  Dm
  Gtr III
   Q           Q   +E E Q      E   Q  E +Q   Q
   |           |    | | |      |   |  |  |   |
   /           /    / / /      /   /  /  /   /

  Gtr IV
               ~~~
   E      +E   H.             +H         H
|-20b22==(20)-20-----------|-(20)r---------------|
|--------------------------|---------------------|
|--------------------------|---------------------|
|--------------------------|---------------------|
|--------------------------|---------------------|
|--------------------------|---------------------|
|
| Gtr V
|  W                           E   Q  E +Q   E E
|--------------------------|---------------------|
|--------------------------|-------5--6-(6)------|
|--------------------------|---7-------------7---|
|--------------------------|---------------------|
|--------------------------|---------------------|
|--------------------------|---------------------|
|
| Gtr VI
|  W                          +W
|-^5-----------------------|--(5)----------------|
|-^6-----------------------|--(6)----------------|
|-^7-----------------------|--(7)----------------|
|-^7-----------------------|--(7)----------------|
|-^5-----------------------|--(5)----------------|
|--------------------------|---------------------|


  Bb
   Q  Q   +E E Q     E  Q  E +H
   |  |    | | |     |  |  |  |
   /  /    / / /     /  /  /  /

   W                 W
|-----------------|-------------------|
|-----------------|-------------------|
|-----------------|-------------------|
|-----------------|-------------------|
|-----------------|-------------------|
|-----------------|-------------------|
|
|  Q  H.             E  Q  E +E  Q  E
|-----6-----------|-------------------|
|-----6-----------|--6--6--5-(5)-6----|
|-----7-----------|--7--7-------------|
|-----------------|-------------------|
|-----------------|-------------------|
|-----------------|-------------------|
|
|  W                +W
|-^6--------------|-(6)---------------|
|-^6--------------|-(6)---------------|
|-^7--------------|-(7)---------------|
|-^8--------------|-(8)---------------|
|-^x--------------|-------------------|
|-^8--------------|-(8)---------------|


     F
  Gtr III
      Q   Q  +E  E  Q      E   Q   E  +Q    Q
      |   |   |  |  |      |   |   |   |    |
      /   /   /  /  /      /   /   /   /    /

  Gtr V
   a  Q   Q   E  Q.       +E   Q   E  +Q    Q
|----------------------|-----------------------|
|----10--10--10-10-----|-(10)-10--10-(10)--10--|
|-10h12--12--12-10-----|-(10)-10--10-(10)--10--|
|----------------------|-------------------10--|
|----------------------|-----------------------|
|----------------------|-----------------------|
|
| Gtr VI
|     W                   +W
|----^5----------------|--(5)------------------|
|----^6----------------|--(6)------------------|
|----^5----------------|--(5)------------------|
|----^3----------------|--(3)------------------|
|----^3----------------|--(3)------------------|
|----^3----------------|--(3)------------------|


  A7
   Q  Q   +E  E Q      E  Q  E +Q    Q
   |  |    |  | |      |  |  |  |    |
   /  /    /  / /      /  /  /  /    /

   Q  E E +E  Q   E    E  Q  E +E  Q   E
|-------------------|---------------------|
|-------------5-----|--5--5--6-(6)-8------|
|--6--6-7-(7)-------|--6--6--7-(7)-9------|
|-----------------7-|------------------7s=|
|-------------------|---------------------|
|-------------------|---------------------|
|
|  W                  +W
|-^5----------------|-(5)-----------------|
|-^5----------------|-(5)-----------------|
|-^6----------------|-(6)-----------------|
|-^5----------------|-(5)-----------------|
|-^0----------------|-(0)-----------------|
|-------------------|---------------------|


  Dm                                      Bb
   Q  Q  +E E Q     E  Q    E +Q     Q     Q   Q  +E E Q     E  Q  E +H
   |  |   | | |     |  |    |  |     |     |   |   | | |     |  |  |  |
   /  /   / / /     /  /    /  /     /     /   /   / / /     /  /  /  /

   W                E  E E  E  E  E  q     H.          Q     E  Q  E +E  E q
|----------------|----------------------|-^6--------------|-------------------|
|----------------|----------------------|-^6--------------|-----5--6-(6)-5----|
|----------------|-12------13s14----10--|-^7--------------|-^7-------------7--|
|-12-------------|-----0-0-------12-----|-^8--------------|-^8-------------8--|
|----------------|----------------------|-^8--------------|-^8----------------|
|----------------|----------------------|-----------------|-------------------|
|
|  W               +W                      W                +W
|-^5-------------|-(5)------------------|-^6--------------|-(6)---------------|
|-^6-------------|-(6)------------------|-^6--------------|-(6)---------------|
|-^7-------------|-(7)------------------|-^7--------------|-(7)---------------|
|-^7-------------|-(7)------------------|-^8--------------|-(8)---------------|
|-^5-------------|-(5)------------------|-^x--------------|-------------------|
|----------------|----------------------|-^8--------------|-(8)---------------|


  F
   Q   Q   +E  E  Q       E   Q     E +Q     Q
   |   |    |  |  |       |   |     |  |     |
   /   /    /  /  /       /   /     /  /     /

   Q   Q   +E  E  E  E    E   E  E  E  E  E  E  E
|----------------------|--------------------------|
|-10--10--(10)---10----|-11p=10----11p10----11p10-|
|-10--10--(10)------10-|-10-----10-10----10-------|
|-10--10--(10)---------|--------10-------10-------|
|--8-----------8-------|--------------------------|
|----------------------|--------------------------|
|
|  W                     +W
|-^5-------------------|-(5)----------------------|
|-^6-------------------|-(6)----------------------|
|-^5-------------------|-(5)----------------------|
|-^3-------------------|-(3)----------------------|
|-^3-------------------|-(3)----------------------|
|-^3-------------------|-(3)----------------------|


  A7
   Q   Q   +E  E Q      E  Q  E +Q    Q
   |   |    |  | |      |  |  |  |    |
   /   /    /  / /      /  /  /  /    /

   E E E E +E  Q   E    E  Q  E +E  Q    E
|--------------------|---------------------|
|--------------5-----|--5--5--6-(6)-8------|
|-^6-6-6-7-(7)-----7-|--6--6--7-(7)-9------|
|-^5-----5-(5)-------|------------------10-|
|--------------------|---------------------|
|--------------------|---------------------|
|
|  W                   +W
|-^5-----------------|-(5)-----------------|
|-^5-----------------|-(5)-----------------|
|-^6-----------------|-(6)-----------------|
|-^5-----------------|-(5)-----------------|
|-^0-----------------|-(0)-----------------|
|--------------------|---------------------|


  F
   Q.    E  Q.    E        E   E  Q     E  E  Q
   |     |  |     |        |   |  |     |  |  |
   /     /  /     /        /   /  /     /  /  /

  Gtr IV
   Q.    E  Q.    E    a   E   E  E  E  E  E  E  E
|-------------------|------------------------------|
|-10----10-10-------|---------------------10-------|
|-10----10-10-------|---------------10-12-10----10-|
|-10----10-10-------|---------10-12----------12----|
|--8-----8--8-----8-|-10s=12-----------------------|
|-------------------|------------------------------|
|
| Gtrs V, VI
|  Q.    E  Q.    E       +E   E  Q     Q     Q
|-------------------|------------------------------|
|-------------------|------------------------------|
|-------------------|------------------------------|
|-10----10-10----10-|----(10)-10-10----10----10S===|
|--8-----8--8-----8-|-----(8)--8--8-----8-----8S===|
|-------------------|------------------------------|


  Copen
  Q.     E   Q.       E   +E  E  Q    Q     Q
  |      |   |        |    |  |  |    |     |
  /      /   /        /    /  /  /    /     /

  Q    Q    +E   E E  E    E  E  E E +E   E Q
|-----------------------|----------------------|
|-----------------------|----------8-(8)-------|
|------9----(9)-10p9----|-10p=9-10-------10-9--|
|-----10---(10)------10-|----------------------|
|-----------------------|----------------------|
|-----------------------|----------------------|
|
| H          Q.       E   +E  E  Q    E   E Q
|-----------------------|----------------------|
|-----------------------|----------------------|
|-----------------------|----------------------|
|-5----------5--------5-|-(5)-5--5----5---5-5--|
|-3----------3--------3-|-(3)-3--3----3---3-3--|
|-----------------------|----------------------|


  Dm
   Q.      E Q.     E    E  E Q      E   E  Q
   |       | |      |    |  | |      |   |  |
   /       / /      /    /  / /      /   /  /

   E  E  H        E E    E  E E  E  +E   E  Q
|---------------------|------------------------|
|---------------------|-10---------------------|
|-------10----------9-|----10-9-12-(12)----10--|
|-10s12----------12---|-----------------12-----|
|---------------------|------------------------|
|---------------------|------------------------|
|
|  Q.      E Q.     E    E  E Q      E   E  Q
|---------------------|------------------------|
|---------------------|------------------------|
|---------------------|------------------------|
|--7-------7-7------7-|--7--7-7------7---7--7S=|
|--5-------5-5------5-|--5--5-5------5---5--5S=|
|---------------------|------------------------|


  Bb
  Q.    E  Q.   E   +E  E Q    Q    Q
  |     |  |    |    |  | |    |    |
  /     /  /    /    /  / /    /    /

  Q   Q   +Q.   E    E  E E E +E  Q   E
|-----------------|---------------------|
|-----------------|---------------------|
|-----7---(7)-----|--9-10-9-7-(7)-------|
|-8-------------8-|---------------8-----|
|-----------------|---------------------|
|-----------------|---------------------|
|
| Q.    E  Q.   E    E  E Q    E  E Q
|-----------------|---------------------|
|-----------------|---------------------|
|-----------------|---------------------|
|-3-----3--3----3-|--3--3-3----3--3-3---|
|-1-----1--1----1-|--1--1-1----1--1-1---|
|-----------------|---------------------|


  F
   Q.       E  Q.      E     E   E  Q    E E  Q
   |        |  |       |     |   |  |    | |  |
   /        /  /       /     /   /  /    / /  /

   E  E  E  E  E   Q   E    +E   E  E E  H
|------------------------|-----------------------|
|-10----10-10-----10-----|-----------------------|
|-10h12-12-12-12--10-----|-----------------------|
|---------------------10-|-(10)------------------|
|------------------------|------12s10-8h10-------|
|------------------------|-----------------------|
|
|  Q.       E  Q.      E    +E   E  Q    Q    Q
|------------------------|-----------------------|
|------------------------|-----------------------|
|------------------------|-----------------------|
|-10-------10-10------10-|-(10)-10-10---10---10S=|
|--8--------8--8-------8-|--(8)--8--8----8----8S=|
|------------------------|-----------------------|


  Copen
   Q.    E  Q.       E   +E  E  Q     Q    Q
   |     |  |        |    |  |  |     |    |
   /     /  /        /    /  /  /     /    /

   Q   Q   +E   E E  E    E  E  E  E  Q    Q
|----------------------|----------------------|
|------8---(8)---------|----------------------|
|------9---(9)-10p9----|-10p=9-10-10s12---12--|
|-10----------------10-|----------------------|
|----------------------|----------------------|
|----------------------|----------------------|
|
|  H        Q.       E   +E  E  Q     E E  Q
|----------------------|----------------------|
|----------------------|----------------------|
|----------------------|----------------------|
|--5--------5--------5-|-(5)-5--5-----5-5--5--|
|--3--------3--------3-|-(3)-3--3-----3-3--3--|
|----------------------|----------------------|


    Dm
     Q.     E Q.       E     E   E Q     E E  Q
     |      | |        |     |   | |     | |  |
     /      / /        /     /   / /     / /  /

  a  Q    H       E a  E     E   Q    E  Q    q
|--------10--------------|--13s=12---12s10---10--|
|------------------------|------------x-------x--|
|-7s10--------------9s14-|-(14)s12---12s10---10--|
|------------------------|-----------------------|
|------------------------|-----------------------|
|------------------------|-----------------------|
|
|    Q.     E Q.       E     E   E Q     E E  Q
|------------------------|-----------------------|
|------------------------|-----------------------|
|------------------------|-----------------------|
|----7------7-7--------7-|---7---7-7-----7-7--7S=|
|----5------5-5--------5-|---5---5-5-----5-5--5S=|
|------------------------|-----------------------|


  Q.    E  Q.   E   +E E Q  Q   Q
  |     |  |    |    | | |  |   |
  /     /  /    /    / / /  /   /

  Q   Q   +Q.   E    W
|-----6---(6)-----|--6---------------||
|-----------------|------------------||
|-7-------------7-|------------------||
|-----------------|------------------||
|-----------------|------------------||
|-----------------|------------------||
|
| Q.    E  Q.   E    E E Q  E E Q
|-----------------|------------------||
|-----------------|------------------||
|-----------------|------------------||
|-3-----3--3----3-|--3-3-3--3-3-3----||
|-1-----1--1----1-|--1-1-1--1-1-1----||
|-----------------|------------------||


 Interlude
  D5V
  Gtr IV
  W                    +W           W                      +W
  |                     |           |                       |
  /                     /           /                       /

  Gtr I
  E E E E E. S +E  E   +W           E E  E E  E. S +E  E   +W
|---------3--1-(1)-0-|-(0)--------|-----------3--1-(1)-0-|-(0)----|
|-3-----3------------|------------|-3------3-------------|--------|
|-----2--------------|------------|------2---------------|--------|
|---0----------------|------------|---0------------------|--------|
|--------------------|------------|----------------------|--------|
|--------------------|------------|----------------------|--------|
|
| Gtr V
| W                    +W           E Q.     +H            +W
|--------------------|------------|----------------------|--------|
|--------------------|------------|----------------------|--------|
|-7------------------|-(7)--------|-7s9------(9)---------|-(9)----|
|-x------------------|------------|-x--------------------|--------|
|-5------------------|-(5)--------|-5s7------(7)---------|-(7)----|
|--------------------|------------|----------------------|--------|
|
| Gtr VI
| W                    +W           E Q.     +H            +W
|--------------------|------------|----------------------|--------|
|-6------------------|-(6)--------|-6s8------(8)---------|-(8)----|
|-x------------------|------------|-x--------------------|--------|
|-3------------------|-(3)--------|-3s5------(5)---------|-(5)----|
|--------------------|------------|----------------------|--------|
|--------------------|------------|----------------------|--------|


  D5V
  W                         +W
  |                          |
  /                          /

  E  E  E E   E. S +E  E    +W
|-------------3--1-(1)-0-|--(0)--------|
|-3-------3--------------|-------------|
|-------2----------------|-------------|
|----0-------------------|-------------|
|------------------------|-------------|
|------------------------|-------------|
|
| E  Q.      +H             +W
|------------------------|-------------|
|------------------------|-------------|
|-9s10------(10)---------|-(10)--------|
|-x----------------------|-------------|
|-7s=8-------(8)---------|--(8)--------|
|------------------------|-------------|
|
| E  Q.      +H             +W
|------------------------|-------------|
|-8s10------(10)---------|-(10)--------|
|-x----------------------|-------------|
|-5s=7-------(7)---------|--(7)--------|
|------------------------|-------------|
|------------------------|-------------|


   W                         +E  E E E E E Q
   |                          |  | | | | | |
   /                          /  / / / / / /

   E  E  E E   E. S +E  E    +W
|--------------3--1-(1)-0-|--(0)--------------||
|--3-------3--------------|-------------------||
|--------2----------------|-------------------||
|-----0-------------------|-------------------||
|-------------------------|-------------------||
|-------------------------|-------------------||
|
|  E  Q.      +H             +W
|-------------------------|-------------------||
|-------------------------|-------------------||
|-10s14------(14)---------|-(14)--------------||
|--x----------------------|-------------------||
|--8s12------(12)---------|-(12)--------------||
|-------------------------|-------------------||
|
|  E  Q.      +H             +W
|-------------------------|-------------------||
|-10s15------(15)---------|-(15)--------------||
|--x----------------------|-------------------||
|--7s12------(12)---------|-(12)--------------||
|-------------------------|-------------------||
|-------------------------|-------------------||


 Guitar Solo
  F5
  Gtrs V, VI
   Q        Q      +E   Q      E     +E   E  Q      E   E  Q
|---------------------------------|---------------------------------|
|---------------------------------|---------------------------------|
|----------10-----(10)-10-----10--|-(10)-10-10-----10--10-10S=======|
|-10-------10-----(10)-10-----10--|-(10)-10-10-----10--10-10S=======|
|--8--------8------(8)--8------8--|--(8)--8--8------8---8--8S=======|
|---------------------------------|---------------------------------|
|
| Gtr IV
|               ~~~~~~~
|  Q       +E   E  +Q      E  +E     +Q      E  E  +E   E  E  E
|---------------------------------|---------13----------------------|
|-17b18===(17)-17-(17)----17r(17)-|-(17)-------13-(13)--------------|
|---------------------------------|--------------------14----17b19==|
|---------------------------------|---------------------------------|
|---------------------------------|---------------------------------|
|---------------------------------|---------------------------------|


  C5
    Q    Q     +E    Q             E     +E  E H             Q
|-------------------------------------|--------------------------------|
|-------------------------------------|--------------------------------|
|---5----5-----(5)---5-------------5--|--(5)-5-5-------------5S========|
|---5----5-----(5)---5-------------5--|--(5)-5-5-------------5S========|
|---3----3-----(3)---3-------------3--|--(3)-3-3-------------3S========|
|-------------------------------------|--------------------------------|
|
|                                  ~~~~~~~~~~
|  +Q    E  E  +E   +S   S  E     +E     +H        +E   Q       +E
|-------------------------------------|--------------------------------|
|-------18----------------------------|--------------------------------|
|-(17)-----17-(17)r(17)p14-17b19r(17)-|-(17)------(17)S12b14r==(12)b14-|
|-------------------------------------|--------------------------------|
|-------------------------------------|--------------------------------|
|-------------------------------------|--------------------------------|


  D5
    Q   Q       +E  Q   E      +E    E Q        E  E Q
|----------------------------|-------------------------------|
|----------------------------|-------------------------------|
|---7---7-------(7)-7---7----|-(7)---7-7--------7--7-7S======|
|---7---7-------(7)-7---7----|-(7)---7-7--------7--7-7S======|
|---5---5-------(5)-5---5----|-(5)---5-5--------5--5-5S======|
|----------------------------|-------------------------------|
|
|   ~~~~         ~~~                            ~~~
|  +Q.     S  S  Q.     S  S    Q.        S  S  Q.      a  E
|----------------------------|-------------------------------|
|----------------------------|-------------------------11s13-|
|-(12)----10----10-----12-10-|-12b14-----10----10------------|
|------------12--------------|--------------12---------------|
|----------------------------|-------------------------------|
|----------------------------|-------------------------------|


  Bb5
   Q   Q  +E  Q   E        +E   E H                  Q
|-----------------------|--------------------------------|
|-----------------------|--------------------------------|
|--3---3--(3)-3---3-----|--(3)--3-3------------------3---|
|--3---3--(3)-3---3-----|--(3)--3-3------------------3---|
|--1---1--(1)-1---1-----|--(1)--1-1------------------1---|
|-----------------------|--------------------------------|
|
|          ~~~                                       ~~
|  Q   Q   Q.     E        +E   Q    E  +E   +S   S  Q
|-----------------------|------20------------------------|
|-13--11s=18-----20b22==|=(20)------20-(20)r(20)p18------|
|-----------------------|---------------------------17---|
|-----------------------|--------------------------------|
|-----------------------|--------------------------------|
|-----------------------|--------------------------------|


  F5
   Q           Q           +E     Q           E
|--------------------------------------------------|
|--------------------------------------------------|
|-10----------10----------(10)---10----------10----|
|-10----------10----------(10)---10----------10----|
|--8-----------8-----------(8)----8-----------8----|
|--------------------------------------------------|
|
|  S  S  S  S  S  S  S  S   S  S  S  S  S  S  S  S
|-17-------17--------------------------------------|
|----18-17----17-18-17-----17s13----13-------------|
|----------------------17--------14----14----14----|
|-----------------------------------------17----15-|
|--------------------------------------------------|
|--------------------------------------------------|


   +E      E     Q              E   E  Q
|---------------------------------------------------|
|---------------------------------------------------|
|-(10)----10----10-------------10--10-10------------|
|-(10)----10----10-------------10--10-10------------|
|--(8)-----8-----8--------------8---8--8------------|
|---------------------------------------------------|
|
|                               ~~~
|                                          |--3--|
|   S   S  S  S  S  S  S  S  a  Q.         S  S  S
|---------------------------------------------------|
|---------------------------------------------------|
|--14-------------------------------------------10--|
|------15p14-15-14---------------------------10-----|
|------------------15--------------------/12--------|
|---------------------17-15-17s19-------------------|


  C5
  Q   Q       +E          Q           E    E    E     H             Q
|---------------------------------------|--------------------------------------------|
|---------------------------------------|--------------------------------------------|
|-5---5-------(5)---------5-----------5-|--5----5-----5-------------5S===============|
|-5---5-------(5)---------5-----------5-|--5----5-----5-------------5S===============|
|-3---3-------(3)---------3-----------3-|--3----3-----3-------------3S===============|
|---------------------------------------|--------------------------------------------|
|
| ~                    ~~~~~~~~~~~
|     |--3--|                              |---3---|  |--3--|       |------3------|
| Q  +E   E E  S      +E.    +E    a  E    E  E    E  E  E  E  Q   +E       +E   +E
|---------------------------------------|--------------------------------------------|
|---------------------------------------|---------------------17--(17)b18==(17)r(17)-|
|-9--(9)-10-9-10b12==(10)---(10)r-------|-17---------19------------------------------|
|---------------------------------10s14-|----14s==15----15s17------------------------|
|---------------------------------------|--------------------------------------------|
|---------------------------------------|--------------------------------------------|


  D5
   Q   Q          +E     Q            E
|----------------------------------------------|
|----------------------------------------------|
|--7---7----------(7)----7------------7--------|
|--7---7----------(7)----7------------7--------|
|--5---5----------(5)----5------------5--------|
|----------------------------------------------|
|
|  ~~~
|         |--3--|                     |--3--|
|  Q.     S  S  S  Q        +S   +S   S  S  S
|--------------17-20b22====(20)r(20)-17--------|
|-----------18--------------------------18-----|
|-19-----19--------------------------------17--|
|----------------------------------------------|
|----------------------------------------------|
|----------------------------------------------|


   E  E Q           E     E   Q
|-------------------------------------------|
|-------------------------------------------|
|--7--7-7-----------7-----7---7S============|
|--7--7-7-----------7-----7---7S============|
|--5--5-5-----------5-----5---5S============|
|-------------------------------------------|
|
|  ~~~
|          |--3--|                 |--3---|
|  Q.      S  S  S  Q        +E   +S   S  S
|---------------17-20b22====(20)r(20)p18p17-|
|------------18-----------------------------|
|-19------19--------------------------------|
|-------------------------------------------|
|-------------------------------------------|
|-------------------------------------------|


  Bb5
   Q      Q   +E   Q    E    +E   E H             Q
|-------------------------|--------------------------||
|-------------------------|--------------------------||
|--3------3---(3)--3----3-|--(3)--3-3-------------3--||
|--3------3---(3)--3----3-|--(3)--3-3-------------3--||
|--1------1---(1)--1----1-|--(1)--1-1-------------1--||
|-------------------------|--------------------------||
|
|  Q      Q   +E   E E  E    +E   Q    E  +E   E  Q
|-18b20--18--(18)-20------|------15---17-(17)-18-17--||
|----------------------18-|-(18)---------------------||
|-------------------------|--------------------------||
|-------------------------|--------------------------||
|-------------------------|--------------------------||
|-------------------------|--------------------------||


 Chorus
  D5                                        Bb/D
  Gtrs V, VI
    E  E E E E E E E     E  E E E E E E E   E E E E E E E E   E E E E E E E E
    |  |   | | | | |        | | | | | | |   | |   | | | | |     | | | | | | |
    /  /   / / / / /        / / / / / / /   / /   / / / / /     / / / / / / /

  Gtr IV
                         >
    ~~~~~~~~~~~~~~~~~~~~~~~~
   +W                   +W                  W                 W
|-(17)---------------|-(17)---------------|-----------------|-----------------|
|--------------------|--------------------|-----------------|-----------------|
|--------------------|--------------------|-----------------|-----------------|
|--------------------|--------------------|-----------------|-----------------|
|--------------------|--------------------|-----------------|-----------------|
|--------------------|--------------------|-----------------|-----------------|


  C
   E  E E  E  E  E  E  E   E  E  E  E  E  E  E E
|------------------------|-----------------------|
|------------------------|-----------------------|
|------------------------|-----------------------|
|-14-14---14-14-14-14-14-|---14-14-14-14-14-14---|
|-10-10---10-10-10-10-10-|---10-10-10-10-10-10---|
|-10-10---10-10-10-10-10-|---10-10-10-10-10-10-0-|


  F5         A5
  Q  E E E E Q    +E  E Q  Q  Q
|---------------|----------------|
|---------------|----------------|
|---------------|----------------|
|---------------|----------------|
|-3--3-3-x-x-7--|-(7)-7-7--7--7--|
|-3--3-3-x-x-7--|-(7)-7-7--7--7--|


    D5
  Gtr IV
    E E E E E E E E   E E E E  E E   E  E
    | |   | | | | |     | | |  | |   |  |
    / /   / / / / /     / / /  / /   /  /

  Gtr V
  a W                 H        Q    +Q
|-------------------|---------------------|
|-------------------|---------------------|
|-5s7---------------|-9-------10---(10)S==|
|-------------------|---------------------|
|-------------------|---------------------|
|-------------------|---------------------|
|
| Gtr VI
|   W                 H        H
|-------------------|---------------------|
|-------------------|---------------------|
|-------------------|---------------------|
|-------------------|-5--------7----------|
|---8---------------|---------------------|
|-------------------|---------------------|


  Bb/D
  E E E E E E E E   E E E E  E E  E  E
  | |   | | | | |     | | |  | |  |  |
  / /   / / / / /     / / /  / /  /  /

  W                 H        H
|-----------------|--------------------|
|-----------------|--------------------|
|-7---------------|-9-------10---------|
|-----------------|--------------------|
|-----------------|--------------------|
|-----------------|--------------------|
|
| W                 H        Q   +Q
|-----------------|--------------------|
|-----------------|--------------------|
|-----------------|--------------------|
|-----------------|-5--------7---(7)S==|
|-8---------------|--------------------|
|-----------------|--------------------|


  C(type 2)                            F5              A5
                                       Gtrs V, VI
  E  E E E E E E E   E E E E E E E E    Q.    E   E  E   Q     +W
  |  |   | | | | |     | | | | | | |    |     |   |  |   |      |
  /  /   / / / / /     / / / / / / /    /     /   x  x   /      /

                     ~
  H.           Q     W                  W                       W
|------------------|-----------------|-----------------------|--------------|
|------------------|-----------------|-----------------------|--------------|
|-5------------5s==|=9---------------|-----------------------|--------------|
|------------------|-----------------|-----------------------|--------------|
|------------------|-----------------|-----------------------|--------------|
|------------------|-----------------|-----------------------|--------------|
|
|                                      Gtr IV
|                                                               ~~~
| W                  W                  Q.    E  +Q     +Q      H.      Q
|------------------|-----------------|-----------------------|--------------|
|------------------|-----------------|-----------------------|--------------|
|------------------|-----------------|-10----10-(10)---(10)s=|==6-------6s==|
|-2----------------|-5---------------|-----------------------|--------------|
|------------------|-----------------|-----------------------|--------------|
|------------------|-----------------|-----------------------|--------------|


  Fsus2            A
  Gtrs V, VI
   Q   E  E   E  E   Q     +E  E Q  E E Q
|------------------------|-----------------|
|------------------------|-----------------|
|------------------------|-----------------|
|--5---5--5---x--x-------|-----------------|
|--3---3--3---x--x---4---|-(4)-4-4--4-4-4--|
|--3---3--3---x--x---7---|-(7)-7-7--7-7-7--|
|
| Gtr IV
|                           ~~~
|  Q.     E  +Q     +Q      H.          Q
|------------------------|-----------------|
|------------------------|-----------------|
|-10-----10-(10)---(10)s=|==6-----------6s=|
|------------------------|-----------------|
|------------------------|-----------------|
|------------------------|-----------------|


  F5             A
   E  E  E  E Q  Q    +W
|-------------------|-------------------||
|-------------------|-------------------||
|-------------------|-------------------||
|-------------------|-------------------||
|--3--3--3--3----4--|-(4)---------------||
|--3--3--3--3----7--|-(7)---------------||
|
|                      ~~~~~~~~~~
|  E  E  E  E Q  Q    +H     +Q.   +E
|-------------------|-------------------||
|-------------------|-------------------||
|-10-10-10-10----6--|-(6)----(6)---(6)\-||
|-------------------|-------------------||
|-------------------|-------------------||
|-------------------|-------------------||


 Interlude
  Dm
  Gtr I
  E E E E E. S +E  E   +H     +Q.   E   E E E E E. S +E  E   +H     +Q.   E
|---------3--1-(1)-0-|-(0)----(0)-----|---------3--1-(1)-0-|-(0)----(0)-----|
|-3-----3------------|----------------|-3-----3------------|----------------|
|-----2--------------|--------------2-|-----2--------------|--------------2-|
|---0----------------|----------------|---0----------------|----------------|
|--------------------|----------------|--------------------|----------------|
|--------------------|----------------|--------------------|----------------|


  E E E E E. S +E  E   +H     +Q.   E   E E E E E. S +E  E   +H     E E E E
|---------3--1-(1)-0-|-(0)----(0)-----|---------3--1-(1)-0-|-(0)----0h1p0---||
|-3-----3------------|----------------|-------3------------|--------------1-||
|-----2--------------|--------------2-|-----2--------------|----------------||
|---0----------------|----------------|--------------------|----------------||
|--------------------|----------------|---0----------------|----------------||
|--------------------|----------------|-0------------------|----------------||


 Outro
  Fsus2
  Gtr I
  E E E E E E E E   +E  E E E E E E E   E E E E E E E E   +E  E E E E E E E
|---------1-------|-----------1-------|---------1-------|-----------1-------|
|-----1-----1-----|-------1-----1---1-|-----1-----1-----|-------1-----1-----|
|---0---0-----0---|-----0---0-----0---|---0---0-----0---|-----0---0-----0---|
|-3-------------3-|-(3)---------------|-3-------------3-|-(3)-------------3-|
|-----------------|-------------------|-----------------|-------------------|
|-----------------|-------------------|-----------------|-------------------|


  Dm                Dsus2             Dm                Dsus4   Dm
  E E E E E E E E   E E E E E E E E   E E E E E E E E   E E E E E E E E
|---------1-------|---------0-------|---------1-------|-3-------1-------|
|-----3-----3-----|-----3-----3-----|-----3-----3-----|---3---3---3-----|
|---2---2-----2---|---2---2-----2---|---2---2-----2---|-----2-------2---|
|-0-------------0-|-0-------------0-|-0-------------0-|---------------0-|
|-----------------|-----------------|-----------------|-----------------|
|-----------------|-----------------|-----------------|-----------------|


  Fsus2
  E E E E E E E E   +E  E E E E E a E E
|---------1-------|-----------1---------|
|-----1-----1-----|-------1-----------1-|
|---0---0-----0---|-----0---0---0-0h2---|
|-3-------------3-|-(3)-----------------|
|-----------------|---------------------|
|-----------------|---------------------|


  E E E E E E a E E   E E E E E E E E
|---------1-------3p|=1---1---1---------|
|-----1-----1-------|---1---1---1-------|
|---2---2-----0h2---|-------------2-----|
|-3-----------------|---------------0---|
|-------------------|-------------------|
|-------------------|-------------------|


  Dm                Dsus2             Dm                Dsus4
  E E E E E E E E   E E E E E E E E   E E E E E E E E   E E E E E E E E
|---------1-------|-0-------0-------|-1-------1-------|-3-------3-------|
|-----3-----3-----|---3-------3-----|---3-------3-----|---3-------3-----|
|---2---2-----2---|-----2-------2---|-----2-------2---|-----2-------2---|
|-0-------------0-|-------0-------0-|-------0-------0-|-------0-------0-|
|-----------------|-----------------|-----------------|-----------------|
|-----------------|-----------------|-----------------|-----------------|


  F                         Fsus4
   E  E  E  E  E  E  E  E    E  E  E  E  E  E  E  E
|-------------------------|-------------------------|
|-10----------10----------|-11----------11----------|
|----10----------10-------|----10----------10-------|
|-------10----------10----|-------10----------10----|
|----------12----------12-|----------12----------12-|
|-------------------------|-------------------------|


  F                         Fadd9       F
   E  E  E  E  E  E  E  E    E  E  E  E  E  E  E  E
|-------------------------|-------------------------|
|-10----------10----------|-------------------------|
|----10----------10-------|-12----------10----------|
|-------10----------10----|----10----10----10----10-|
|----------12----------12-|-------12----------12----|
|-------------------------|-------------------------|


  Dm                       C/D               Dm                Dsus2
  Gtr I
  E  E  E  E  E  E  E  E   E E E E E E E E   E E E E E E E E   E E E E E E E E
|-------------5----------|---------3-------|---------1-------|-0-------0-------|
|-------6--------6-----6-|-----5-----5---5-|-----3-----3---3-|---3-------3-----|
|----7-----7--------7----|---5---5-----5---|---2---2-----2---|-----2-------2---|
|-0----------------------|-0---------------|-0---------------|-------0-------0-|
|------------------------|-----------------|-----------------|-----------------|
|------------------------|-----------------|-----------------|-----------------|
|
| Gtr II
| E  E  E  E  E  E  E  E   E E E E E E E E   E E E E E E E E   E E E E E E E E
|------------10----------|---------8-------|---------5-------|-3p1-----3p1-----|
|------10-------10----10-|-----8-----8---8-|-----6-----6---6-|-----3-------3---|
|---10----10-------10----|---9---9-----9---|---7---7-----7---|-----------------|
|-0----------------------|-0---------------|-0---------------|-------0-------0-|
|------------------------|-----------------|-----------------|-----------------|
|------------------------|-----------------|-----------------|-----------------|


  Fadd9             Fsus2sus4         Fadd9
  E E E E E E E E   E E E E E E E E   E E E E E E E E
|-1-------1-------|-3-------3-------|-5-------5-------|
|---1-------1-----|---1-------1-----|---1-------1-----|
|-----0-------0---|-----0-------0---|-----0-------0---|
|-------3-------3-|-------3-------3-|-------3-------3-|
|-----------------|-----------------|-----------------|
|-----------------|-----------------|-----------------|
|
| E E E E E E E E   E E E E E E E E   E E E E E E E E
|-5-------5-------|-6-------6-------|-8-------8-------|
|---6---6---6---6-|---6---6---6---6-|---6---6---6---6-|
|-----5-------5---|-----5-------5---|-----5-------5---|
|-----------------|-----------------|-----------------|
|-----------------|-----------------|-----------------|
|-----------------|-----------------|-----------------|


  C                 Dm
  E E E E E E E E   W          +W
|-1-0---1-0---0-1-|----------|--------*|
|-----3-----3-----|-3--------|-(3)----*|
|-----------------|----------|--------*|
|-----------------|----------|--------*|
|-----------------|----------|--------*|
|-----------------|----------|--------*|
|
| E E E E E E E E   W          +W
|-5-----5-------5-|----------|--------*|
|---8-5---8-5-8---|-6--------|-(6)----*|
|-----------------|----------|--------*|
|-----------------|----------|--------*|
|-----------------|----------|--------*|
|-----------------|----------|--------*|




--------------------------------------------------------------------------------


Duration Legend
---------------
W - whole; H - half; Q - quarter; E - 8th; S - 16th; T - 32nd; X - 64th; a - acciaccatura
+ - note tied to previous; . - note dotted; .. - note double dotted
Uncapitalized letters represent notes that are staccato (1/2 duration)
Irregular groupings are notated above the duration line
Duration letters will always appear directly above the note/fret number it represents the
duration for.  Duration letters with no fret number below them represent rests.  Multi-
bar rests are notated in the form Wxn, where n is the number of bars to rest for.  Low
melody durations appear below the staff

Tablature Legend
----------------
 h   - hammer-on
 p   - pull-off
 b   - bend
 pb  - pre-bend
 r   - bend release (if no number after the r, then release immediately)
 /\  - slide into or out of (from/to "nowhere")
 s   - legato slide
 S   - shift slide
 - natural harmonic
[n]  - artificial harmonic
n(n) - tapped harmonic
 ~   - vibrato
 tr  - trill
 T   - tap
 TP  - trem. picking
 PM  - palm muting
\n/  - tremolo bar dip; n = amount to dip
 \n  - tremolo bar down
 n/  - tremolo bar up
/n\  - tremolo bar inverted dip
 =   - hold bend; also acts as connecting device for hammers/pulls
 <> - volume swell (louder/softer)
 x   - on rhythm slash represents muted slash
 o   - on rhythm slash represents single note slash

Misc Legend
-----------
 |  - bar
||  - double bar
||o - repeat start
o|| - repeat end
*|  - double bar (ending)
 :  - bar (freetime)
 $  - Segno
 &  - Coda
Tempo markers -  = BPM(8/16=s8/s16), where s8 = swing 8ths, s16 = swing 16ths



--------------------------------------------------------------------------------

** Generated using Power Tab Editor by Brad Larsen: The Official Power Tab Web Site
comments
print report bad tab
1 comment total.
0 reply
lg187 wrote on June 22 2013, 07:46 pm

whys this in drop C? A7X never uses this tuning

I want to post or [tab]
guest
You may want to rate the tab now too:
select rating
Please do not post tabs as comments. Select "correction" instead!