Oops, an error
Loading. Please wait.

Waking The Fallen Bass Tab

ver1
ver1

Album

Whole song

Interactive

More versions @911Tabs.com
189 views 1 this week
no commentswrite comment
1 2 3 4 5
please rate
Autoscroll
+/-
esc
set tempo
stop
Contributor
Difficulty
Tuning
advanced
D A D G B E
NEW! There's an official Ultimate Guitar app which is ideal
for learning songs when you're away from computer. Get the app
WARNING: You are trying to view
                                    content from Ultimate-Guitar.com
                                    in an unauthorized application,
                                    which is prohibited.

                                    Please use an official Ultimate
                                    Guitar Tabs application for iPhone,
                                    iPad or Android to access legitimate
                                    chords, guitar, bass, and drum tabs
                                    from Ultimate-Guitar.com database.

                                    Type "ultimate guitar tabs" in Apple
                                    App Store's or Android Market's
                                    search to find the application.
Tabbed by Dave Vucko


Waking The Fallen

0:14  Triplet feel repeat throughout song
G|-------------------------------------------------------------------|
D|o-----------------------------------------------------------------o|
A|o-----------------------------------------------------------------o|
D|--4-----4-----4---4-----4-----4---4-----4-----4---4-----4-----4----|
    1 + 2 + 3 + 4 + 1 + 2 + 3 + 4 + 1 + 2 + 3 + 4 + 1 + 2 + 3 + 4 +


----------------------------------------------------------------------

Unholy Confessions
G|-----------------------------------------------------------------|
D|-----------------------------------------------------------------|
A|-----------------------------------------------------------------|
D|-0-0-------------------------------------------------------------|
   1 + 2 + 3 + 4 + 1 + 2 + 3 + 4 + 1 + 2 + 3 + 4 + 1 + 2 + 3 + 4 +

G|-----------------------------------------------------------------|
D|-----------------------------------------------------------------|
A|-----------------------------------------------------------------|
D|-0-0-----------------------------8-8-\-----------7-7-\-----------|
   1 + 2 + 3 + 4 + 1 + 2 + 3 + 4 + 1 + 2 + 3 + 4 + 1 + 2 + 3 + 4 +

0:09
G|-----------------------------------------------------------------------|
D|o---------------------------------------------------------------------o|
A|o-----5---7---8---10---8---787----------10---8---7-------7---8--------o|x3
D|--0-0---0---0---0----0---0-----10---8-8----8---8-----7-7---7---7-10----|
    1 + 2 + 3 + 4 + 1  + 2 + 3 + 4  + 1 + 2  + 3 + 4 + 1 + 2 + 3 + 4  +

G|---------------------------------------------------------------------|
D|---------------------------------------------------------------------|
A|-----5---7---8---10---8---787----------------------------------------|
D|-0-0---0---0---0----0---0-----10---8-8-\------------7-7-\------------|
   1 + 2 + 3 + 4 + 1  + 2 + 3 + 4  + 1 + 2  + 3 + 4 + 1 + 2 + 3 + 4  +

Verse 0:28
G|-----------------------------------------------------------------|
D|---------------------5-5-3-3-2h3-------------------0-2-2-3-3-----|
A|-5---5-5-5-----------------------1---1-1-1---3---------------3-3-|
D|-------------0-----0---------------------------------------------|
   1 + 2 + 3 + 4 + 1 + 2 + 3 + 4 + 1 + 2 + 3 + 4 + 1 + 2 + 3 + 4 +

G|-----------------------------------------------------------------|
D|---------------------5-5-3-3-2h3-------------------0-2-2-3-3-----|
A|-5---5-5-5-5---------------------1---1-1-1-1-3---------------3-3-|
D|-------------0-----0---------------------------------------------|
   1 + 2 + 3 + 4 + 1 + 2 + 3 + 4 + 1 + 2 + 3 + 4 + 1 + 2 + 3 + 4 +

0:39
G|-----------------------------------------------------------------|
D|-------------------------------------------------------------2---|
A|-5-5-5-5-5---------------------0-1-1-1-1-1---3-3-3-3-3---3-3-----|
D|-------------0-0-0-0-0---0-0-3-----------------------------------|
   1 + 2 + 3 + 4 + 1 + 2 + 3 + 4 + 1 + 2 + 3 + 4 + 1 + 2 + 3 + 4 +

G|-----------------------------------------------------------------|
D|---------------------5-5-3-3-2h3-------------------0-2-2-3-3-----|
A|-5---5-5-5-5---------------------1---1-1-1-1-3---------------3-3-|
D|-------------0-----0---------------------------------------------|
   1 + 2 + 3 + 4 + 1 + 2 + 3 + 4 + 1 + 2 + 3 + 4 + 1 + 2 + 3 + 4 +

0:49
G|-------------------------------------------------------------------|
D|o-----------------------------------------------------------------o|
A|o-----------------------------------------------------------------o|
D|--0-0---------00000---------------0-0---------00000----------------|
    1 + 2 + 3 + 4 + 1 + 2 + 3 + 4 + 1 + 2 + 3 + 4 + 1 + 2 + 3 + 4 +

Pre Chorus 1:00
G|-------------------------------------------------------------------|
D|o-----------------------------------------------------------------o|
A|o-----------------------------------------------------------------o|
D|--0-0---------00000---------------0-0---------00000----------------|
    1 + 2 + 3 + 4 + 1 + 2 + 3 + 4 + 1 + 2 + 3 + 4 + 1 + 2 + 3 + 4 +

Chorus 1:11
G|-----------------------------------------------------------------|
D|-------------------------------------------------3---232-0-------|
A|-5-------r-------------------3-------3---3-------------------3---|
D|-------------0-------2---3---------------------------------------|
   1 + 2 + 3 + 4 + 1 + 2 + 3 + 4 + 1 + 2 + 3 + 4 + 1 + 2 + 3 + 4 +

G|-----------------------------------------------------------------|
D|-----------------------------------------------------------------|
A|-----------------------------1-------1---1-------1---1-1-1-1-----|
D|-3-------r---3-------3---3---------------------------------------|
   1 + 2 + 3 + 4 + 1 + 2 + 3 + 4 + 1 + 2 + 3 + 4 + 1 + 2 + 3 + 4 +

G|-----------------------------------------------------------------|
D|-----------------------------------------------------------------|
A|-5-------r-------------------3-------3---3-------3---3-3-3-3-3---|
D|-------------0-------2---3-------------------------------------5-|
   1 + 2 + 3 + 4 + 1 + 2 + 3 + 4 + 1 + 2 + 3 + 4 + 1 + 2 + 3 + 4 +

G|-----------------------------------------------------------------|
D|-----------------------------------------------------------------|
A|-----------------------------------------------------------------|
D|-3-------r---3-------3---3-------5---5-5-5---3-----3-3---3---3---|
   1 + 2 + 3 + 4 + 1 + 2 + 3 + 4 + 1 + 2 + 3 + 4 + 1 + 2 + 3 + 4 +

1:31
G|-----------------------------------------------------------------|
D|-------------------------------------------------3---232-0-------|
A|-5-------r-------------------3-------3---3-------------------3---|
D|-------------0-------2---3---------------------------------------|
   1 + 2 + 3 + 4 + 1 + 2 + 3 + 4 + 1 + 2 + 3 + 4 + 1 + 2 + 3 + 4 +

G|-----------------------------------------------------------------------|
D|---------------------------------------------------/-8-8-8-8-8-8-8-8-8-|
A|-----------------------------1-------1---1-------1---------------------|
D|-3-------r---3-------3---3---------------------------------------------|
   1 + 2 + 3 + 4 + 1 + 2 + 3 + 4 + 1 + 2 + 3 + 4 + 1 + Tripl Tripl TRipl

G|-----------------------------------------------------------------|
D|-----------------------------------------------------------------|
A|-5-------r-------------------3-------3---3---3-3-3---3-3-3---3---|
D|-------------0-------2---3-------------------------------------5-|
   1 + 2 + 3 + 4 + 1 + 2 + 3 + 4 + 1 + 2 + 3 + 4 + 1 + 2 + 3 + 4 +

G|-----------------------------------------------------------------|
D|-------------------------------------------------------------3-2-|
A|-----------------------------------------------------------------|
D|-3-------r---3-------3---3-------5---5-5-5---3---3-3-3-3-3-3-----|
   1 + 2 + 3 + 4 + 1 + 2 + 3 + 4 + 1 + 2 + 3 + 4 + 1 + 2 + 3 + 4 +

Interlude 1:52
G|-----------------------------------------------------------------|
D|-3---------------------------2-3-2-------------------------------|
A|-------------5-4-5---------------------------4-3-4-------0-------|
D|-----------------------------------------------------------------|
   1 + 2 + 3 + 4 + 1 + 2 + 3 + 4 + 1 + 2 + 3 + 4 + 1 + 2 + 3 + 4 +

G|-----------------------------------------------------------------|
D|-------------------------------------------------------------3-2-|
A|-1-------4-------3-------1-------0-----------4-3-4---------------|
D|-----------------------------------------------------------------|
   1 + 2 + 3 + 4 + 1 + 2 + 3 + 4 + 1 + 2 + 3 + 4 + 1 + 2 + 3 + 4 +

G|-----------------------------------------------------------------|
D|-3---------------------------2-3-2-------------------------------|
A|-------------5-4-5---------------------------4-3-4-------0-------|
D|-----------------------------------------------------------------|
   1 + 2 + 3 + 4 + 1 + 2 + 3 + 4 + 1 + 2 + 3 + 4 + 1 + 2 + 3 + 4 +

G|-----------------------------------------------------------------|
D|-----------------------------------------------------------------|
A|-1-------4-------3-------1-------0-----------4-3-4---------------|
D|-----------------------------------------------------------------|
   1 + 2 + 3 + 4 + 1 + 2 + 3 + 4 + 1 + 2 + 3 + 4 + 1 + 2 + 3 + 4 +

2:13
G|-----------------------------------------------------------------|
D|-----------------------------------------------------------------|
A|-----------------------------------------------------------------|
D|-0---------------------------------------------------------------|
   1 + 2 + 3 + 4 + 1 + 2 + 3 + 4 + 1 + 2 + 3 + 4 + 1 + 2 + 3 + 4 +

G|-----------------------------------------------------------------|
D|-----------------------------------------------------------------|
A|-----------------------------------------------------------------|
D|-0-0-----------------------------8-8-\-----------7-7-\-----------|
   1 + 2 + 3 + 4 + 1 + 2 + 3 + 4 + 1 + 2 + 3 + 4 + 1 + 2 + 3 + 4 +

Verse 2:22
G|-----------------------------------------------------------------------|
D|o---------------------------------------------------------------------o|
A|o-----5---7---8---10---8---787----------10---8---7-------7---8--------o|x4
D|--0-0---0---0---0----0---0-----10---8-8----8---8-----7-7---7---7-10----|
    1 + 2 + 3 + 4 + 1  + 2 + 3 + 4  + 1 + 2  + 3 + 4 + 1 + 2 + 3 + 4  +

Breakdown 2:42
G|---------------------------------------------------|
D|o-------------------------------------------------o|
A|o-------------------------------------------------o|
D|--0---0---0---0---0---0---0---0---0---0---0---0----|
    1 + 2 + 3 + 4 + 5 + 6 + 1 + 2 + 3 + 4 + 5 + 6 + 

G|---------------------------------------------------|
D|o-------------------------------------------------o|
A|o---/-5---4-----/-3---2---1-----------------------o|
D|--0-----------0---------------0-/-7---0-/-6---5----|
    1 + 2 + 3 + 4 + 5 + 6 + 1 + 2 + 3 + 4 + 5 + 6 + 

Interlude 2:57
G|-------------------------------------------------------------------|
D|o-----------------------------------------------------------------o|
A|o-----------------------------------------------------------------o|
D|--0-0---------00000---------------0-0---------00000----------------|
    1 + 2 + 3 + 4 + 1 + 2 + 3 + 4 + 1 + 2 + 3 + 4 + 1 + 2 + 3 + 4 +

Pre Chorus 3:07
G|-------------------------------------------------------------------|
D|o-----------------------------------------------------------------o|
A|o-----------------------------------------------------------------o|
D|--0-0---------00000---------------0-0---------00000----------------|
    1 + 2 + 3 + 4 + 1 + 2 + 3 + 4 + 1 + 2 + 3 + 4 + 1 + 2 + 3 + 4 +

Interlude 3:18
G|-------------------------------------------------------------------|
D|o-----------------------------------------------------------------o|
A|o-----------------------------------------------------------------o|
D|--0-0---------00000---------------0-0---------00000----------------|
    1 + 2 + 3 + 4 + 1 + 2 + 3 + 4 + 1 + 2 + 3 + 4 + 1 + 2 + 3 + 4 +

3:28
G|-----------------------------------------------------------------|
D|-----------------------------------------------------------------|
A|-------------------------------------------------7-------4---4-4-|
D|-0---5b7-----0---5b6-----0---4b5-----0---3---0-------------------|
   1 + 2 + 3 + 4 + 1 + 2 + 3 + 4 + 1 + 2 + 3 + 4 + 1 + 2 + 3 + 4 +

Chorus 3:33
G|-----------------------------------------------------------------|
D|-------------------------------------------------3---232-0-------|
A|-5-------r-------------------3-------3---3-------------------3---|
D|-------------0-------2---3---------------------------------------|
   1 + 2 + 3 + 4 + 1 + 2 + 3 + 4 + 1 + 2 + 3 + 4 + 1 + 2 + 3 + 4 +

G|-----------------------------------------------------------------|
D|-----------------------------------------------------------------|
A|-----------------------------1-------1---1-------1---1-1-1-1-----|
D|-3-------r---3-------3---3---------------------------------------|
   1 + 2 + 3 + 4 + 1 + 2 + 3 + 4 + 1 + 2 + 3 + 4 + 1 + 2 + 3 + 4 +

G|-----------------------------------------------------------------|
D|-----------------------------------------------------------------|
A|-5-------r-------------------3-------3---3-------3---3-3-3-3-3---|
D|-------------0-------2---3-------------------------------------5-|
   1 + 2 + 3 + 4 + 1 + 2 + 3 + 4 + 1 + 2 + 3 + 4 + 1 + 2 + 3 + 4 +

G|-----------------------------------------------------------------|
D|-----------------------------------------------------------------|
A|-----------------------------------------------------------------|
D|-3-------r---3-------3---3-------5---5-5-5---3-----3-3---3---3---|
   1 + 2 + 3 + 4 + 1 + 2 + 3 + 4 + 1 + 2 + 3 + 4 + 1 + 2 + 3 + 4 +

3:54
G|-----------------------------------------------------------------|
D|-------------------------------------------------3---232-0-------|
A|-5-------r-------------------3-------3---3-------------------3---|
D|-------------0-------2---3---------------------------------------|
   1 + 2 + 3 + 4 + 1 + 2 + 3 + 4 + 1 + 2 + 3 + 4 + 1 + 2 + 3 + 4 +

G|-----------------------------------------------------------------------|
D|---------------------------------------------------/-8-8-8-8-8-8-8-8-8-|
A|-----------------------------1-------1---1-------1---------------------|
D|-3-------r---3-------3---3---------------------------------------------|
   1 + 2 + 3 + 4 + 1 + 2 + 3 + 4 + 1 + 2 + 3 + 4 + 1 + Tripl Tripl TRipl

G|-----------------------------------------------------------------|
D|-----------------------------------------------------------------|
A|-5-------r-------------------3-------3---3---3-3-3---3-3-3---3---|
D|-------------0-------2---3---------------------------------------|
   1 + 2 + 3 + 4 + 1 + 2 + 3 + 4 + 1 + 2 + 3 + 4 + 1 + 2 + 3 + 4 +

G|-----------------------------------------------------------------|
D|-----------------------------------------------------------------|
A|---------------------------------------------*-------------------| * = fermata
D|-3-------r---3-------3---3-------5---5-------3-------------------|
   1 + 2 + 3 + 4 + 1 + 2 + 3 + 4 + 1 + 2 + 3 + 4 + 1 + 2 + 3 + 4 +

Outro
G|-------------------------------------------------------------------|
D|o-----------------------------------------------------------------o|
A|o-----------------------------------------------------------------o|x4
D|--0-0---------00000---------------0-0---------00000----------------|
    1 + 2 + 3 + 4 + 1 + 2 + 3 + 4 + 1 + 2 + 3 + 4 + 1 + 2 + 3 + 4 +

G|-----------------------------------------------------------------|
D|-----------------------------------------------------------------|
A|-----------------------------------------------------------------|
D|-0-0-------------------------------------------------------------|
   1 + 2 + 3 + 4 + 1 + 2 + 3 + 4 + 1 + 2 + 3 + 4 + 1 + 2 + 3 + 4 +

--------------------------------------------------------------------------------------

Chapter Four

G|-------------------------------------------------------------------|
D|o-----------------------------------------------------------------o|
A|o---------------------------------------0-----1-------------------o|
D|--0-----2-----3-------------------0--------------------------------|
    1 + 2 + 3 + 4 + 1 + 2 + 3 + 4 + 1 + 2 + 3 + 4 + 1 + 2 + 3 + 4 +

G|-------------------------------------------------------------------|
D|o-----------------------------------------------------------------o|
A|o-----------------------------------------------------------------o|x4
D|--0-----0-0-0-0-----0-0-0-0-0-----0-----0-0-0-0-----0-0-0-0-0------|
    1 + 2 + 3 + 4 + 1 + 2 + 3 + 4 + 1 + 2 + 3 + 4 + 1 + 2 + 3 + 4 +

0:29
G|-----------------------------------------------------------------|
D|-----------------------------------------------------------------|
A|-5---5-5---5-5---5-5-5-5---5-5---3-3-3-3---3-3---3-3-3-3---3-3---|
D|-----------------------------------------------------------------|
   1 + 2 + 3 + 4 + 1 + 2 + 3 + 4 + 1 + 2 + 3 + 4 + 1 + 2 + 3 + 4 +

G|-----------------------------------------------------------------|
D|-----------------------------------------------------------------|
A|-1-1-1-1---1-1---1-1-1-1---1-1---1-1-1-1---1-1---3-3-3-3---3-3---|
D|-----------------------------------------------------------------|
   1 + 2 + 3 + 4 + 1 + 2 + 3 + 4 + 1 + 2 + 3 + 4 + 1 + 2 + 3 + 4 +

G|-----------------------------------------------------------------|
D|-----------------------------------------------------------------|
A|-5-5-5-5---5-5---5-5-5-5---5-5---3-3-3-3---3-3---3-3-3-3---3-3---|
D|-----------------------------------------------------------------|
   1 + 2 + 3 + 4 + 1 + 2 + 3 + 4 + 1 + 2 + 3 + 4 + 1 + 2 + 3 + 4 +

G|-----------------------------------------------------------------|
D|-----------------------------------------------------------------|
A|-1-1-1-1---1-1---1-1-1-1---1-1---1-1-1-1---1-1---3-3-3-3---3-3---|
D|-----------------------------------------------------------------|
   1 + 2 + 3 + 4 + 1 + 2 + 3 + 4 + 1 + 2 + 3 + 4 + 1 + 2 + 3 + 4 +

Verse 0:50
G|-----------------------------------------------------------------|
D|-----------------------------------------------------------------|
A|-----------------------------------------------------------------|
D|-0-----0-0-0-0-----0-0-0-0---0-0-3-------3---3---2---2---2-3-2-2-|
   1 + 2 + 3 + 4 + 1 + 2 + 3 + 4 + 1 + 2 + 3 + 4 + 1 + 2 + 3 + 4 +

G|-----------------------------------------------------------------|
D|-----------------------------------------------------------------|
A|-1-----1-1-1-1-----1-1-1-1-3-1-0---------------------------------|
D|---------------------------------3---3-3-3-3---3-2---2---5---5---|
   1 + 2 + 3 + 4 + 1 + 2 + 3 + 4 + 1 + 2 + 3 + 4 + 1 + 2 + 3 + 4 +

G|-----------------------------------------------------------------|
D|-----------------------------------------------------------------|
A|-----------------------------------------------------------------|
D|-0-----0-0-0-0-----0-0-0-0---0-0-3---3-3-3---3---2---2-2-2-3-2-2-|
   1 + 2 + 3 + 4 + 1 + 2 + 3 + 4 + 1 + 2 + 3 + 4 + 1 + 2 + 3 + 4 +

G|-----------------------------------------------------------------|
D|-----------------------------------------------------------------|
A|-1-----1-1-1-1-----1-1-1-1-3-1-0---------------------------------|
D|---------------------------------3---3-3-3---3---2---2---5---5---|
   1 + 2 + 3 + 4 + 1 + 2 + 3 + 4 + 1 + 2 + 3 + 4 + 1 + 2 + 3 + 4 +

Chorus 1:09
G|-----------------------------------------------------------------|
D|-----------------------------------------------------------------|
A|---------------------------------1-----1-----1-1-1-------1---1---|
D|-0-----0-----0-0-0-------0---0-----------------------------------|
   1 + 2 + 3 + 4 + 1 + 2 + 3 + 4 + 1 + 2 + 3 + 4 + 1 + 2 + 3 + 4 +

G|-----------------------------------------------------------------|
D|-----------------------------------------------------------------|
A|-----------------------------------------------------------------|
D|-3-----3-----3-3-3-------3---3---2-----2-----2-2-2-------2---2---|
   1 + 2 + 3 + 4 + 1 + 2 + 3 + 4 + 1 + 2 + 3 + 4 + 1 + 2 + 3 + 4 +

G|-----------------------------------------------------------------|
D|-----------------------------------------------------------------|
A|---------------------------------1-----1-----1-1-1-------1---1---|
D|-0-----0-----0-0-0-------0---0-----------------------------------|
   1 + 2 + 3 + 4 + 1 + 2 + 3 + 4 + 1 + 2 + 3 + 4 + 1 + 2 + 3 + 4 +

G|-----------------------------------------------------------------|
D|-----------------------------------------------------------------|
A|---------------------------------4-----4-----4-4-4-------4---4---|
D|-3-----3-----3-3-3-------3---3-----------------------------------|
B|--------------------------------(2-----2-----2-2-2-------2---2)--|
   1 + 2 + 3 + 4 + 1 + 2 + 3 + 4 + 1 + 2 + 3 + 4 + 1 + 2 + 3 + 4 +

1:29
G|-----------------------------------------------------------------|
D|-----------------------------------------------------------------|
A|-5---5---5-5---3---3-3-3---3-3-3-1---1---1-1---3---3-3-3---3-3-3-|
D|-----------------------------------------------------------------|
   1 + 2 + 3 + 4 + 1 + 2 + 3 + 4 + 1 + 2 + 3 + 4 + 1 + 2 + 3 + 4 +

G|-----------------------------------------------------------------|
D|-----------------------------------------------------------------|
A|-5---5---5-5---3---3-3-3---3-3-3-1---1---1-1---3---3-3-3-3-3-3-3-|
D|-----------------------------------------------------------------|
   1 + 2 + 3 + 4 + 1 + 2 + 3 + 4 + 1 + 2 + 3 + 4 + 1 + 2 + 3 + 4 +

G|-----------------------------------------------------------------|
D|-----------------------------------------------------------------|
A|-0---0-0-0-0-0-0-0-0-0-0-0-0-0-0-0-0-0-0-0-0-0-0-0-0-0-0-0-0-0-0-|
D|-----------------------------------------------------------------|
   1 + 2 + 3 + 4 + 1 + 2 + 3 + 4 + 1 + 2 + 3 + 4 + 1 + 2 + 3 + 4 +

Interlude 1:44
G|------------------------------------------------------------------|
D|o-----------------------------------------------------------------|
A|o-5-5-5-5-5-5-5-5-3-3-3-3-3-3-1-1-1-1-1-1-1-1-1-1-3-3-3-3-3-3-3-3-|
D|------------------------------------------------------------------|
    1 + 2 + 3 + 4 + 1 + 2 + 3 + 4 + 1 + 2 + 3 + 4 + 1 + 2 + 3 + 4 +

G|------------------------------------------------------------------|
D|-----------------------------------------------------------------o|
A|-5-5-5-5-5-5-5-5-3-3-3-3-3-3-1-1-1-1-1-1-1-1-3-3-3-3-3-3-3-3-3-3-o|
D|------------------------------------------------------------------|
   1 + 2 + 3 + 4 + 1 + 2 + 3 + 4 + 1 + 2 + 3 + 4 + 1 + 2 + 3 + 4 +

Verse 2:04
G|-----------------------------------------------------------------|
D|-----------------------------------------------------------------|
A|-----------------------------------------------------------------|
D|-0-----0-0-0-0-----0-0-0-0---0-0-3---3-3-3---3---2---2-2-2-3-2-2-|
   1 + 2 + 3 + 4 + 1 + 2 + 3 + 4 + 1 + 2 + 3 + 4 + 1 + 2 + 3 + 4 +

G|-----------------------------------------------------------------|
D|-----------------------------------------------------------------|
A|-1-----1-1-1-1-----1-1-1-1-3-1-0---------------------------------|
D|---------------------------------3---3-3-3-3---3-2---2---5---5---|
   1 + 2 + 3 + 4 + 1 + 2 + 3 + 4 + 1 + 2 + 3 + 4 + 1 + 2 + 3 + 4 +

G|-----------------------------------------------------------------|
D|-----------------------------------------------------------------|
A|-----------------------------------------------------------------|
D|-0-----0-0-0-0-----0-0-0-0---0-0-3---3-3-3---3---2---2-2-2-3-2-2-|
   1 + 2 + 3 + 4 + 1 + 2 + 3 + 4 + 1 + 2 + 3 + 4 + 1 + 2 + 3 + 4 +

G|-----------------------------------------------------------------|
D|-----------------------------------------------------------------|
A|-1-----1-1-1-1-----1-1-1-1-3-1-0---------------------------------|
D|---------------------------------3---3-3-3---3---2---2---5---5---|
   1 + 2 + 3 + 4 + 1 + 2 + 3 + 4 + 1 + 2 + 3 + 4 + 1 + 2 + 3 + 4 +

Chorus 2:24
G|-----------------------------------------------------------------|
D|-----------------------------------------------------------------|
A|---------------------------------1-----1-----1-1-1-------1---1---|
D|-0-----0-----0-0-0-------0---0-----------------------------------|
   1 + 2 + 3 + 4 + 1 + 2 + 3 + 4 + 1 + 2 + 3 + 4 + 1 + 2 + 3 + 4 +

G|-----------------------------------------------------------------|
D|-----------------------------------------------------------------|
A|-----------------------------------------------------------------|
D|-3-----3-----3-3-3-------3---3---2-----2-----2-2-2-------2---2---|
   1 + 2 + 3 + 4 + 1 + 2 + 3 + 4 + 1 + 2 + 3 + 4 + 1 + 2 + 3 + 4 +

G|-----------------------------------------------------------------|
D|-----------------------------------------------------------------|
A|---------------------------------1-----1-----1-1-1-------1---1---|
D|-0-----0-----0-0-0-------0---0-----------------------------------|
   1 + 2 + 3 + 4 + 1 + 2 + 3 + 4 + 1 + 2 + 3 + 4 + 1 + 2 + 3 + 4 +

G|-----------------------------------------------------------------|
D|-----------------------------------------------------------------|
A|---------------------------------4-----4-----4-4-4-------4---4---|
D|-3-----3-----3-3-3-------3---3-----------------------------------|
B|--------------------------------(2-----2-----2-2-2-------2---2)--|
   1 + 2 + 3 + 4 + 1 + 2 + 3 + 4 + 1 + 2 + 3 + 4 + 1 + 2 + 3 + 4 +

2:45
G|-----------------------------------------------------------------|
D|-----------------------------------------------------------------|
A|-5---5---5-5---3---3-3-3---3-3-3-1---1---1-1---3---3-3-3---3-3-3-|
D|-----------------------------------------------------------------|
   1 + 2 + 3 + 4 + 1 + 2 + 3 + 4 + 1 + 2 + 3 + 4 + 1 + 2 + 3 + 4 +

G|-----------------------------------------------------------------|
D|-----------------------------------------------------------------|
A|-5---5---5-5---3---3-3-3---3-3-3-1---1---1-1---3---3-3-3-3-3-3-3-|
D|-----------------------------------------------------------------|
   1 + 2 + 3 + 4 + 1 + 2 + 3 + 4 + 1 + 2 + 3 + 4 + 1 + 2 + 3 + 4 +

G|-----------------------------------------------------------------|
D|-----------------------------------------------------------------|
A|-0---0-0-0-0-0-0-0-0-0-0-0-0-0-0-0-0-0-0-0-0-0-0-0-0-0-0-0-0-0-0-|
D|-----------------------------------------------------------------|
   1 + 2 + 3 + 4 + 1 + 2 + 3 + 4 + 1 + 2 + 3 + 4 + 1 + 2 + 3 + 4 +

Interlude 3:00
G|-----------------------------------------------------------------|
D|-----------------------------------------------------------------|
A|-5-5-5-5-5-5-5-5-3-3-3-3-3-3-1-1-1-1-1-1-1-1-1-1-3-3-3-3-3-3-3-3-|
D|-----------------------------------------------------------------|
   1 + 2 + 3 + 4 + 1 + 2 + 3 + 4 + 1 + 2 + 3 + 4 + 1 + 2 + 3 + 4 +

G|-----------------------------------------------------------------|
D|-----------------------------------------------------------------|
A|-5-5-5-5-5-5-5-5-3-3-3-3-3-3-1-1-1-1-1-1-1-1-3-3-3-3-3-3-3-3-3-3-|
D|-----------------------------------------------------------------|
   1 + 2 + 3 + 4 + 1 + 2 + 3 + 4 + 1 + 2 + 3 + 4 + 1 + 2 + 3 + 4 +

Bridge 3:10
G|-------------------------------------------------------------------|
D|o-----------------------------------------------------------------o|
A|o-----------------------------------------------------------------o|
D|--7b--0-0-0-0-7b--0-0-0-0-7h8-7p5-7b--0-0-0-0-7b--0-0-0-0-7h8-7p5--|
    1 + 2 + 3 + 4 + 1 + 2 + 3 + 4 + 1 + 2 + 3 + 4 + 1 + 2 + 3 + 4 +

Interlude 3:20
G|-------------------------------------------------------------------|
D|o-----------------------------------------------------------------o|
A|o---------------------------------------0-0-0-1-------------------o|
D|--0-0-0-2-2-2-3-------------------0-0-0----------------------------|
    1 + 2 + 3 + 4 + 1 + 2 + 3 + 4 + 1 + 2 + 3 + 4 + 1 + 2 + 3 + 4 +

Bridge 3:30
G|--------------------------------------------------|
D|o-------------------------------------------------|
A|o-------------------------------------------------|
D|--0-----0---0-0-------0h2/7-----7---7-7---5---7---|
    1 + 2 + 3 + 4 + 5 + 6 + 1 + 2 + 3 + 4 + 5 + 6 + 

G|--------------------------------------------------|
D|-------------------------------------------------o|
A|-1-----1---1-1-------1---------------------------o|
D|-------------------------3-----3---3-2-------2----|
   1 + 2 + 3 + 4 + 5 + 6 + 1 + 2 + 3 + 4 + 5 + 6 + 

G|-------------------------------------------------------------------------------------------------|
D|-------------------------------------------------------3-----3-----------------------------------|
A|-------------------------------------------------1---------3-----3---1---------------------------|
D|-0-----0---0-0-------0h2/7-----7---7-7---5---7---------------------------3-----3---3-2-------2---|
   1 + 2 + 3 + 4 + 5 + 6 + 1 + 2 + 3 + 4 + 5 + 6 + 1 + 2 + 3 + 4 + 5 + 6 + 1 + 2 + 3 + 4 + 5 + 6 + 

G|-------------------------------------------------------------------------------------------------|
D|-------------------------------------------------------------------------------------------------|
A|-------------------------------------------------1-----1---1-1-------1---------------------------|
D|-0-----0---0-0-------0h2/7-----7---7-7---5---7---------------------------3-----3---3-2-------2---|
   1 + 2 + 3 + 4 + 5 + 6 + 1 + 2 + 3 + 4 + 5 + 6 + 1 + 2 + 3 + 4 + 5 + 6 + 1 + 2 + 3 + 4 + 5 + 6 + 

Interlude 4:00
G|------------------------------------------------------------------|
D|o-----------------------------------------------------------------|
A|o-5-5-5-5---5-5---5-5-5-5---5-5---3-3-3-3---3-3---3-3-3-3---3-3---|
D|------------------------------------------------------------------|
    1 + 2 + 3 + 4 + 1 + 2 + 3 + 4 + 1 + 2 + 3 + 4 + 1 + 2 + 3 + 4 +

G|------------------------------------------------------------------|-----------------|
D|-----------------------------------------------------------------o|-----------------|
A|-1-1-1-1---1-1---1-1-1-1---1-1---1-1-1-1---1-1---3-3-3-3---3-3---o|-5---------------|
D|------------------------------------------------------------------|-----------------|
   1 + 2 + 3 + 4 + 1 + 2 + 3 + 4 + 1 + 2 + 3 + 4 + 1 + 2 + 3 + 4 +    1 2 3 4 1 2 3 4

Breakdown/solo 4:22
G|------------------------------------------------------------------|
D|o-----------------------------------------------------------------|
A|o-----------------------------------------------------------------|
D|--000-0-0-0-----------0-0-0-------333-3-3-3-----------3-3-3-------|
    1 + 2 + 3 + 4 + 1 + 2 + 3 + 4 + 1 + 2 + 3 + 4 + 1 + 2 + 3 + 4 +

G|------------------------------------------------------------------|
D|-----------------------------------------------------------------o|
A|-111-1-1-1-----------1-1-1---------------------------------------o|
D|---------------------------------333-3-3-3-------222-2-2-2--------|
   1 + 2 + 3 + 4 + 1 + 2 + 3 + 4 + 1 + 2 + 3 + 4 + 1 + 2 + 3 + 4 +

Outro 4:41
G|--------------------------------------------------|
D|o-------------------------------------------------|
A|o-------------------------------------------------|
D|--0-----0---0-0-------0h2/7-----7---7-7---5---7---|
    1 + 2 + 3 + 4 + 5 + 6 + 1 + 2 + 3 + 4 + 5 + 6 + 

G|--------------------------------------------------|
D|-------------------------------------------------o|
A|-1-----1---1-1-------1---------------------------o|
D|-------------------------3-----3---3-2-------2----|
   1 + 2 + 3 + 4 + 5 + 6 + 1 + 2 + 3 + 4 + 5 + 6 + 

G|-------------------------------------------------------------------------------------------------|
D|-------------------------------------------------------3-----3-------3---------------------------|
A|-------------------------------------------------1---------3-----3-------------------------------|
D|-0-----0---0-0-------0h2/7-----7---7-7---5---7---------------------------3-----3---3-2-------2---|
   1 + 2 + 3 + 4 + 5 + 6 + 1 + 2 + 3 + 4 + 5 + 6 + 1 + 2 + 3 + 4 + 5 + 6 + 1 + 2 + 3 + 4 + 5 + 6 + 

G|-------------------------------------------------------------------------------------------------|
D|-------------------------------------------------------3-----3-----------------------------------|
A|-------------------------------------------------1---------3-----3---1---------------------------|
D|-0-----0---0-0-------0h2/7-----7---7-7---5---7---------------------------3-----3---3-2-------2---|
   1 + 2 + 3 + 4 + 5 + 6 + 1 + 2 + 3 + 4 + 5 + 6 + 1 + 2 + 3 + 4 + 5 + 6 + 1 + 2 + 3 + 4 + 5 + 6 + 

5:11
G|-------------------------------------------------------------------------------------------------|
D|-------------------------------------------------------------------------------------------------|
A|-------------------------------------------------1-----1---1-1-------1---------------------------|
D|-0-----0---0-0-------0h2/7-----7---7-7---5---7---------------------------3-----3---3-2-------2---|
   1 + 2 + 3 + 4 + 5 + 6 + 1 + 2 + 3 + 4 + 5 + 6 + 1 + 2 + 3 + 4 + 5 + 6 + 1 + 2 + 3 + 4 + 5 + 6 + 

G|-------------------------------------------------------------------------------------------------|
D|-------------------------------------------------------3-----3-------3---------------------------|
A|-------------------------------------------------1---------3-----3-------------------------------|
D|-0-----0---0-0-------0h2/7-----7---7-7---5---7---------------------------3-----3---3-2-------2---|
   1 + 2 + 3 + 4 + 5 + 6 + 1 + 2 + 3 + 4 + 5 + 6 + 1 + 2 + 3 + 4 + 5 + 6 + 1 + 2 + 3 + 4 + 5 + 6 + 

5:27
G|-------------------------------------------------------------------------------------------------|
D|-------------------------------------------------------------------------------------------------|
A|-------------------------------------------------1-----1---1-1-------1---------------------------|
D|-0-----0---0-0-------0h2/7-----7---7-7---5---7---------------------------3-----3---3-2-------2---|
   1 + 2 + 3 + 4 + 5 + 6 + 1 + 2 + 3 + 4 + 5 + 6 + 1 + 2 + 3 + 4 + 5 + 6 + 1 + 2 + 3 + 4 + 5 + 6 + 

G|-------------------------------------------------------------------------------------------------|
D|-------------------------------------------------------3-----3-----------------------------------|
A|-------------------------------------------------1---------3-----3---1---------------------------|
D|-0-----0---0-0-------0h2/7-----7---7-7---5---7---------------------------3-----3---3-2-------2---|
   1 + 2 + 3 + 4 + 5 + 6 + 1 + 2 + 3 + 4 + 5 + 6 + 1 + 2 + 3 + 4 + 5 + 6 + 1 + 2 + 3 + 4 + 5 + 6 + 

--------------------------------------------------------------------------------------

Remenissions


G|-----------------------------------------------------------------|
D|-----------------------------------------------------------------|
A|-----------------------------------------------------------------|
D|-0-r-----------------------------0-0-0-0-0-----------------------|
   1 + 2 + 3 + 4 + 1 + 2 + 3 + 4 + 1 + 2 + 3 + 4 + 1 + 2 + 3 + 4 +

G|------------------------------------------------------------------|
D|o-----------------------------------------------------------------|
A|o-5-5-5-5-5-5-5-5-5-5-5-5-5-5-5-5-0-0-0-0-0-0-0-0-0-0-0-0-0-0-0-0-|
D|------------------------------------------------------------------|
    1 + 2 + 3 + 4 + 1 + 2 + 3 + 4 + 1 + 2 + 3 + 4 + 1 + 2 + 3 + 4 +

G|------------------------------------------------------------------|
D|-----------------------------------------------------------------o|
A|-1-1-1-1-1-1-1-1-1-1-1-1-1-1-1-1-0-0-0-0-0-0-0-0-4---4---4---4---o|
D|------------------------------------------------------------------|
   1 + 2 + 3 + 4 + 1 + 2 + 3 + 4 + 1 + 2 + 3 + 4 + 1 + 2 + 3 + 4 +

0:28
G|-----------------------------------------------------------------|
D|-----------------------------------------------------------------|
A|---------5-------------------------------6-----------------------|
D|-0-0---0-------------------------0-0---0-------------------------|
   1 + 2 + 3 + 4 + 1 + 2 + 3 + 4 + 1 + 2 + 3 + 4 + 1 + 2 + 3 + 4 +

G|-----------------------------------------------------------------|
D|-----------------------------------------------------------------|
A|---------1-----------------------0---------------0-r-------------|
D|-0-0---0---------------------------------------------------------|
   1 + 2 + 3 + 4 + 1 + 2 + 3 + 4 + 1 + 2 + 3 + 4 + 1 + 2 + 3 + 4 +

0:38
G|-----------------------------------------------------------------|
D|-----------------------------------------------------------------|
A|---------------------------------1---111/5-----1---1-1-1-5-------|
D|-0---0-0-3p2-0-0-----0-0-3p2-0-----------------------------------|
   1 + 2 + 3 + 4 + 1 + 2 + 3 + 4 + 1 + 2 + 3 + 4 + 1 + 2 + 3 + 4 +

G|-----------------------------------------------------------------|
D|---------5-3-2-0---2---------------------------------------------|
A|-3---3-3-------------3-------3-3-1-1-1-----------3-3-3-0---0-0---|
D|---------------------------------------5---5-5-------------------|
   1 + 2 + 3 + 4 + 1 + 2 + 3 + 4 + 1 + 2 + 3 + 4 + 1 + 2 + 3 + 4 +

G|-----------------------------------------------------------------|
D|-----------------------------------------------------------------|
A|---------------------------------1---111/5-----1---1-111/5-------|
D|-0---0-0-3p2-0-0-----0-0-3p2-0-----------------------------------|
   1 + 2 + 3 + 4 + 1 + 2 + 3 + 4 + 1 + 2 + 3 + 4 + 1 + 2 + 3 + 4 +

G|-------------------------------------------------------------------------------------------------|
D|---------5-3-2-0---2-----------------------------------------------------------------------------|
A|-3---3-3-------------3-------3-3-1-1-1-----------3-3-3-0---0-0-----------------------------------|
D|---------------------------------------5---5-5-------------------0-------0-------0-------0-------|
   1 + 2 + 3 + 4 + 1 + 2 + 3 + 4 + 1 + 2 + 3 + 4 + 1 + 2 + 3 + 4 + 1 + 2 + 3 + 4 + 1 + 2 + 3 + 4 +

1:02
G|------------------------------------------------------------------|
D|o-----------------------------------------------------------------|
A|o---------------------------------1---111/5-----1---1-111/5-------|
D|--0---0-0-3p2-0-0-----0-0-3p2-0-----------------------------------|
    1 + 2 + 3 + 4 + 1 + 2 + 3 + 4 + 1 + 2 + 3 + 4 + 1 + 2 + 3 + 4 +

G|------------------------------------------------------------------|
D|---------5-3-2-0---2---------------------------------------------o|
A|-3---3-3-------------3-------3-3-1---------------3-----0---0-0---o|
D|---------------------------------------5---5-5--------------------|
   1 + 2 + 3 + 4 + 1 + 2 + 3 + 4 + 1 + 2 + 3 + 4 + 1 + 2 + 3 + 4 +

1:23
G|-------------------------------------------------------------------------|
D|-------------------------------------------------------------------------|
A|-------------------------------------------------------------------------|
D|-0---1---0-0---0---0-0-0---0-0-0-0---1---0-0---0---0-0-0---0-0-0---0-0-0-|
   1 + 2 + 3 + 4 + 1 + 2 + 3 + 4 + 1 + 2 + 3 + 4 + 1 + 2 + 3 + 4 + 5 + 6 +

G|-----------------------------------------------------------------|
D|-----------------------------------------------------------------|
A|-----------------------------------------------------------------|
D|-0---1---0-0---0---0-0-0---0-0-0-0---1---0-0---0---0-0-0---0-0-0-|
   1 + 2 + 3 + 4 + 1 + 2 + 3 + 4 + 1 + 2 + 3 + 4 + 1 + 2 + 3 + 4 +

1:35
G|-----------------------------------------------------------------|
D|-----------------------------------------------------------------|
A|---------------------------------1-----1-1-----1-----1-1-1-1-----|
D|-0-------------0---0-0-0---0-0-0-----------------------------2h3-|
   1 + 2 + 3 + 4 + 1 + 2 + 3 + 4 + 1 + 2 + 3 + 4 + 1 + 2 + 3 + 4 +

G|-----------------------------------------------------------------|
D|-------------------------------------------------3-2-0---0-------|
A|-------------------------------5-3---3-3-3---3-3-------3---3-2-0-|
D|-5-----5-5-----5-----5-5-5---5-----------------------------------|
   1 + 2 + 3 + 4 + 1 + 2 + 3 + 4 + 1 + 2 + 3 + 4 + 1 + 2 + 3 + 4 +

1:45
G|-----------------------------------------------------------------|
D|-----------------------------------------------------------------|
A|---------------------------------1-----1-1-----1-----1-1-1-1-----|
D|-0---0-0-0---------------------------------------------------2h3-|
   1 + 2 + 3 + 4 + 1 + 2 + 3 + 4 + 1 + 2 + 3 + 4 + 1 + 2 + 3 + 4 +

G|-----------------------------------------------------------------|
D|-------------------------------------------------3-2-0---0-------|
A|-------------------------------5-3---3-3-3---3-3-------3---3-2-0-|
D|-5-----5-5-----5-----5-5-5---5-----------------------------------|
   1 + 2 + 3 + 4 + 1 + 2 + 3 + 4 + 1 + 2 + 3 + 4 + 1 + 2 + 3 + 4 +

1:56
G|-----------------------------------------------------------------|
D|-----------------------------------------------------------------|
A|---------5---------------------------------------0-----1-----3h5-|
D|-0---0-----------0-----3-----4---5-------------------------------|
   1 + 2 + 3 + 4 + 1 + 2 + 3 + 4 + 1 + 2 + 3 + 4 + 1 + 2 + 3 + 4 +

G|-----------------------------------------------------------------|
D|-----------------------------------------------------------------|
A|-3---3---3-----3-3-3-3---5---3-2-----------------0---0---4---4---|
D|---------------------------------3---3---3---3-------------------|
   1 + 2 + 3 + 4 + 1 + 2 + 3 + 4 + 1 + 2 + 3 + 4 + 1 + 2 + 3 + 4 +

G|-----------------------------------------------------------------|
D|-----------------------------------------------------------------|
A|-5---5-------------------------------------------------0-----1---|
D|---------0-------0-----3-----4---5---5---5-------5---------------|
   1 + 2 + 3 + 4 + 1 + 2 + 3 + 4 + 1 + 2 + 3 + 4 + 1 + 2 + 3 + 4 +

G|-----------------------------------------------------------------|
D|-----------------------------------------------------------------|
A|-3---3---3---3---3-3-3---5---3-2-------------------------0-0-0---|
D|---------------------------------3---3-3-3-3-3-3-5-5-5-5---------|
   1 + 2 + 3 + 4 + 1 + 2 + 3 + 4 + 1 + 2 + 3 + 4 + 1 + 2 + 3 + 4 +

2:17
G|-----------------------------------------------------------------|
D|-----------------------------------------------------------------|
A|-----------------------------------------------------------------|
D|-0---0-0-0-0-0-0-0-0-0-0-0-0-0-0-5---5-5-5-5-5-5-5-5-5-5-5-5-5-5-|
   1 + 2 + 3 + 4 + 1 + 2 + 3 + 4 + 1 + 2 + 3 + 4 + 1 + 2 + 3 + 4 +

G|-----------------------------------------------------------------|
D|-----------------------------------------------------------------|
A|-3---3-3-3-3-3-3-3-3-3-3-3-3-3-3-----------------0---0-0-0-0-0-0-|
D|---------------------------------3---3-3-3-3-3-3-----------------|
   1 + 2 + 3 + 4 + 1 + 2 + 3 + 4 + 1 + 2 + 3 + 4 + 1 + 2 + 3 + 4 +

G|-----------------------------------------------------------------|
D|-----------------------------------------------------------------|
A|-----------------------------------------------------------------|
D|-0---0-0-0-0-0-0-0-0-0-0-0-0-0-0-5---5-5-5-5-5-5-5-5-5-5-5-5-5-5-|
   1 + 2 + 3 + 4 + 1 + 2 + 3 + 4 + 1 + 2 + 3 + 4 + 1 + 2 + 3 + 4 +

G|-----------------------------------------------------------------|
D|-----------------------------------------------------------------|
A|-3---3-3-3-3-3-3-3-3-3-3-3-3-3-3-1---------------3---------------|
D|-----------------------------------------------------------------|
   1 + 2 + 3 + 4 + 1 + 2 + 3 + 4 + 1 + 2 + 3 + 4 + 1 + 2 + 3 + 4 +

2:39
G|-----------------------------------------------------------------|
D|-----------------------------------------------------------------|
A|-5-5-\---5-5-\---5-5-\---5-5-\---1-1-----------------------------|
D|-------------------------------------------------3-3-------------|
   1 + 2 + 3 + 4 + 1 + 2 + 3 + 4 + 1 + 2 + 3 + 4 + 1 + 2 + 3 + 4 +

2:44
G|-----------------------------------------------------------------|
D|-------2-3-2-0---------------------------------------------------|
A|---------------0-1-1-1-1-1-1-1-1-3-3-3-3-3-3-3-3-----------------|
D|-0-0-0-------------------------------------------3-3-3-3-2-2-2-2-|
   1 + 2 + 3 + 4 + 1 + 2 + 3 + 4 + 1 + 2 + 3 + 4 + 1 + 2 + 3 + 4 +

G|-----------------------------------------------------------------|
D|-------2-3-2-0-----------------------------------3-3-3-3---------|
A|---------------0-1-1-1-1-1-1-1-1-3-3-3-3-3-3-3-3---------3-3-3-3-|
D|-0-2-3-----------------------------------------------------------|
   1 + 2 + 3 + 4 + 1 + 2 + 3 + 4 + 1 + 2 + 3 + 4 + 1 + 2 + 3 + 4 +

G|-----------------------------------------------------------------|
D|-------2-3-2-0---------------------------------------------------|
A|---------------0-1-1-1-1-1-1-1-1-3-3-3-3-3-3-3-3-----------------|
D|-0-0-0-------------------------------------------3-3-3-3-2-2-2-2-|
   1 + 2 + 3 + 4 + 1 + 2 + 3 + 4 + 1 + 2 + 3 + 4 + 1 + 2 + 3 + 4 +

G|---------------------------------------------------------------------------------|
D|-------2-3-2-0-------------------------------------------------------------------|
A|---------------0-1-1-1-1-1-1-1-1-3-3-3-3-3--1--3-5-------------------------------|
D|-0-2-3---------------------------------------------------------------------------|
   1 + 2 + 3 + 4 + 1 + 2 + 3 + 4 + 1 + 2 + Triplet 1 + 2 + 3 + 4 + 1 + 2 + 3 + 4 +

3:07
G|---------------------------------------------------------------------------------------------------|
D|o--------------------------------------------------------------------------------/7-77-77-7-77-77-o|
A|o-5-55-55-3-33-33-1-11-11-0-00-00-1-11-11-1-11-11-1-11-11-1-11-11-0-00-00-0-00-00-----------------o|
D|---------------------------------------------------------------------------------------------------|
    1 + 2 + 3 + 4 + 1 + 2 + 3 + 4 + 1 + 2 + 3 + 4 + 1 + 2 + 3 + 4 + 1 + 2 + 3 + 4 + 1 + 2 + 3 + 4 +

3:23
G|-----------------------------------------------------------------|
D|-----------------------------------------------------------------|
A|-3-33-33-3-33-33-3-33-3-33-3-3-3-1-11-11-1-11-11-1-11-11-1-11-11-|
D|-----------------------------------------------------------------|
   1 + 2 + 3 + 4 + 1 + 2 + 3 + 4 + 1 + 2 + 3 + 4 + 1 + 2 + 3 + 4 +

G|-----------------------------------------------------------------|
D|-----------------------------------------------------------------|
A|-0-0-0-0-0-0-0-0-0-0-0-0-0-0-0-0-0-0-0-0-0-0-0-0-0-0-0-0-0-0-0-0-|
D|-----------------------------------------------------------------|
   1 + 2 + 3 + 4 + 1 + 2 + 3 + 4 + 1 + 2 + 3 + 4 + 1 + 2 + 3 + 4 +

3:33
G|---------------------------------|-----------------------------------|
D|-----7h8p7--------------8p7------|o-------8p7-------------8p7-------o|
A|---------------------------------|o---------------------------------o|x5
D|-0-----------0-0-0---------------|--0-----------0-0-0----------------|
   1 + 2 + 3 + 4 + 1 + 2 + 3 + 4 +    1 + 2 + 3 + 4 + 1 + 2 + 3 + 4 +

4:05
G|-------------------------------------------------------------------|
D|o-----------------------------------------------------------------o|
A|o-----------------------------------------------------------------o|
D|--0-------1-------2-------3-------0-------1-------2-------3--------|
    1 + 2 + 3 + 4 + 1 + 2 + 3 + 4 + 1 + 2 + 3 + 4 + 1 + 2 + 3 + 4 +

4:17
G|-------------------------------------------------------------------|
D|o------------------------------------------------------------------|
A|o-----------------------------------1-1-------------1-1---1-1-1111-|
D|--0-0---------------0-0---0-0-000000-------------------------------|
    1 + 2 + 3 + 4 + 1 + 2 + 3 + 4 + 1 + 2 + 3 + 4 + 1 + 2 + 3 + 4 +

G|------------------------------------------------------------------|
D|-----------------------------------------------------------------o|
A|-113-3-------------3-3---3-3-3-3---------------------------------o|
D|---------------------------------3-3-3-3-3-3-3-3-2-2-2-2-2-2-2-2--|
   1 + 2 + 3 + 4 + 1 + 2 + 3 + 4 + 1 + 2 + 3 + 4 + 1 + 2 + 3 + 4 +

4:38
G|-----------------------------------------------------------------|
D|-----------------------------------------------------------------|
A|-------------------------------------------------------0-----1---|
D|-0---0-0-0-0-----0---0-3---3-4---5-----5-5-5-----5---------------|
   1 + 2 + 3 + 4 + 1 + 2 + 3 + 4 + 1 + 2 + 3 + 4 + 1 + 2 + 3 + 4 +

G|-----------------------------------------------------------------|
D|-----------------------------------------------------------------|
A|-3---3-3-3-3---3-3---3---5---3-2-----------------0---0---4---4---|
D|---------------------------------3---3---3---3-------------------|
   1 + 2 + 3 + 4 + 1 + 2 + 3 + 4 + 1 + 2 + 3 + 4 + 1 + 2 + 3 + 4 +

G|-----------------------------------------------------------------|
D|-----------------------------------------------------------------|
A|-5---5---5-----------------------------------------------0-0-1-1-|
D|-----------------0-----3-----4---5---5-5-5-5-----5-----5---------|
   1 + 2 + 3 + 4 + 1 + 2 + 3 + 4 + 1 + 2 + 3 + 4 + 1 + 2 + 3 + 4 +

G|-----------------------------------------------------------------|
D|-----------------------------------------------------------------|
A|-3---3-3-3-3---3-3-3-3-3-5---3-2-----------------0---0-----------|
D|---------------------------------3---3---3---3-----------3---3---|
   1 + 2 + 3 + 4 + 1 + 2 + 3 + 4 + 1 + 2 + 3 + 4 + 1 + 2 + 3 + 4 +

5:00
G|-----------------------------------------------------------------|
D|-----------------------------------------------------------------|
A|-------------------------------------------------------0-1-1-3h5-|
D|-0---0-0-0-0-----0-----3-----4---5-----5-5-5-----5---------------|
   1 + 2 + 3 + 4 + 1 + 2 + 3 + 4 + 1 + 2 + 3 + 4 + 1 + 2 + 3 + 4 +

G|-----------------------------------------------------------------|
D|-----------------------------------------------------------------|
A|-3---3-3-3-3---3-3-3-3---5---3-2-----------------0---0---4---4---|
D|---------------------------------3---3---3---3-------------------|
   1 + 2 + 3 + 4 + 1 + 2 + 3 + 4 + 1 + 2 + 3 + 4 + 1 + 2 + 3 + 4 +

G|-----------------------------------------------------------------|
D|-----------------------------------------------------------------|
A|-5---5---5-------5-------------------------------------0-1-1-3h5-|
D|-----------------------3-----4---5---5-5-5-------5---------------|
   1 + 2 + 3 + 4 + 1 + 2 + 3 + 4 + 1 + 2 + 3 + 4 + 1 + 2 + 3 + 4 +

G|-----------------------------------------------------------------|
D|-----------------------------------------------------------------|
A|-3---3-3-3-3---3-3-3-3---5---3---0---0---0---0---0---0-----------|
D|---------------------------------------------------------7---\---|
   1 + 2 + 3 + 4 + 1 + 2 + 3 + 4 + 1 + 2 + 3 + 4 + 1 + 2 + 3 + 4 +

G|-----------------------------------------------------------------------|
D|-----------------------------------------------------------------------|
A|-----------------------------------------------------------------*-----|
D|-1---1---1---1---1---1---1---1---3---3---3---3---3---3---3---3---0-----|
   1 + 2 + 3 + 4 + 1 + 2 + 3 + 4 + 1 + 2 + 3 + 4 + 1 + 2 + 3 + 4 +

5:35	
G|-----------------------------------| 
D|o---------------------------------o|
A|o---------------------------------o|repeat and fade out
D|--0-0-0-0-0-0-0-0-0-0-0-0-0-0-0-0--|
    1 + 2 + 3 + 4 + 1 + 2 + 3 + 4 + 

--------------------------------------------------------------------------------------

Desecrate Through Reverence 

Intro
G|-------------------------------------------------------------------|-----------------|
D|o-----------------------------------------------------------------o|(x4)-------------|
A|o-----------------------------------------------------------------o|-----------------|
D|--0-----0-2---3-/-8-----7-6---7---3-------5-------2-----/-8---7----|-0---------------|
    1 2 3 4 1 2 3 4 1 2 3 4 1 2 3 4 1 2 3 4 1 2 3 4 1 2 3 4 1 2 3 4    1 2 3 4 1 2 3 4

0:42
G|-----------------------------------------------------------------------------------|
D|o---------------------------------------------------------------------------------o|
A|o---------------------------------------------------------------------------------o|
D|--0-0-0---------------------------0-0-0---0-0---0----------------------------------|
    1 + 2 + 3 + 4 + 1 + 2 + 3 + 4 + 1 + 2 + 3 + 4 + 1 + 2 + 3 + 4 + 1 + 2 + 3 + 4 +

0:55
G|-----------------------------------------------------------------|
D|-------------------------------------------------5-5-5-5---------|
A|-----5-----5-5---7-7-7-7-8-8-8-8-7-7-7-----7-7-----------8-8-8-8-|
D|-0-0-------------------------------------------------------------|
   1 + 2 + 3 + 4 + 1 + 2 + 3 + 4 + 1 + 2 + 3 + 4 + 1 + 2 + 3 + 4 +

G|-----------------------------------------------------------------|
D|-----------------------------------------------------------------|
A|-----------------------------------------------------------------|
D|-0-----0-0-0-3-----3---0-----0-0-0-3---------0---3---0---5---7---|
   1 e + a 2 e + a 3 e + a 4 e + a 1 e + a 2 e + a 3 e + a 4 e + a

G|-----------------------------------------------------------7-----|
D|-------------------------------------------------5-7-8-7---------|
A|-----5-----5-5---7-7-7-7-8-8-8-8-7-7-7-----7-7-----------8---8-7-|
D|-0-0-------------------------------------------------------------|
   1 + 2 + 3 + 4 + 1 + 2 + 3 + 4 + 1 + 2 + 3 + 4 + 1 + 2 + 3 + 4 +

G|-----------------------------------------------------------------|
D|-----------------------------------------------------------------|
A|-----------------------------------------------------------------|
D|-0-----0-0-0-3-----3---0-----0-0-0-5---------5---5---5---6---7---|
   1 e + a 2 e + a 3 e + a 4 e + a 1 e + a 2 e + a 3 e + a 4 e + a

G|-----------------------------------------------------------------|
D|-------------------------------------------------5-5-5-5---------|
A|-----5-----5-5---7-7-7-7-8-8-8-8-7-7-7-----7-7-----------8-8-8-8-|
D|-0-0-------------------------------------------------------------|
   1 + 2 + 3 + 4 + 1 + 2 + 3 + 4 + 1 + 2 + 3 + 4 + 1 + 2 + 3 + 4 +

G|-----------------------------------------------------------------|
D|-----------------------------------------------------------------|
A|-----------------------------------------------------------------|
D|-0-----0-0-0-3-----3---0-----0-0-0-3---------0---3---0---5---7---|
   1 e + a 2 e + a 3 e + a 4 e + a 1 e + a 2 e + a 3 e + a 4 e + a

G|-----------------------------------------------------------7-----|
D|-------------------------------------------------5-7-8-7---------|
A|-----5-----5-5---7-7-7-7-8-8-8-8-7-7-7-----7-7-----------8---8-7-|
D|-0-0-------------------------------------------------------------|
   1 + 2 + 3 + 4 + 1 + 2 + 3 + 4 + 1 + 2 + 3 + 4 + 1 + 2 + 3 + 4 +

G|-----------------------------------------------------------------|
D|-----------------------------------------------------------------|
A|-----------------------------------------------------------------|
D|-0-------------------------------0-------------------------------|
   1 + 2 + 3 + 4 + 1 + 2 + 3 + 4 + 1 + 2 + 3 + 4 + 1 + 2 + 3 + 4 +

G|-----------------------------------------------------------------|
D|-----------------------------------------------------------------|
A|-----------------------------------------------------------------|
D|-0---------------------------------------------------------------|
   1 + 2 + 3 + 4 + 1 + 2 + 3 + 4 + 1 + 2 + 3 + 4 + 1 + 2 + 3 + 4 +

1:32
G|-----------------------------------------|
D|-----------------------------------------|
A|-----------------------------------------|
D|-0-0-0---------------------------0-0---0-|
   1 + 2 + 3 + 4 + 1 + 2 + 3 + 4 + 1 + 2 + 

1:36 Verse
G|------------------------------------------------------------------|
D|o-----------------------------------------------------------------|
A|o-----------------------------------------------------------------|
D|--2---2---------------2---2-3-----2-2-2---2-2---------2-2-2-3-----|
    1 + 2 + 3 + 4 + 1 + 2 + 3 + 4 + 1 + 2 + 3 + 4 + 1 + 2 + 3 + 4 +

G|------------------------------------------------------------------|
D|-----------------------------------------------------------------o|
A|-----------------------------------------------------------------o|
D|-0---0---0-0---0---0-0-0---0-0-0-0-0-0---0-0---0---0-0-0---0-0-0--|
   1 + 2 + 3 + 4 + 1 + 2 + 3 + 4 + 1 + 2 + 3 + 4 + 1 + 2 + 3 + 4 +

1:56
G|-----------------------------------------------------------------|
D|-----------------------------------------------------------------|
A|-----------------------------------------------------------------|
D|-2---2---------------2---2-3-----2-2-2---------------2-2-2-3-----|
   1 + 2 + 3 + 4 + 1 + 2 + 3 + 4 + 1 + 2 + 3 + 4 + 1 + 2 + 3 + 4 +

G|-----------------------------------------------------------------|
D|-----------------------------------------------------------------|
A|-----------------------------------------------------------------|
D|-0---0---0-0---0---0-0-0---0-0-0-0-0-0---0-0---0---0-0-0---0-0-0-|
   1 + 2 + 3 + 4 + 1 + 2 + 3 + 4 + 1 + 2 + 3 + 4 + 1 + 2 + 3 + 4 +

G|-----------------------------------------------------------------|
D|-----------------------------------------------------------------|
A|-----------------------------------------------------------------|
D|-2---2---------------2---2-3-----2-2-2---2-2---------2-2-2-3-3-0-|
   1 + 2 + 3 + 4 + 1 + 2 + 3 + 4 + 1 + 2 + 3 + 4 + 1 + 2 + 3 + 4 +

2:11 Pre Chorus
G|-----------------------------------------------------------------|
D|-----------------------------------------------------------------|
A|-----------------------------------------------------------------|
D|-----0-0-0-0-0-0-0-0-0---0---0-------0-0-0-0-0-0-0-0-0---0---0---|
   1 e + a 2 e + a 3 e + a 4 e + a 1 e + a 2 e + a 3 e + a 4 e + a

G|-----------------------------------------------------------------|
D|-----------------------------------------------------------------|
A|-----------------------------------------------------------------|
D|-----0-0-0-0-0-0-0-0-0---0---0-------0---3---0---5---7---7---0---|
   1 e + a 2 e + a 3 e + a 4 e + a 1 e + a 2 e + a 3 e + a 4 e + a

G|-----------------------------------------------------------------|
D|-----------------------------------------------------------------|
A|-----------------------------------------------------------------|
D|-----0-0-0-0-0-0-0-0-0---0---0-------0-0-0-0-0-0-0-0-0---0---0---|
   1 e + a 2 e + a 3 e + a 4 e + a 1 e + a 2 e + a 3 e + a 4 e + a

G|-----------------------------------------------------------------|
D|-----------------------------------------------------------------|
A|-----------------------------------------------------------------|
D|-----0-0-0-0-0-0-0-0-0---0---0-------8---7---5-------7---8---0---|
   1 e + a 2 e + a 3 e + a 4 e + a 1 e + a 2 e + a 3 e + a 4 e + a

2:21 Chorus
G|-------------------------------------------------------------------------------------------------|
D|-------------------------------------------------5-5-8-5-----------------------------------------|
A|---------------------------------------------------------8-8-8-8-3-3-3-3-3-3-3-3-7-7-3-7---8-7---|
D|-3---3---3-3-3-3-2-2-2---2-3-5-0---0-0---0-0-0-0-----------------------------------------------0-|
   1 + 2 + 3 + 4 + 1 + 2 + 3 + 4 + 1 + 2 + 3 + 4 + 1 + 2 + 3 + 4 + 1 + 2 + 3 + 4 + 1 + 2 + 3 + 4 +

G|-------------------------------------------------------------------|
D|o-----------------------------------------------------------------o|
A|o-----------------------------------------------------------------o|
D|------0-0-0-0-0-0-0-0-0---0---0-------0-0-0-0-0-0-0-0-0---0---0----|
    1 e + a 2 e + a 3 e + a 4 e + a 1 e + a 2 e + a 3 e + a 4 e + a

2:34
G|-------------------------------------------------------------------------------------------------|
D|-------------------------------------------------5-5-5-5-----------------------------------5-----|
A|---------------------------------------------------------8-8-8---3-3-3-3-3-3-3-3-7-7-3-7---------|
D|-3---3---3-3-3-3-2-2-2---2---2-0---0-0---0-0-0-0-----------------------------------------------0-|
   1 + 2 + 3 + 4 + 1 + 2 + 3 + 4 + 1 + 2 + 3 + 4 + 1 + 2 + 3 + 4 + 1 + 2 + 3 + 4 + 1 + 2 + 3 + 4 +

G|-----------------------------------------------------------------|
D|-----------------------------------------------------------------|
A|-----------------------------------------------------------------|
D|-----0-0-0-0-0-0-0-0-0---0---0-------0-0-0-0-0-0-0-0-0---0---0---|
   1 e + a 2 e + a 3 e + a 4 e + a 1 e + a 2 e + a 3 e + a 4 e + a

G|-------------------------------------------------|
D|-------------------------------------------------|
A|-------------------------------------------------|
D|-----0-0-0-0-0-0-0-0-0---0---0-------0---0-------|
   1 e + a 2 e + a 3 e + a 4 e + a 1 e + a 2 e + a

2:46 Verse
G|------------------------------------------------------------------|
D|o-----------------------------------------------------------------|
A|o-----------------------------------------------------------------|
D|--2---2---------------2---2-3-----2-2-2---2-2---------2-2-2-3-----|
    1 + 2 + 3 + 4 + 1 + 2 + 3 + 4 + 1 + 2 + 3 + 4 + 1 + 2 + 3 + 4 +

G|------------------------------------------------------------------|
D|-----------------------------------------------------------------o|
A|-----------------------------------------------------------------o|
D|-0---0---0-0---0---0-0-0---0-0-0-0-0-0---0-0---0---0-0-0---0-0-0--|
   1 + 2 + 3 + 4 + 1 + 2 + 3 + 4 + 1 + 2 + 3 + 4 + 1 + 2 + 3 + 4 +

3:06
G|-----------------------------------------------------------------|
D|-----------------------------------------------------------------|
A|-----------------------------------------------------------------|
D|-2-2-2---------------2-2-2-3-----2-2-2---------------2-2-2-3-----|
   1 + 2 + 3 + 4 + 1 + 2 + 3 + 4 + 1 + 2 + 3 + 4 + 1 + 2 + 3 + 4 +

G|-----------------------------------------------------------------|
D|-----------------------------------------------------------------|
A|-----------------------------------------------------------------|
D|-0---0---0-0---0---0-0-0---0-0-0-0-0-0---0-0---0---0-0-0---0-0-0-|
   1 + 2 + 3 + 4 + 1 + 2 + 3 + 4 + 1 + 2 + 3 + 4 + 1 + 2 + 3 + 4 +

G|-----------------------------------------------------------------|
D|-----------------------------------------------------------------|
A|-----------------------------------------------------------------|
D|-2---2---------------2-2-2-3-----2-2-2---2-2---------2-2-2-3-3-0-|
   1 + 2 + 3 + 4 + 1 + 2 + 3 + 4 + 1 + 2 + 3 + 4 + 1 + 2 + 3 + 4 +

3:22 Pre Chorus
G|-----------------------------------------------------------------|
D|-----------------------------------------------------------------|
A|-----------------------------------------------------------------|
D|-----0-0-0-0-0-0-0-0-0---0---0-------0-0-0-0-0-0-0-0-0---0---0---|
   1 e + a 2 e + a 3 e + a 4 e + a 1 e + a 2 e + a 3 e + a 4 e + a

G|-----------------------------------------------------------------|
D|-----------------------------------------------------------------|
A|-----------------------------------------------------------------|
D|-----0-0-0-0-0-0-0-0-0---0---0-------0---3---0---5---7---7---0---|
   1 e + a 2 e + a 3 e + a 4 e + a 1 e + a 2 e + a 3 e + a 4 e + a

G|-----------------------------------------------------------------|
D|-----------------------------------------------------------------|
A|-----------------------------------------------------------------|
D|-----0-0-0-0-0-0-0-0-0---0---0-------0-0-0-0-0-0-0-0-0---0---0---|
   1 e + a 2 e + a 3 e + a 4 e + a 1 e + a 2 e + a 3 e + a 4 e + a

G|-----------------------------------------------------------------|
D|-----------------------------------------------------------------|
A|-----------------------------------------------------------------|
D|-----0-0-0-0-0-0-0-0-0---0---0-------8---7---5-------7---8---0---|
   1 e + a 2 e + a 3 e + a 4 e + a 1 e + a 2 e + a 3 e + a 4 e + a

3:32 Chorus
G|-------------------------------------------------------------------------------------------------|
D|-------------------------------------------------5-5-5-5-----------------------------------------|
A|---------------------------------------------------------8-8-8-8-3-3-3-3-3-3-3-3-7-7-7-8---8-7---|
D|-3---3---3-3-3-3-2-2-2---2-3-5-0---0-0---0-0-0-0-----------------------------------------------0-|
   1 + 2 + 3 + 4 + 1 + 2 + 3 + 4 + 1 + 2 + 3 + 4 + 1 + 2 + 3 + 4 + 1 + 2 + 3 + 4 + 1 + 2 + 3 + 4 +

G|-------------------------------------------------------------------|
D|o-----------------------------------------------------------------o|
A|o-----------------------------------------------------------------o|
D|------0-0-0-0-0-0-0-0-0---0---0-------0-0-0-0-0-0-0-0-0---0---0----|
    1 e + a 2 e + a 3 e + a 4 e + a 1 e + a 2 e + a 3 e + a 4 e + a

3:45
G|--------------------------------------------------------------------------------------------------|
D|-------------------------------------------------5-5-5-5------------------------------------5-----|
A|---------------------------------------------------------8-8-8-8--3-3-3-3-3-3-3-3-7-7-3-7---------|
D|-3---3---3-3-3-3-2-2-2---2---2-0---0-0---0-0-0-0------------------------------------------------0-|
   1 + 2 + 3 + 4 + 1 + 2 + 3 + 4 + 1 + 2 + 3 + 4 + 1 + 2 + 3 + 4 +  1 + 2 + 3 + 4 + 1 + 2 + 3 + 4 +

G|-----------------------------------------------------------------|
D|-----------------------------------------------------------------|
A|-----------------------------------------------------------------|
D|-----0-0-0-0-0-0-0-0-0---0---0-------0-0-0-0-0-0-0-0-0---0---0---|
   1 e + a 2 e + a 3 e + a 4 e + a 1 e + a 2 e + a 3 e + a 4 e + a

G|-----------------------------------------------------------------|
D|-----------------------------------------------------------------|
A|-----------------------------------------------------------------|
D|-----0-0-0-0-0-0-0-0-0---0---0-------0-0-0-0-0-0-0-0-0-------0---|
   1 e + a 2 e + a 3 e + a 4 e + a 1 e + a 2 e + a 3 e + a 4 e + a

3:57 Solo
G|-------------------------------------------------------------------------------------------------|
D|-------------------------------------------------5-5-5-5-----------------------------------5-----|
A|---------------------------------------------------------8-8-8-8-3-3-3-3-3-3-3-3-7-7-3-7---------|
D|-3-3-3-3-3-3-3---2-2-2-2-3-5---0---0-0---0-0-0-0-----------------------------------------------0-|
   1 + 2 + 3 + 4 + 1 + 2 + 3 + 4 + 1 + 2 + 3 + 4 + 1 + 2 + 3 + 4 + 1 + 2 + 3 + 4 + 1 + 2 + 3 + 4 +

G|-----------------------------------------------------------------|
D|-----------------------------------------------------------------|
A|---------------------------------1-1-1-1-1-1-1---3-3-3-3-3-3-3-3-|
D|---0-0---0-0-0---0-0-0-0---0-0-0---------------------------------|
   1 + 2 + 3 + 4 + 1 + 2 + 3 + 4 + 1 + 2 + 3 + 4 + 1 + 2 + 3 + 4 +

4:10
G|-------------------------------------------------------------------------------------------------|
D|-------------------------------------------------5-5-5-5-----------------------------------5-----|
A|---------------------------------------------------------8-8-8-8-3-3-3-3-3-3-3-3-7-7-3-7---------|
D|-3-3-3-3---3-3-2---2-2-2-3-5---0---0-0---0-0-0-0-----------------------------------------------0-|
   1 + 2 + 3 + 4 + 1 + 2 + 3 + 4 + 1 + 2 + 3 + 4 + 1 + 2 + 3 + 4 + 1 + 2 + 3 + 4 + 1 + 2 + 3 + 4 +

G|-----------------------------------------------------------------|
D|-----------------------------------------------------------------|
A|---------------------------------1-1-1-1-1-1-1-1-3-3-3-3-3-3-3-3-|
D|---0-0---0-0-0---0-0-0-0---0-0-----------------------------------|
   1 + 2 + 3 + 4 + 1 + 2 + 3 + 4 + 1 + 2 + 3 + 4 + 1 + 2 + 3 + 4 +

4:23 Bridge
G|-------------------------------------------------------------------|
D|o-----------------5---------------------------5-------------------o|
A|o-----8---7-----------8---7---8-------8---7-------8---7---8---3---o|x4
D|--0-0---------0-0-----------------0-0------------------------------|
    1 + 2 + 3 + 4 + 1 + 2 + 3 + 4 + 1 + 2 + 3 + 4 + 1 + 2 + 3 + 4 +

Outro 4:43
G|-----------------------------------------------------------------|
D|-----------------------------------------------------------------|
A|-5---------------3-----------------------------------------------|
D|---------------------------------1-------------------------------|
   1 + 2 + 3 + 4 + 1 + 2 + 3 + 4 + 1 + 2 + 3 + 4 + 1 + 2 + 3 + 4 +

G|---------------------------------|
D|---------------------------------|
A|-----------------0-0-0-0-0-0-0-0-|
D|-3---3-3-3-3-3-3-----------------|
   1 + 2 + 3 + 4 + 1 + 2 + 3 + 4 + 

4:51
G|------------------------------------------------------------------|
D|o-----------------------------------------------------------------|
A|o-5-5-5-5-5-5-5-5-----------------3-3-3-3-3-3-3-3-----------------|
D|------------------2-2-2-2-2-2-2-2-----------------0-0-0-0-0-0-0-0-|
    1 + 2 + 3 + 4 + 1 + 2 + 3 + 4 + 1 + 2 + 3 + 4 + 1 + 2 + 3 + 4 +

G|------------------------------------------------------------------|
D|-----------------------------------------------------------------o|
A|-5-5-5-5-5-5-5-5-3-3-3-3-3-3-3-3-----------------4-4-4-4-4-4-4-4-o|
D|---------------------------------3-3-3-3-3-3-3-3------------------|
   1 + 2 + 3 + 4 + 1 + 2 + 3 + 4 + 1 + 2 + 3 + 4 + 1 + 2 + 3 + 4 +

5:12
G|-----------------------------------------------------------------|
D|-----------------------------------------------------------------|
A|---------------------------------3-------------3-3-3-3-3-3-3-3-3-|
D|-0---------------------------------------------------------------|
   1 + 2 + 3 + 4 + 1 + 2 + 3 + 4 + 1 + 2 + 3 + 4 + 1 + 2 + 3 + 4 +

G|-----------------------------------------------------------------|
D|-----------------------------------------------------------------|
A|-1-1-1-1-1-1-1-1-1-1-1-1-1-1-1-1-----------------4-4-4-4-4-4-4-4-|
D|---------------------------------3-3-3-3-3-3-3-3-----------------|
   1 + 2 + 3 + 4 + 1 + 2 + 3 + 4 + 1 + 2 + 3 + 4 + 1 + 2 + 3 + 4 +

G|-----------------------------------------------------------------|
D|-----------------------------------------------------------------|
A|---------------------------------3-3-3-3-3-3-3-3-3-3-3-3-3-3-3-3-|
D|-0-0-0-0-0-0-0-0-0-0-0-0-0-0-0-0---------------------------------|
   1 + 2 + 3 + 4 + 1 + 2 + 3 + 4 + 1 + 2 + 3 + 4 + 1 + 2 + 3 + 4 +

G|-----------------------------------------------------------------|
D|-----------------------------------------------------------------|
A|-1-1-1-1-1-1-1-1-1-1-1-1-1-1-1-1-----------------4-4-4-4-4-4-4---|
D|---------------------------------3-3-3-3-3-3-3-3---------------0-|
   1 + 2 + 3 + 4 + 1 + 2 + 3 + 4 + 1 + 2 + 3 + 4 + 1 + 2 + 3 + 4 +

G|-----------------------------------------------------------------|
D|-----------------------------------------------------------------|
A|-----------------------------------------------------------------|
D|-----0-0-0-0-0-0-0-0-0---0---0-------0-0-0-0-0-0-0-0-0---0---0---|
   1 e + a 2 e + a 3 e + a 4 e + a 1 e + a 2 e + a 3 e + a 4 e + a

G|-------------------------------------------------|
D|-------------------------------------------------|
A|-------------------------------------------------|
D|-----0-0-0-0-0-0-0-0-0---0---0-------0---0-------|
   1 e + a 2 e + a 3 e + a 4 e + a 1 e + a 2 e + a

--------------------------------------------------------------------------------------

Eternal Rest

G|o|-------------------------------------------------------------------|
D|-|o-----------------------------------------------------------------o|
A|-|o-3-33333---3-3-3-----------------3-33333---3-3-3-----------------o|
D|o|------------------1-3-3-1-1-3-1-3-----------------111-333-444-333--|
      1 + 2 + 3 + 4 + 1 + 2 + 3 + 4 + 1 + 2 + 3 + 4 + 1 + 2 + 3 + 4 +

G|-------------------------------------------------------------------|o|
D|o-----------------------------------------------------------------o|-|
A|o-5-55555---5-5-5-----------------5-55555---5-5-5-----------------o|-|
D|------------------3-5-5-3-3-5-3-5-----------------333-555-666-555--|o|
    1 + 2 + 3 + 4 + 1 + 2 + 3 + 4 + 1 + 2 + 3 + 4 + 1 + 2 + 3 + 4 +

0:39 Tempo Change
G|---------------------------------------------------------------------------------|
D|---------------------------------------------------------------------------------|
A|---------------------------------------------------------------------------------|
D|-0-------------------------------------------------------------------------------|
   1 + 2 + 3 + 4 + 1 + 2 + 3 + 4 + 1 + 2 + 3 + 4 + 1 + 2 + 3 + 4 + 1 + 2 + 3 + 4 + 

G|-----------------------------------------------------------------|
D|-----------------------------------------------------------------|
A|-----------------------------------------------------------------|
D|-0-0-0-0-0-0-0-0-0-0-0-0-0-0-0-0-0-0-0-0-0-0-0-0-0-0-0-0-0-0-6-5-|
   1 + 2 + 3 + 4 + 1 + 2 + 3 + 4 + 1 + 2 + 3 + 4 + 1 + 2 + 3 + 4 +

0:58
G|-------------------------------------------------------------------|
D|o-----------------------------------------------------------------o|
A|o-----------------------------------------------------------------o|
D|--3-0---0---0-3-0-3-0---0-3-0/6---3-0---0---0-3-0-3-0---0-3-0/6----|
    1 + 2 + 3 + 4 + 1 + 2 + 3 + 4 + 1 + 2 + 3 + 4 + 1 + 2 + 3 + 4 +

1:15
G|-------------------------------------------------------------------|
D|o-----------------------------------------------------------------o|
A|o-----------------------------------------------------------------o|x4
D|--0-0-0-0---------------------0-0-0-----------0-0-5-----3-----3h5--|
    1 e + a 2 e + a 3 e + a 4 e + a 1 e + a 2 e + a 3 e + a 4 e + a

1:31
G|-------------------------------------------------------------------|
D|o-----------------------------------------------------------------o|
A|o-----------------------------------------------------------------o|
D|--0-0-0-0---------------------0-0-0-----------0-0-0-----0-----0-0--|
    1 e + a 2 e + a 3 e + a 4 e + a 1 e + a 2 e + a 3 e + a 4 e + a

1:40
G|------------------------------------|
D|------------------------------------|
A|------------------------------------|
D|-0--0--0--0--0--0--0--0--0--0--0--0-|
   Triplet  Triplet  Triplet  Triplet

1:42
G|--------------------------------------------------|
D|o-------------------------------------------------|
A|o-----------------------------0---5-0-7-0-7-8-7-5-|
D|--000-000-------000-0-2-3-5-2---5-----------------|
    1 + 2 + 3 + 4 + 1 + 2 + 3 + 4 + 1 + 2 + 3 + 4 + 

G|--------------------------------------------------|-------------------------|
D|---------------------------------------5---5-3-2-o|-------------------------|
A|---------------------------5-3-5-7-5-7---7-------o|-------------------------|
D|-222-222-------222-2-3-5-2------------------------|-0-----------------------|
   1 + 2 + 3 + 4 + 1 + 2 + 3 + 4 + 1 + 2 + 3 + 4 +    1 + 2 + 3 + 4 + 1 + 2 + 

2:01
G|-------------------------------------------------|
D|-------------------------------------------------|
A|-------------------------------------------------|
D|-3-3-3-3-3-3-2-2-2-2-2-0-2-2-2-2-2-2-2-2-2-2-2-2-|
   1 + 2 + 3 + 1 + 2 + 3 + 1 + 2 + 3 + 1 + 2 + 3 + 

G|-------------------------------------------------|
D|-------------------------------------------------|
A|-------------0-0-0-0-0-0-------------------------|
D|-3-3-3-3-3-3-------------0-0-0-0-0-0-0-0-0-0-0-0-|
   1 + 2 + 3 + 1 + 2 + 3 + 1 + 2 + 3 + 1 + 2 + 3 + 

G|-------------------------------------------------|
D|-------------------------------------------------|
A|-------------------------------------------------|
D|-3-3-3-3-3-3-2-2-2-2-2-0-2-2-2-2-2-2-2-2-2-2-2-2-|
   1 + 2 + 3 + 1 + 2 + 3 + 1 + 2 + 3 + 1 + 2 + 3 + 

G|-------------------------------------------------------------------------------------------|
D|-------------------------7--8--7-----------7--8--7-----------7--8--7-----8-----------------|
A|-------------0-0-0-0-0-0----------10-8--7-----------10-8--7-----------10----10-8--10-8-7---|
D|-3-3-3-3-3-3-------------------------------------------------------------------------------|
   1 + 2 + 3 + 1 + 2 + 3 + Triplet  Triplet  Triplet  Triplet  Triplet  Triplet  Triplet 

2:22
G|-------------------------------------------------------------------|
D|o-----------------------------------------------------------------o|
A|o-----------------------------------------------------------------o|
D|--3-0---0---0-3-0-3-0---0-3-0/6---3-0---0---0-3-0-3-0---0-3-0/6----|
    1 + 2 + 3 + 4 + 1 + 2 + 3 + 4 + 1 + 2 + 3 + 4 + 1 + 2 + 3 + 4 +

2:39
G|-----------------------------------------------------------------|
D|-----------------------------------------------------------------|
A|-----------------------------------------------------------------|
D|-0---------------4---------------5---------------7---------------|
   1 + 2 + 3 + 4 + 1 + 2 + 3 + 4 + 1 + 2 + 3 + 4 + 1 + 2 + 3 + 4 +

G|-------------------------------------------------------------------------|
D|-------------------------------------------------------------------------|
A|-------------------------------------------------------------4-4-4-5-5-5-|
D|-0-------------023-------3-------8---------------8-8-8-7-7-7-------------|
   1 + 2 + 3 + 4 + 1 + 2 + 3 + 4 + 1 + 2 + 3 + 4 + Tri   Tri   Tri   Tri

G|-----------------------------------------------------------------|
D|-----------------------------------------------------------------|
A|-----------------------------------------------------------------|
D|-0-------0-------4---------------5---------------7---------------|
   1 + 2 + 3 + 4 + 1 + 2 + 3 + 4 + 1 + 2 + 3 + 4 + 1 + 2 + 3 + 4 +

G|-------------------------------------------------------------------------|
D|-------------------------------------------------------------------------|
A|-------------------------------------------------------------4-4-4-5-5-5-|
D|-0-------0-----023---------------8---------------8-8-8-7-7-7-------------|
   1 + 2 + 3 + 4 + 1 + 2 + 3 + 4 + 1 + 2 + 3 + 4 + Tri   Tri   Tri   Tri


3:12
G|-------------------------------------------------------------------|
D|o-----------------------------------------------------------------o|
A|o-----------------------------------------------------------------o|x4
D|--0-0-0-0---------------------0-0-0-----------0-0-5-----3-----3h5--|
    1 e + a 2 e + a 3 e + a 4 e + a 1 e + a 2 e + a 3 e + a 4 e + a

3:28
G|-------------------------------------------------------------------|
D|o-----------------------------------------------------------------o|
A|o-----------------------------------------------------------------o|x4
D|--0-0-0-0---------------------0-0-0-----------0-0-5-----3-----3h5--|
    1 e + a 2 e + a 3 e + a 4 e + a 1 e + a 2 e + a 3 e + a 4 e + a

G|------------------------------------------------------------------------------|
D|-7--8--7-----------7--8--7-----------7--8--7-----8----------------------------|
A|----------10-8--7-----------10-8--7-----------10----10-8--10-8--7-------------|
D|------------------------------------------------------------------------0-----|
   Triplet  Triplet  Triplet  Triplet  Triplet  Triplet  Triplet  Triplet


Outro 3:52
G|o|-------------------------------------------------------------------|
D|-|o-----------------------------------------------------------------o|
A|-|o-------/-5---3---1-------0-1-0-------------/-5---4-------5---7---o|
D|o|--0-----------------------------3-5--------------------------------|
      1 + 2 + 3 + 4 + 1 + 2 + 3 + 4 + 1 + 2 + 3 + 4 + 1 + 2 + 3 + 4 +

G|-----------------------------------------------------------------|
D|-----------------------------------------------------------------|
A|-----------------------------------------------5-4-------5---7---|
D|-0-7-8-5-7-3-5-2-3-----/-8---7---5-------------------------------|
   1 + 2 + 3 + 4 + 1 + 2 + 3 + 4 + 1 + 2 + 3 + 4 + 1 + 2 + 3 + 4 +

G|-----------------------------------------------------------------o|
D|------------------------------------------------------------------|
A|-------/-5---3---1-------0-1-0-------------/-5---4-------5---7----|
D|-0-----------------------------3-5-------------------------------o|
   1 + 2 + 3 + 4 + 1 + 2 + 3 + 4 + 1 + 2 + 3 + 4 + 1 + 2 + 3 + 4 +

G|-----------------------------------------------------------------|
D|-----------------------------------------------------------------|
A|-----------------------------------------------------------------|
D|-0---------------------------------------------------------------|
   1 + 2 + 3 + 4 + 1 + 2 + 3 + 4 + 1 + 2 + 3 + 4 + 1 + 2 + 3 + 4 +

-------------------------------------------------------------------------------------

Second Heartbeat

0:03
G|----------------------------------|
D|----------------------------------|
A|-33333333333333333333333333333333-|
D|----------------------------------|
   1 + 2 + 3 + 4 + 1 + 2 + 3 + 4 + 

G|-------------------------------------------------------------------------------------------------|
D|-------------------------------------------------------------------------------------------------|
A|-3---------------------------------------3---1---------------------------------------------------|
D|-------------------------------------------------6-----------------------3-----------5-----------|
   1 + 2 + 3 + 4 + 5 + 6 + 1 + 2 + 3 + 4 + 5 + 6 + 1 + 2 + 3 + 4 + 5 + 6 + 1 + 2 + 3 + 4 + 5 + 6 + 

G|-------------------------------------------------------------------------------------------------|
D|-------------------------------------------------------------------------------------------------|
A|-3-----------------------3---5---6---5---3---1---------------------------------------------------|
D|-------------------------------------------------6-----------------------3-----------5-----------|
   1 + 2 + 3 + 4 + 5 + 6 + 1 + 2 + 3 + 4 + 5 + 6 + 1 + 2 + 3 + 4 + 5 + 6 + 1 + 2 + 3 + 4 + 5 + 6 + 

0:21
G|------------------------------------------------------------------|
D|------------------------------------------------------------------|
A|-33333333333333333333333333333333---------------------------------|
D|---------------------------------66666666666666663333333355555555-|
   1 + 2 + 3 + 4 + 1 + 2 + 3 + 4 + 1 + 2 + 3 + 4 + 1 + 2 + 3 + 4 +

G|------------------------------------------------------------------|
D|------------------------------------------------------------------|
A|-33333333333333333335556655533311---------------------------------|
D|---------------------------------66666666666666663333333355555555-|
   1 + 2 + 3 + 4 + 1 + 2 + 3 + 4 + 1 + 2 + 3 + 4 + 1 + 2 + 3 + 4 +

G|---------------------------------|
D|---------------------------------|
A|-3-------------------------------|
D|---------------------------------|
   1 + 2 + 3 + 4 + 1 + 2 + 3 + 4 +

0:38
G|-------------------------------------------------------------------|
D|o-----------------------------------------------------------------o|
A|o-3-33-33-5-55-55-6-66-66-----------------------------------------o|
D|--------------------------5-55-55-6-66-66-6-66-66-5-55-55-5-55-55--|
    1 + 2 + 3 + 4 + 1 + 2 + 3 + 4 + 1 + 2 + 3 + 4 + 1 + 2 + 3 + 4 +

G|-----------------------------------------------------------------|
D|-----------------------------------------------------------------|
A|-3333----5555----6666--------------------------------------------|
D|-------------------------5555----6-66-66-6-66-66-5-55-55-5-55-55-|
   1 + 2 + 3 + 4 + 1 + 2 + 3 + 4 + 1 + 2 + 3 + 4 + 1 + 2 + 3 + 4 +

G|-----------------------------------------------------------------|
D|-----------------------------------------------------------------|
A|-3-33-33-5-55-55-6-66-66-----------------------------------------|
D|-------------------------5-55-55-6-66-66-6-66-66-5-55-55-5-55-55-|
   1 + 2 + 3 + 4 + 1 + 2 + 3 + 4 + 1 + 2 + 3 + 4 + 1 + 2 + 3 + 4 +

G|---------------------------------|
D|---------------------------------|
A|---------------------------------|
D|-1-1-1-1-1-1-1-1-0-0-0-0---------|
   1 + 2 + 3 + 4 + 1 + 2 + 3 + 4 +

1:02
G|-----------------------------------------------------------------|
D|-----------------6---6-6-6-6-----------------5---8---8---8---8---|
A|-3-----5-----6-------------------6-----8-------------------------|
D|-----------------------------------------------------------------|
   1 + 2 + 3 + 4 + 1 + 2 + 3 + 4 + 1 + 2 + 3 + 4 + 1 + 2 + 3 + 4 +

G|-----------------------------------------------------------------|
D|-----------------6---6-6-6-6-----------------5---8-8-8-8-8-8-8-8-|
A|-3-----5-----6-------------------6-----8-------------------------|
D|-----------------------------------------------------------------|
   1 + 2 + 3 + 4 + 1 + 2 + 3 + 4 + 1 + 2 + 3 + 4 + 1 + 2 + 3 + 4 +

1:11
G|-------------------------------------------------------------------|
D|o-----------------------------------------------------------------o|
A|o-3-3-3-3-3-3-3-3-----------------------------------1-1-1-1-1-1-1-o|
D|--------------------6-6-6-6-6-6-6-1-1-1-1-1-1-1-1------------------|
    1 + 2 + 3 + 4 + 1 + 2 + 3 + 4 + 1 + 2 + 3 + 4 + 1 + 2 + 3 + 4 +

G|-----------------------------------------------------------------|
D|-----------------------------------------------------------------|
A|-3---------------------------------------------------------------|
D|-----------------------------------------------------------------|
   1 + 2 + 3 + 4 + 1 + 2 + 3 + 4 + 1 + 2 + 3 + 4 + 1 + 2 + 3 + 4 +

1:27
G|-----------------------------------------------------------------|
D|-----------------------------------------------------------------|
A|-3---33333-------333333333---3---333333333---3-------------------|
D|-------------------------------------------------6---6---3---3---|
   1 + 2 + 3 + 4 + 1 + 2 + 3 + 4 + 1 + 2 + 3 + 4 + 1 + 2 + 3 + 4 +

G|-----------------------------------------------------------------|
D|-----------------------------------------------------------------|
A|-333333333-------333333333---3---333333333---3-------------------|
D|-------------------------------------------------6---6---3---3---|
   1 + 2 + 3 + 4 + 1 + 2 + 3 + 4 + 1 + 2 + 3 + 4 + 1 + 2 + 3 + 4 +

G|-----------------------------------------------------------------|
D|-----------------------------------------------------------------|
A|-333333333333333333333333333333333333333333333333----------------|
D|-------------------------------------------------6---6---3---3---|
   1 + 2 + 3 + 4 + 1 + 2 + 3 + 4 + 1 + 2 + 3 + 4 + 1 + 2 + 3 + 4 +

G|-----------------------------------------------------------------|
D|-----------------------------------------------------------------|
A|-333333333-------333333333---3---333333333---3-------------------|
D|-------------------------------------------------6---6---3---3---|
   1 + 2 + 3 + 4 + 1 + 2 + 3 + 4 + 1 + 2 + 3 + 4 + 1 + 2 + 3 + 4 +

G|---------------------------------|
D|---------------------------------|
A|-3-------------------------------|
D|-----------------------------10\-|
   1 + 2 + 3 + 4 + 1 + 2 + 3 + 4 +

1:51
G|-----------------------------------------------------------------|
D|-----------------------------------------------------------------|
A|-3-3-3-3---3-3---1-1-1-1---1-1-----------------1-1-1-1---1-1-1-1-|
D|---------------------------------6-6-6-6---6-6-------------------|
   1 + 2 + 3 + 4 + 1 + 2 + 3 + 4 + 1 + 2 + 3 + 4 + 1 + 2 + 3 + 4 +

G|-----------------------------------------------------------------|
D|-----------------------------------------------------------------|
A|-3-3-3-3---3-3-3-1-1-1-1---1-1-1-----------------1---1---1---1---|
D|---------------------------------6-6-6-6---6-6-6-----------------|
   1 + 2 + 3 + 4 + 1 + 2 + 3 + 4 + 1 + 2 + 3 + 4 + 1 + 2 + 3 + 4 +

2:01
G|-----------------------------------------------------------------|
D|-----------------------------------------------------------------|
A|-3-3-3-3---3-3-3-1-1-1-1---1-1-1-----------------1-1-1-1-1-1-1-1-|
D|---------------------------------6-6-6-6---6-6-6-----------------|
   1 + 2 + 3 + 4 + 1 + 2 + 3 + 4 + 1 + 2 + 3 + 4 + 1 + 2 + 3 + 4 +

G|-----------------------------------------------------------------|
D|-----------------------------------------------------------------|
A|-3-3-3-3---3-3-3-1-1-1-1---1-1-1---------------1-1-1-1-1---1-1-1-|
D|---------------------------------6-6-6-6---6-6-------------------|
   1 + 2 + 3 + 4 + 1 + 2 + 3 + 4 + 1 + 2 + 3 + 4 + 1 + 2 + 3 + 4 +

G|-------------------------------------------------------------------|
D|o-----------------------------------------------------------------o|
A|o-3-3-3-3---3-3-3-1-1-1-1---1-1-1---------------1-1-1-1-1-1-1-1-1-o|
D|----------------------------------6-6-6-6---6-6--------------------|
    1 + 2 + 3 + 4 + 1 + 2 + 3 + 4 + 1 + 2 + 3 + 4 + 1 + 2 + 3 + 4 +

2:22
G|------------------------------------------------------------------|
D|o-----------------5-5-3-3-----------------------------------------|
A|o-3-3-3-3-3-3-3-3---------6-6-5-5-1-1-1-1-1-1-1-1-5-5-6-6-8-8-6-6-|
D|------------------------------------------------------------------|
    1 + 2 + 3 + 4 + 1 + 2 + 3 + 4 + 1 + 2 + 3 + 4 + 1 + 2 + 3 + 4 +

G|------------------------------------------------------------------|
D|-------------------------------------------------5-3-------------o|x4
A|-----------------1-1-1-1-1-1-1-1-3-3-3-1-3-1-3-5-----6-5-6-5-3-1-o|
D|-1-1-1-1-1-1-1-1--------------------------------------------------|
   1 + 2 + 3 + 4 + 1 + 2 + 3 + 4 + 1 + 2 + 3 + 4 + 1 + 2 + 3 + 4 +

3:03
G|-----------------------------------------------------------------|
D|-----------------------------------------------------------------|
A|-3-------------------------------1-------------------------------|
D|-----------------------------------------------------------------|
   1 + 2 + 3 + 4 + 1 + 2 + 3 + 4 + 1 + 2 + 3 + 4 + 1 + 2 + 3 + 4 +

G|-----------------------------------------------------------------|
D|-----------------------------------------------------------------|
A|-------------------------------------------------1---------------|
D|-3---------------------------5---6-------------------------------|
   1 + 2 + 3 + 4 + 1 + 2 + 3 + 4 + 1 + 2 + 3 + 4 + 1 + 2 + 3 + 4 +

3:14
G|-------------------------------------------------------------------|
D|o-----------------------------------------------------------------o|
A|o-3---3-------------------------------------------1-1-----2-2-----o|x4
D|--------------0---1---0---1---3---5-5------------------------------|
    1 + 2 + 3 + 4 + 1 + 2 + 3 + 4 + 1 + 2 + 3 + 4 + 1 + 2 + 3 + 4 +

3:34
G|------------------------------------------------------------------|
D|o-----------------------------------------------------------------|
A|o-----------------------------------------------------------------|
D|--0-----------0---1---0---1---0---0---0---0-0-0-0-0-0-0-0-0-0-0-0-|
    1 + 2 + 3 + 4 + 1 + 2 + 3 + 4 + 1 + 2 + 3 + 4 + 1 + 2 + 3 + 4 +

G|------------------------------------------------------------------|
D|-----------------------------------------------------------------o|
A|-----------------------------------------------------------------o|
D|-0-----------0---1---0---1---0---0---0---0-0-0-0-3-3-3-3-2-2-2-2--|
   1 + 2 + 3 + 4 + 1 + 2 + 3 + 4 + 1 + 2 + 3 + 4 + 1 + 2 + 3 + 4 +

3:55
G|-----------------------------------------------------------------|
D|-----------------------------------------------------------------|
A|-----------------------------0---1---------------2---------------|
D|-0---------------0---2---3---------------------------------------|
   1 + 2 + 3 + 4 + 1 + 2 + 3 + 4 + 1 + 2 + 3 + 4 + 1 + 2 + 3 + 4 +

G|-------------------------------------------------------------------------------------------------|
D|-------------------------------------------------------------------------------------------------|
A|-3-----------------------------------------------------------------------------------------------|
D|-------------------------------------------------6-----------------------3-----------5-----------|
   1 + 2 + 3 + 4 + 5 + 6 + 1 + 2 + 3 + 4 + 5 + 6 + 1 + 2 + 3 + 4 + 5 + 6 + 1 + 2 + 3 + 4 + 5 + 6 + 

G|-------------------------------------------------------------------------------------------------|
D|-------------------------------------------------------------------------------------------------|
A|-3-----------------------3---5---6---5---3-------------------------------------------------------|
D|---------------------------------------------5---6-----------------------3-----------5-----------|
   1 + 2 + 3 + 4 + 5 + 6 + 1 + 2 + 3 + 4 + 5 + 6 + 1 + 2 + 3 + 4 + 5 + 6 + 1 + 2 + 3 + 4 + 5 + 6 + 

4:21
G|------------------------------------------------------------------|
D|o-----------------------------------------------------------------|
A|o-3-3-3-3-3-3-3-3-3-3-3-3-3-3-3-3-3-3-3-3-3-3-3-3-3-3-3-3-3-3-3-3-|
D|------------------------------------------------------------------|
    1 + 2 + 3 + 4 + 1 + 2 + 3 + 4 + 1 + 2 + 3 + 4 + 1 + 2 + 3 + 4 +

G|------------------------------------------------------------------|
D|-----------------------------------------------------------------o|
A|-----------------------------------------------------------------o|
D|-6-6-6-6-6-6-6-6-6-6-6-6-6-6-6-6-3-3-3-3-3-3-3-3-5-5-5-5-5-5-5-5--|
   1 + 2 + 3 + 4 + 1 + 2 + 3 + 4 + 1 + 2 + 3 + 4 + 1 + 2 + 3 + 4 +

G|-----------------------------------------------------------------|
D|-----------------------------------------------------------------|
A|-3---------------------------------------------------------------|
D|-----------------------------------------------------------------|
   1 + 2 + 3 + 4 + 1 + 2 + 3 + 4 + 1 + 2 + 3 + 4 + 1 + 2 + 3 + 4 +

4:47
G|------------------------------------------------------------------|
D|o-----------------5-5-3-3-----------------------------------------|
A|o-3-3-3-3-3-3-3-3---------6-6-5-5-1-1-1-1-1-1-1-1-5-5-6-6-8-8-6-6-|
D|------------------------------------------------------------------|
    1 + 2 + 3 + 4 + 1 + 2 + 3 + 4 + 1 + 2 + 3 + 4 + 1 + 2 + 3 + 4 +

G|------------------------------------------------------------------|
D|-------------------------------------------------5-3-------------o|
A|-----------------1-1-1-1-1-1-1-1-3-3-3-1-3-1-3-5-----6-5-6-5-3-1-o|
D|-1-1-1-1-1-1-1-1--------------------------------------------------|
   1 + 2 + 3 + 4 + 1 + 2 + 3 + 4 + 1 + 2 + 3 + 4 + 1 + 2 + 3 + 4 +

5:08 
G|-----------------------------------------------------------------|
D|-----------------------------------------------------------------|
A|-3-3-3-3-3-3-3-3-1-1-1-1-1-1-1-1-----------------1-1-1-1-1-1-1-1-|
D|---------------------------------6-6-6-6---6-6-6-----------------|
   1 + 2 + 3 + 4 + 1 + 2 + 3 + 4 + 1 + 2 + 3 + 4 + 1 + 2 + 3 + 4 +

G|-----------------------------------------------------------------|
D|-----------------------------------------------------------------|
A|-3-----3---3-3-3-1-1-1-1---1-1-1-----------------1-1-1-1-1-1-1-1-|
D|---------------------------------6-6-6-6-6-6-6-6-----------------|
   1 + 2 + 3 + 4 + 1 + 2 + 3 + 4 + 1 + 2 + 3 + 4 + 1 + 2 + 3 + 4 +

G|-----------------------------------------------------------------|
D|-----------------------------------------------------------------|
A|-3-----3---3-3-3-1-1-1-1-1-1-1-1-----------------1-1-1-1-1-1-1-1-|
D|---------------------------------6-6-6-6-6-6-6-6-----------------|
   1 + 2 + 3 + 4 + 1 + 2 + 3 + 4 + 1 + 2 + 3 + 4 + 1 + 2 + 3 + 4 +


G|-----------------------------------------------------------------|
D|-----------------------------------------------------------------|
A|-3-----3---3-3-3-1-1-1-1-1-1-1-1-----------------1---1---1---1---|
D|---------------------------------6---6---6---6-------------------|
   1 + 2 + 3 + 4 + 1 + 2 + 3 + 4 + 1 + 2 + 3 + 4 + 1 + 2 + 3 + 4 +

5:29
G|------------------------------------------------------------------|
D|o-----------------5-5-3-3-----------------------------------------|
A|o-3-3-3-3-3-3-3-3---------6-6-5-5-1-1-1-1-1-1-1-1-5-5-6-6-8-8-6-6-|
D|------------------------------------------------------------------|
    1 + 2 + 3 + 4 + 1 + 2 + 3 + 4 + 1 + 2 + 3 + 4 + 1 + 2 + 3 + 4 +

G|------------------------------------------------------------------|
D|-------------------------------------------------5-3-------------o|
A|-----------------1-1-1-1-1-1-1-1-3-3-3-1-3-1-3-5-----6-5-6-5-3-1-o|x4
D|-1-1-1-1-1-1-1-1--------------------------------------------------|
   1 + 2 + 3 + 4 + 1 + 2 + 3 + 4 + 1 + 2 + 3 + 4 + 1 + 2 + 3 + 4 +

6:10
G|-----------------------------------------------------------------|
D|-----------------------------------------------------------------|
A|-3-3-3-3-3-3-3-3-3-3-3-3-3-3-3-3-1-1-1-1-1-1-1-1-1-1-1-1-1-1-1-1-|
D|-----------------------------------------------------------------|
   1 + 2 + 3 + 4 + 1 + 2 + 3 + 4 + 1 + 2 + 3 + 4 + 1 + 2 + 3 + 4 +

G|-----------------------------------------------------------------|
D|-----------------------------------------------------------------|
A|-----------------1-1-1-1-1-1-1-1-3-3-3-3-3-3-3-3-3-3-3-3-3-3-3-3-|
D|-1-1-1-1-1-1-1-1-------------------------------------------------|
   1 + 2 + 3 + 4 + 1 + 2 + 3 + 4 + 1 + 2 + 3 + 4 + 1 + 2 + 3 + 4 +

G|-----------------------------------------------------------------|
D|-----------------------------------------------------------------|
A|-3-3-3-3-3-3-3-3-3-3-3-3-3-3-3-3-1-1-1-1-1-1-1-1-1-1-1-1-1-1-1-1-|
D|-----------------------------------------------------------------|
   1 + 2 + 3 + 4 + 1 + 2 + 3 + 4 + 1 + 2 + 3 + 4 + 1 + 2 + 3 + 4 +

G|-----------------------------------------------------------------|
D|-----------------------------------------------------------------|
A|-----------------1-1-1-1-1-1-1-1-3---3---3---3---3---3---3---3---|
D|-1-1-1-1-1-1-1-1-------------------------------------------------|
   1 + 2 + 3 + 4 + 1 + 2 + 3 + 4 + 1 + 2 + 3 + 4 + 1 + 2 + 3 + 4 +

6:32
G|-----------------------------------------------------------------|
D|-----------------------------------------------------------------|
A|-3---3---3---3---3---3---3---3---1---1---1---1---1---1---1---1---|
D|-----------------------------------------------------------------|
   1 + 2 + 3 + 4 + 1 + 2 + 3 + 4 + 1 + 2 + 3 + 4 + 1 + 2 + 3 + 4 +

G|-----------------------------------------------------------------|
D|-----------------------------------------------------------------|
A|-----------------1---1---1---1---3--3--3-3--3--3-3--3--3-3--3--3-|
D|-1---1---1---1---------------------------------------------------|
   1 + 2 + 3 + 4 + 1 + 2 + 3 + 4 + Triplet Triplet Triplet Triplet

G|-----------------------------------------------------------------|
D|-----------------------------------------------------------------|
A|-3---3---3---3---3---3---3---3---1---1---1---1---1---1---1---1---|
D|-----------------------------------------------------------------|
   1 + 2 + 3 + 4 + 1 + 2 + 3 + 4 + 1 + 2 + 3 + 4 + 1 + 2 + 3 + 4 +

G|-----------------------------------------------------------------|
D|-----------------------------------------------------------------|
A|-----------------1---------------3-------------------------------|
D|-1---------------------------------------------------------------|
   1 + 2 + 3 + 4 + 1 + 2 + 3 + 4 + 1 + 2 + 3 + 4 + 1 + 2 + 3 + 4 +

--------------------------------------------------------------------------------------

Radiant Eclipse - Originally drop C tuned to Drop D with a B string

0:15
G|-------------------------------------------------------------------|
D|o-----------------------------------------------------------------o|
A|-------------------------------------------------------------------|
D|o-----------------------------------------------------------------o|
B|--1-1-1-------------------------------1-1-1-----------1-1-1-2------|
    1 + 2 + 3 + 4 + 1 + 2 + 3 + 4 + 1 + 2 + 3 + 4 + 1 + 2 + 3 + 4 +

G|-----------------------------------------------------------------|
D|-----------------------------------------------------------------|
A|-----------------------------------------------------------------|
D|-----------------------------------------------------------------|
B|-1-1-1---1---------------------------1-1-1-----------1-1-1-2-----|
   1 + 2 + 3 + 4 + 1 + 2 + 3 + 4 + 1 + 2 + 3 + 4 + 1 + 2 + 3 + 4 +

G|-----------------------------------------------------------------|
D|-----------------------------------------------------------------|
A|-----------------------------------------------------------------|
D|-----------------------------------------------------------------|
B|-1-1-1-------------------------------1-1-1-----------1-1-1-1-2---|
   1 + 2 + 3 + 4 + 1 + 2 + 3 + 4 + 1 + 2 + 3 + 4 + 1 + 2 + 3 + 4 +

0:46
G|-------------------------------------------------------------------|
D|o-----------------------------------------------------------------o|
A|-------------------------------------------------------------------|x7
D|o-----------------------------------------------------------------o|
B|--1-1-1---1---1---1---1---1-1-1---1-1-1---1---1---2-2-2-2-2-2-2-2--|
    1 e + a 2 e + a 3 e + a 4 e + a 1 e + a 2 e + a 3 e + a 4 e + a 

G|-----------------------------------------------------------------|
D|-----------------------------------------------------------------|
A|-----------------------------------------------------------------|
D|-----------------------------------------------------------------|
B|-1-1-1---1---1---1---1---1---1---1---1---1---1---2-2-2-2-2-2-2-2-|
   1 e + a 2 e + a 3 e + a 4 e + a 1 e + a 2 e + a 3 e + a 4 e + a 

1:16
G|--------------------------------------------------------------(x4)-|
D|o-----------------------------------------------------------------o|
A|-------------------------------------------------------------------|
D|o-----------------------------------------------------------------o|
B|--1-1-1-------------------1-1-1---1-1-1-----------2-2-2-2-2-2-2-2--|
    1 e + a 2 e + a 3 e + a 4 e + a 1 e + a 2 e + a 3 e + a 4 e + a    

Verse 1:32
G|-----------------------------------------------------------------|
D|-----------------------------------------------------------------|
A|-----------------------------------------------------------------|
D|-------------------------------------------------3-----4-----5---|
B|-1-------------------------------1-----4-----1-------------------|
   1 e + a 2 e + a 3 e + a 4 e + a Tri   pl    et  Tri   pl    et  

G|-------------------------------------------------------------------|
D|o-----------------------------------------------------------------o|
A|-------------------------------------------------------------------|x7
D|o-------------------------------------------------3-----4-----5---o|
B|--1---1-1-1-1---------1-1-1-1-----1-----4-----1--------------------|
    1 e + a 2 e + a 3 e + a 4 e + a Tri   pl    et  Tri   pl    et  

Interlude 2:02
G|-------------------------------------------------------------------|
D|o-----------------------------------------------------------------o|
A|--------5-5-5-5-5-1-1-1-3-3-3-3-3-------2-2-2-2-2-3-3-3-5-5-5-5-5--|
D|o---------------------------------6-6-6---------------------------o|
B|--1-1-1------------------------------------------------------------|
    1 + 2 + 3 + 4 + 1 + 2 + 3 + 4 + 1 + 2 + 3 + 4 + 1 + 2 + 3 + 4 +

Verse 2:18
G|-------------------------------------------------------------------|
D|o-----------------------------------------------------------------o|
A|-------------------------------------------------------------------|x4
D|o---------------------------------------------------------3-------o|
B|--4---1-1---1-1-----------------------1-1-1-1-1-1-4---1-1-----1-1--|
    1 e + a 2 e + a 3 e + a 4 e + a 1 e + a 2 e + a 3 e + a 4 e + a 

2:32
G|-------------------------------------------------------------------|
D|o-----------------------------------------------------------------o|
A|-------------------------------------------------------------------|
D|o-----------------------------------------------------3-------4---o|
B|--4---1-1---1-1-----------------------1---1-1-4--------------------|
    1 e + a 2 e + a 3 e + a 4 e + a 1 e + a 2 e + a 3 e + a 4 e + a 

2:40
G|-----------------------------------------------------------------|
D|-----------------------------------------------------------------|
A|-----------------------------------------------------------------|
D|-----------------------------------------------------------------|
B|-1-1-1---1---1---1---1---1-1-1-----------------------------------|
   1 e + a 2 e + a 3 e + a 4 e + a 1 e + a 2 e + a 3 e + a 4 e + a 

2:44
G|-------------------------------------------------------------------|
D|o-----------------------------------------------------------------o|
A|-------------------------------------------------------------------|x4
D|o-------------------------------------------------3-----4-----5---o|
B|--1---1-1-1-1---------1-1-1-1-----1-----4-----1--------------------|
    1 e + a 2 e + a 3 e + a 4 e + a Tri   pl    et  Tri   pl    et  

Pre Chorus 3:00
G|-----------------------------------------------------------------|
D|-----------------------------------------------------------------|
A|-3---6-------5---------------------------------------------------|
D|---------------------5-------6-------------------6---6-6-6-6-----|
B|-----------------------------------------------------------------|
   1 e + a 2 e + a 3 e + a 4 e + a 1 e + a 2 e + a 3 e + a 4 e + a 

G|-----------------------------------------------------------------|
D|-----------------------------------------------------------------|
A|-3---6-------5---------------------------------------------------|
D|---------------------5-------6-------6---6-----6-6---6-6-6-6-----|
B|-----------------------------------------------------------------|
   1 e + a 2 e + a 3 e + a 4 e + a 1 e + a 2 e + a 3 e + a 4 e + a 

G|-----------------------------------------------------------------|
D|-----------------------------------------------------------------|
A|-3---6-------5---------------------------------------------------|
D|---------------------5-------6-------6---6-------6---6-6-6-6-----|
B|-----------------------------------------------------------------|
   1 e + a 2 e + a 3 e + a 4 e + a 1 e + a 2 e + a 3 e + a 4 e + a 

G|-----------------------------------------------------------------|
D|-----------------------------------------------------------------|
A|-3---6-------5---------------------------------------------------|
D|---------------------5-------6-------6---6---6---6---6---6---6---|
B|-----------------------------------------------------------------|
   1 e + a 2 e + a 3 e + a 4 e + a 1 e + a 2 e + a 3 e + a 4 e + a 

Chorus 3:15
G|-----------------------------------------------------------------|
D|-----------------------------------------------------------------|
A|-3-3-3-3-3-3-3-3-----------------1-1-1-1-1-1-1-1-----------------|
D|-----------------3-3-3-3-3-3-3-3-----------------3-3-3-3-3-3-3-3-|
B|-----------------------------------------------------------------|
   1 + 2 + 3 + 4 + 1 + 2 + 3 + 4 + 1 + 2 + 3 + 4 + 1 + 2 + 3 + 4 +

G|-----------------------------------------------------------------|
D|-----------------------------------------------------------------|
A|-3-3-3-3-3-3-3-3-----------------1-1-1-1-1-1-1-1-----------------|
D|-----------------3-3-3-3-3-3-3-3-----------------3-3-3-3-3-3-3-5-|
B|-----------------------------------------------------------------|
   1 + 2 + 3 + 4 + 1 + 2 + 3 + 4 + 1 + 2 + 3 + 4 + 1 + 2 + 3 + 4 +

G|-----------------------------------------------------------------|
D|-----------------------------------------------------------------|
A|-3-3-3-3-3-3-3-3-----------------1-1-1-1-1-1-1-1/8-8-8-8-8-8-8-8-|
D|-----------------3-3-3-3-3-3-3-3---------------------------------|
B|-----------------------------------------------------------------|
   1 + 2 + 3 + 4 + 1 + 2 + 3 + 4 + 1 + 2 + 3 + 4 + 1 + 2 + 3 + 4 +

G|-----------------------------------------------------------------|
D|-----------------------------------------------------------------|
A|-3-3-3-3-3-3-3-3-----------------1-1-1-1-1-1-1-1-----------------|
D|-----------------3-3-3-3-3-3-3-3-----------------3-3-3-3-3-3-3-3-|
B|-----------------------------------------------------------------|
   1 + 2 + 3 + 4 + 1 + 2 + 3 + 4 + 1 + 2 + 3 + 4 + 1 + 2 + 3 + 4 +

Bridge 3:46
G|-------------------------------------------------------------------|
D|o-----------------------------------------------------------------o|
A|-------------------------------------------------------------------|x4
D|o---4-3---------4-3-----------------4-3---------4-3---------------o|
B|--1-----1-4-5-1-----1-6-5-1-4-1---1-----1-4-5-1-----1-6-5-1-4-1----|
    1 + 2 + 3 + 4 + 1 + 2 + 3 + 4 + 1 + 2 + 3 + 4 + 1 + 2 + 3 + 4 +

Verse 4:17
G|-------------------------------------------------------------------|
D|o-----------------------------------------------------------------o|
A|-------------------------------------------------------------------|x4
D|o---------------------------------------------------------3-------o|
B|--4---1-1---1-1-----------------------1-1-1-1-1-1-4---1-1-----1-1--|
    1 e + a 2 e + a 3 e + a 4 e + a 1 e + a 2 e + a 3 e + a 4 e + a 

4:32
G|-------------------------------------------------------------------|
D|o-----------------------------------------------------------------o|
A|-------------------------------------------------------------------|x4
D|o-----------------------------------------------------3-------4---o|
B|--4---1-1---1-1-----------------------1---1-1-4--------------------|
    1 e + a 2 e + a 3 e + a 4 e + a 1 e + a 2 e + a 3 e + a 4 e + a 

Pre Chorus 4:47
G|-----------------------------------------------------------------|
D|-----------------------------------------------------------------|
A|-3---6-------5---------------------------------------------------|
D|---------------------5-------6-------6---6-------6---6-6-6-6-----|
B|-----------------------------------------------------------------|
   1 e + a 2 e + a 3 e + a 4 e + a 1 e + a 2 e + a 3 e + a 4 e + a 

G|-----------------------------------------------------------------|
D|-----------------------------------------------------------------|
A|-3---6-------5-------------------------------------------6---8---|
D|---------------------5-------6-------6---6-----6-6---6-6---------|
B|-----------------------------------------------------------------|
   1 e + a 2 e + a 3 e + a 4 e + a 1 e + a 2 e + a 3 e + a 4 e + a 

G|-----------------------------------------------------------------|
D|-----------------------------------------------------------------|
A|-3---6-------5---------------------------------------------------|
D|---------------------5-------6-------6---6-------6---6-6-6-6-----|
B|-----------------------------------------------------------------|
   1 e + a 2 e + a 3 e + a 4 e + a 1 e + a 2 e + a 3 e + a 4 e + a 

G|-----------------------------------------------------------------|
D|-----------------------------------------------------------------|
A|-3---6-------5---------------------------------------------------|
D|---------------------5-------6-------6---6---6---6---6---6---6---|
B|-----------------------------------------------------------------|
   1 e + a 2 e + a 3 e + a 4 e + a 1 e + a 2 e + a 3 e + a 4 e + a 

Chorus 5:02
G|-----------------------------------------------------------------|
D|-----------------------------------------------------------------|
A|-3-3-3-3-3-3-3-3-----------------1-1-1-1-1-1-1-1-----------------|
D|-----------------3-3-3-3-3-3-3-3-----------------3-3-3-3-3-3-3-3-|
B|-----------------------------------------------------------------|
   1 + 2 + 3 + 4 + 1 + 2 + 3 + 4 + 1 + 2 + 3 + 4 + 1 + 2 + 3 + 4 +

G|-----------------------------------------------------------------|
D|-----------------------------------------------------------------|
A|-3-3-3-3-3-3-3-3-----------------1-1-1-1-1-1-1-1-----------------|
D|-----------------3-3-3-3-3-3-3-3-----------------3-3-3-3-3-3-3-5-|
B|-----------------------------------------------------------------|
   1 + 2 + 3 + 4 + 1 + 2 + 3 + 4 + 1 + 2 + 3 + 4 + 1 + 2 + 3 + 4 +

G|-----------------------------------------------------------------|
D|-----------------------------------------------------------------|
A|-3-3-3-3-3-3-3-3-----------------1-1-1-1-1-1-1-1/8-8-8-8-8-8-8-8-|
D|-----------------3-3-3-3-3-3-3-3---------------------------------|
B|-----------------------------------------------------------------|
   1 + 2 + 3 + 4 + 1 + 2 + 3 + 4 + 1 + 2 + 3 + 4 + 1 + 2 + 3 + 4 +

G|-----------------------------------------------------------------|
D|-----------------------------------------------------------------|
A|-3-3-3-3-3-3-3-3-----------------1-1-1-1-1-1-1-1-----------------|
D|-----------------3-3-3-3-3-3-3-3-----------------3-3-3-3-3-3-3-3-|
B|-----------------------------------------------------------------|
   1 + 2 + 3 + 4 + 1 + 2 + 3 + 4 + 1 + 2 + 3 + 4 + 1 + 2 + 3 + 4 +

Outro 5:33
G|-----------------------------------------------------------------|
D|-----------------------------------------------------------------|
A|-3-3-3-3-3-3-3-3-----------------1-1-1-1-1-1-1-1-----------------|
D|-----------------3-3-3-3-3-3-3-3-----------------3-3-3-3-3-3-3-3-|
B|-----------------------------------------------------------------|
   1 + 2 + 3 + 4 + 1 + 2 + 3 + 4 + 1 + 2 + 3 + 4 + 1 + 2 + 3 + 4 +

G|-----------------------------------------------------------------|
D|-----------------------------------------------------------------|
A|-3-3-3-3-3-3-3-3-----------------1-1-1-1-1-1-1-1-----------------|
D|-----------------3-3-3-3-3-3-3-3-----------------3-3-3-3-3-3-3-5-|
B|-----------------------------------------------------------------|
   1 + 2 + 3 + 4 + 1 + 2 + 3 + 4 + 1 + 2 + 3 + 4 + 1 + 2 + 3 + 4 +

G|-----------------------------------------------------------------|
D|-----------------------------------------------------------------|
A|-3---------------------------------------------------------------|
D|-----------------------------------------------------------------|
B|-----------------------------------------------------------------|
   1 + 2 + 3 + 4 + 1 + 2 + 3 + 4 + 1 + 2 + 3 + 4 + 1 + 2 + 3 + 4 +

--------------------------------------------------------------------------------------

I Won't See You Tonight Part 1

Intro 0:31
G|-----------------------------------------------------------------|
D|-----------------------------------------------------------------|
A|-----------------------------------------------------------------|
D|-5-5-5-5-5-5-5-5-5-5-5-5-5-5-5-5-1-1-1-1-1-1-1-1-1-1-1-1-1-1-1-1-|
   1 + 2 + 3 + 4 + 1 + 2 + 3 + 4 + 1 + 2 + 3 + 4 + 1 + 2 + 3 + 4 +

G|-----------------------------------------------------------------|
D|-----------------------------------------------------------------|
A|-----------------------------------------------------------------|
D|-3-3-3-3-3-3-3-3-3-3-3-3-3-3-3-3-0-0-0-0-0-0-0-0-0-0-0-0-0-0-0-0-|
   1 + 2 + 3 + 4 + 1 + 2 + 3 + 4 + 1 + 2 + 3 + 4 + 1 + 2 + 3 + 4 +

G|-----------------------------------------------------------------|
D|-----------------------------------------------------------------|
A|---------------------------------1-1-1-1-1-1-1-1-----------------|
D|-1-1-1-1-1-1-1-1-1-1-1-1-1-1-1-1-----------------3-3-3-3-3-3-3-3-|
   1 + 2 + 3 + 4 + 1 + 2 + 3 + 4 + 1 + 2 + 3 + 4 + 1 + 2 + 3 + 4 +

G|-----------------------------------------------------------------|
D|-----------------------------------------------------------------|
A|-----------------------------------------------------------------|
D|-5-5-5-5-5-5-5-5-5-5-5-5-5-5-5-5-1-1-1-1-1-1-1-1-1-1-1-1-1-1-1-1-|
   1 + 2 + 3 + 4 + 1 + 2 + 3 + 4 + 1 + 2 + 3 + 4 + 1 + 2 + 3 + 4 +

G|-----------------------------------------------------------------|
D|-----------------------------------------------------------------|
A|-----------------------------------------------------------------|
D|-3-3-3-3-3-3-3-3-3-3-3-3-3-3-3-3-0-0-0-0-0-0-0-0-0-1-1-1-1-3-3-3-|
   1 + 2 + 3 + 4 + 1 + 2 + 3 + 4 + 1 + 2 + 3 + 4 + 1 + 2 + 3 + 4 +

1:08
G|-----------------------777-----------------------------555-------|
D|---------------------------5-5-----------------3-3---------3-5-3-|
A|-------------------------------5-------3-3-----------------------|
D|-5-\-----0-----5-5---------------3-------------------------------|
   1 + 2 + 3 + 4 + 1 + 2 + 3 + 4 + 1 + 2 + 3 + 4 + 1 + 2 + 3 + 4 +

G|-------------------------------------------------------------------------------------------------|
D|---------------1-1-----113p1-0h1---------------------1-------3-----------------------------------|
A|-------1-1-----------------------------0-5---------1---1---3---3---------------------------------|
D|-1-------------------------------0---------------1-------3-------5-------------------------------|
   1 + 2 + 3 + 4 + 1 + 2 + 3 + 4 + 1 + 2 + 3 + 4 + 1 + 2 + 3 + 4 + 1 + 2 + 3 + 4 + 1 + 2 + 3 + 4 +

Verse 1:25
G|-----------------------777-----------------------------555-------|
D|-5-5-5---------5-5---------5-5-----------------3-3---------3-5-3-|
A|-------5-5---------------------5-------3-3-----------------------|
D|---------------------------------3-3-3---------------------------|
   1 + 2 + 3 + 4 + 1 + 2 + 3 + 4 + 1 + 2 + 3 + 4 + 1 + 2 + 3 + 4 +

G|-----------------------------------------------------------------|
D|---------------1-1-1-1-113p1-0h1---------------------1-------3---|
A|-------1-1-----------------------------0-5---------1---1---3---3-|
D|-1-1-1---------------------------0-0-0-----------1-------3-------|
   1 + 2 + 3 + 4 + 1 + 2 + 3 + 4 + 1 + 2 + 3 + 4 + 1 + 2 + 3 + 4 + 

G|-----------------------777-----------------------------555-------|
D|-5-------------5-5---------5-5-----------------3-3---------3-5-3-|
A|-------5-5---------------------5-------3-3-----------------------|
D|---------------------------------3-3-3---------------------------|
   1 + 2 + 3 + 4 + 1 + 2 + 3 + 4 + 1 + 2 + 3 + 4 + 1 + 2 + 3 + 4 +

G|-----------------------------------------------------------------|
D|---------------1-1-1-1-113p1-0h1---------------------1-------3---|
A|-------1-1-----------------------------0-5-5-5-5---1---1---3---3-|
D|-1-1-1---------------------------0-0-0-----------1-------3-------|
   1 + 2 + 3 + 4 + 1 + 2 + 3 + 4 + 1 + 2 + 3 + 4 + 1 + 2 + 3 + 4 + 

Chorus 1:56
G|-----------------------------------------------------------------|
D|-----------------------------------------------------------------|
A|-----------------------------------------------------------------|
D|-5-5---5-5-5---5-5-5---5-5-5---5-1-1---1-1-1---1-1-1-1-1-1-1---1-|
   1 + 2 + 3 + 4 + 1 + 2 + 3 + 4 + 1 + 2 + 3 + 4 + 1 + 2 + 3 + 4 +

G|-----------------------------------------------------------------|
D|-----------------------------------------------------------------|
A|-1-1---1-1-1---1-1-1-1-1-1-1---1---------------------------------|
D|---------------------------------3---------------4---------------|
   1 + 2 + 3 + 4 + 1 + 2 + 3 + 4 + 1 + 2 + 3 + 4 + 1 + 2 + 3 + 4 +

Verse 2:10
G|-----------------------777-----------------------------555-------|
D|-5-5-5---------5-5---------5-5-----------------3-3---------3-5-3-|
A|-------5-5---------------------5-------3-3-----------------------|
D|---------------------------------3-3-3---------------------------|
   1 + 2 + 3 + 4 + 1 + 2 + 3 + 4 + 1 + 2 + 3 + 4 + 1 + 2 + 3 + 4 +

G|-----------------------------------------------------------------|
D|---------------1-1-1-1-113p1-0h1---------------------1-------3---|
A|-------1-1-----------------------------0-5---------1---1---3---3-|
D|-1-1-1---------------------------0-0-0-----------1-------3-------|
   1 + 2 + 3 + 4 + 1 + 2 + 3 + 4 + 1 + 2 + 3 + 4 + 1 + 2 + 3 + 4 + 

G|-----------------------777-----------------------------555-------|
D|-5-------------5-5---------5-5-----------------3-3---------3-5-3-|
A|-------5-5---------------------5-------3-3-----------------------|
D|---------------------------------3-3-3---------------------------|
   1 + 2 + 3 + 4 + 1 + 2 + 3 + 4 + 1 + 2 + 3 + 4 + 1 + 2 + 3 + 4 +

G|-----------------------------------------------------------------|
D|---------------1-1-1-1-113p1-0h1---------------------1-------3---|
A|-------1-1-----------------------------0-5-5-5-5---1---1---3---3-|
D|-1-1-1---------------------------0-0-0-----------1-------3-------|
   1 + 2 + 3 + 4 + 1 + 2 + 3 + 4 + 1 + 2 + 3 + 4 + 1 + 2 + 3 + 4 + 

Chorus 2:40
G|-----------------------------------------------------------------|
D|-----------------------------------------------------------------|
A|-----------------------------------------------------------------|
D|-5-5---5-5-5---5-5-5---5-5-5---5-1-1---1-1-1---1-1-1-1-1-1-1---1-|
   1 + 2 + 3 + 4 + 1 + 2 + 3 + 4 + 1 + 2 + 3 + 4 + 1 + 2 + 3 + 4 +

G|-----------------------------------------------------------------|
D|-----------------------------------------------------------------|
A|-1-1---1-1-1---1-1-1---1-1-1---1---------------------------------|
D|---------------------------------3-3---3-3-3---3-4-4---4-4-4---4-|
   1 + 2 + 3 + 4 + 1 + 2 + 3 + 4 + 1 + 2 + 3 + 4 + 1 + 2 + 3 + 4 +

G|-----------------------------------------------------------------|
D|-----------------------------------------------------------------|
A|-----------------------------------------------------------------|
D|-5-5---5-5-5---5-5-5---5-5-5---5-1-1---1-1-1---1-1-1---1-1-1---1-|
   1 + 2 + 3 + 4 + 1 + 2 + 3 + 4 + 1 + 2 + 3 + 4 + 1 + 2 + 3 + 4 +

G|-----------------------------------------------------------------|
D|-----------------------------------------------------------------|
A|-1-1---1-1-1---1-1-1-1-1-1-1---1---------------------------------|
D|---------------------------------3-3---3-3-3---3-4-4---4-4-4---4-|
   1 + 2 + 3 + 4 + 1 + 2 + 3 + 4 + 1 + 2 + 3 + 4 + 1 + 2 + 3 + 4 +

Solo 3:09
G|-----------------------------------------------------------------|
D|-----------------------------------------------------------------|
A|-----------------------------------------------------------------|
D|-5-5-5-5-5-5-5-5-5-5-5-5-5-5-5-5-1-1-1-1-1-1-1-1-1-1-1-1-1-1-1-1-|
   1 + 2 + 3 + 4 + 1 + 2 + 3 + 4 + 1 + 2 + 3 + 4 + 1 + 2 + 3 + 4 +

G|-----------------------------------------------------------------|
D|-----------------------------------------------------------------|
A|-----------------------------------------------------------------|
D|-3-3-3-3-3-3-3-3-3-3-3-3-3-3-3-3-0-0-0-0-0-0-0-0-0-0-0-0-0-0-0-0-|
   1 + 2 + 3 + 4 + 1 + 2 + 3 + 4 + 1 + 2 + 3 + 4 + 1 + 2 + 3 + 4 +

G|-----------------------------------------------------------------|
D|-----------------------------------------------------------------|
A|---------------------------------1-1-1-1-1-1-1-1-----------------|
D|-1-1-1-1-1-1-1-1-1-1-1-1-1-1-1-1-----------------3-3-3-3-3-3-3-3-|
   1 + 2 + 3 + 4 + 1 + 2 + 3 + 4 + 1 + 2 + 3 + 4 + 1 + 2 + 3 + 4 +

G|-----------------------------------------------------------------|
D|-----------------------------------------------------------------|
A|-----------------------------------------------------------------|
D|-5-5-5-5-5-5-5-5-5-5-5-5-5-5-5-5-1-1-1-1-1-1-1-1-1-1-1-1-1-1-1-1-|
   1 + 2 + 3 + 4 + 1 + 2 + 3 + 4 + 1 + 2 + 3 + 4 + 1 + 2 + 3 + 4 +

G|-----------------------------------------------------------------|
D|-----------------------------------------------------------------|
A|-----------------------------------------------------------------|
D|-3-3-3-3-3-3-3-3-3-3-3-3-3-3-3-3-0-0-0-0-0-0-0-0-0-1-1-1-1-3-3-3-|
   1 + 2 + 3 + 4 + 1 + 2 + 3 + 4 + 1 + 2 + 3 + 4 + 1 + 2 + 3 + 4 +

Chorus  3:46
G|------------------------------------------------------------------|
D|o-----------------------------------------------------------------|
A|o-----------------------------------------------------------------|
D|--5-5-5-5-5-5-5-5-5-5-5-5-5-5-5-5-3-3-3-3-3-3-3-3-3-3-3-3-3-3-3-3-|
    1 + 2 + 3 + 4 + 1 + 2 + 3 + 4 + 1 + 2 + 3 + 4 + 1 + 2 + 3 + 4 +

G|------------------------------------------------------------------|
D|-----------------------------------------------------------------o|
A|-----------------------------------------------------------------o|
D|-1-1-1-1-1-1-1-1-1-1-1-1-1-1-1-1-0-0-0-0-0-0-0-0-0-1-1-1-1-3-3-3--|
   1 + 2 + 3 + 4 + 1 + 2 + 3 + 4 + 1 + 2 + 3 + 4 + 1 + 2 + 3 + 4 +

Bridge 4:16
G|-----------------------------------------------------------------|
D|-----------------------------------------------------------------|
A|-----------------------------------------------------------------|
D|-5-5-5-5-5-5-5-5-5-5-5-5-5-5-5-5-1-1-1-1-1-1-1-1-1-1-1-1-1-1-1-1-|
   1 + 2 + 3 + 4 + 1 + 2 + 3 + 4 + 1 + 2 + 3 + 4 + 1 + 2 + 3 + 4 +

G|-----------------------------------------------------------------|
D|-----------------------------------------------------------------|
A|-----------------------------------------------------------------|
D|-3-3-3-3-3-3-3-3-3-3-3-3-3-3-3-3-0-0-0-0-0-0-0-0-0-0-0-0-0-0-0-0-|
   1 + 2 + 3 + 4 + 1 + 2 + 3 + 4 + 1 + 2 + 3 + 4 + 1 + 2 + 3 + 4 +

G|-----------------------------------------------------------------|
D|-----------------------------------------------------------------|
A|---------------------------------1-1-1-1-1-1-1-1-----------------|
D|-1-1-1-1-1-1-1-1-1-1-1-1-1-1-1-1-----------------3-3-3-3-3-3-3-3-|
   1 + 2 + 3 + 4 + 1 + 2 + 3 + 4 + 1 + 2 + 3 + 4 + 1 + 2 + 3 + 4 +

G|-----------------------------------------------------------------|
D|-----------------------------------------------------------------|
A|-----------------------------------------------------------------|
D|-5-5-5-5-5-5-5-5-5-5-5-5-5-5-5-5-1-1-1-1-1-1-1-1-1-1-1-1-1-1-1-1-|
   1 + 2 + 3 + 4 + 1 + 2 + 3 + 4 + 1 + 2 + 3 + 4 + 1 + 2 + 3 + 4 +

G|-----------------------------------------------------------------|
D|-----------------------------------------------------------------|
A|-----------------------------------------------------------------|
D|-3-3-3-3-3-3-3-3-3-3-3-3-3-3-3-3-0-0-0-0-0-0-0-0-0-1-1-1-1-3-3-3-|
   1 + 2 + 3 + 4 + 1 + 2 + 3 + 4 + 1 + 2 + 3 + 4 + 1 + 2 + 3 + 4 +

Solo 4:53
G|------------------------------------------------------------------|
D|o-----------------------------------------------------------------|
A|o-----------------------------------------------------------------|
D|--5-5-5-5-5-5-5-5-5-5-5-5-5-5-5-5-3-3-3-3-3-3-3-3-3-3-3-3-3-3-3-3-|
    1 + 2 + 3 + 4 + 1 + 2 + 3 + 4 + 1 + 2 + 3 + 4 + 1 + 2 + 3 + 4 +

G|------------------------------------------------------------------|
D|-----------------------------------------------------------------o|
A|-----------------------------------------------------------------o|
D|-1-1-1-1-1-1-1-1-1-1-1-1-1-1-1-1-0-0-0-0-0-0-0-0-0-1-1-1-1-3-3-3--|
   1 + 2 + 3 + 4 + 1 + 2 + 3 + 4 + 1 + 2 + 3 + 4 + 1 + 2 + 3 + 4 +

G|-----------------------------------------------------------------|
D|-----------------------------------------------------------------|
A|-----------------------------------------------------------------|
D|-5---------------------------------------------------------------|
   1 + 2 + 3 + 4 + 1 + 2 + 3 + 4 + 1 + 2 + 3 + 4 + 1 + 2 + 3 + 4 +

rest

Interlude 6:20
G|---------------------------------------------------|
D|o-------------------------------------------------o|
A|o-------------------------------------------------o|x4
D|--5-5-5-5-5-5-5-5-5-5-5-5-5-5-5-5-5-5-5-5-5-5-5-5--|
    1 + 2 + 3 + 1 + 2 + 3 + 1 + 2 + 3 + 1 + 2 + 3 +

Outro 6:42
G|-----------------------------------------------------------------|
D|-----------------------------------------------------------------|
A|-----------------------------------------------------------------|
D|-5-5---5-5-5---5-3-3---3-3-3-3-3-1-1---1-1-1-1-1-3-3---3-3-3-3-3-|
   1 + 2 + 3 + 4 + 1 + 2 + 3 + 4 + 1 + 2 + 3 + 4 + 1 + 2 + 3 + 4 +

G|-----------------------------------------------------------------|
D|-----------------------------------------------------------------|
A|-----------------------------------------------------------------|
D|-5-5---5-5-5-5-5-3-3-----3-------1-1---1-1-1-1-1-3-3---3-3-3-3-3-|
   1 + 2 + 3 + 4 + 1 + 2 + 3 + 4 + 1 + 2 + 3 + 4 + 1 + 2 + 3 + 4 +

6:57
G|-----------------------------------------------------------------|
D|-----------------------------------------------------------------|
A|-----------------------------------------------------------------|
D|-5-5-5-5-5-5-5---3-3---3-3-3-3-3-1-1---1-1-1-1-1-3-3---3-3-3-3-3-|
   1 + 2 + 3 + 4 + 1 + 2 + 3 + 4 + 1 + 2 + 3 + 4 + 1 + 2 + 3 + 4 +

G|-----------------------------------------------------------------|
D|-----------------------------------------------------------------|
A|-----------------------------------------------------------------|
D|-5-5-5-5-5-5-5---3-3---3-3-3-3-3-1-1---1-1-1---1-3-3---3-3-3-3-3-|
   1 + 2 + 3 + 4 + 1 + 2 + 3 + 4 + 1 + 2 + 3 + 4 + 1 + 2 + 3 + 4 +

7:12
G|-----------------------------------------------------------------|
D|-----------------------------------------------------------------|
A|-----------------------------------------------------------------|
D|-5-5---5-5-5---5-3-3---3-3-3---3-1-1---1-1-1---1-3-3---3-3-3-3---|
   1 + 2 + 3 + 4 + 1 + 2 + 3 + 4 + 1 + 2 + 3 + 4 + 1 + 2 + 3 + 4 +

G|-----------------------------------------------------------------|
D|-----------------------------------------------------------------|
A|-----------------------------------------------------------------|
D|-5-5---5-5-5-5---3-3-----3-3-3-3-1-1---1-1-1---1-3-3---3-3-3-3-3-|
   1 + 2 + 3 + 4 + 1 + 2 + 3 + 4 + 1 + 2 + 3 + 4 + 1 + 2 + 3 + 4 +

7:27
G|------------------------------------------------------------------|
D|o-----------------------------------------------------------------|
A|o---------------------------------1-1-1-1-1-------1-1---1-1-------|
D|--5-5-5-5-5-------5-5---5-5---------------------------------------|
    1 + 2 + 3 + 4 + 1 + 2 + 3 + 4 + 1 + 2 + 3 + 4 + 1 + 2 + 3 + 4 +

G|------------------------------------------------------------------|
D|-----------------------------------------------------------------o|
A|-----------------------------------------------------------------o|Repeat until fade out
D|-3-3-3-3-3-------3-3---3-3-------1-1-1-1-1-------1-1---1-1--------|
   1 + 2 + 3 + 4 + 1 + 2 + 3 + 4 + 1 + 2 + 3 + 4 + 1 + 2 + 3 + 4 +

--------------------------------------------------------------------------------------

I Won't See You Tonight Part 2

Intro
G|-------------------------------------------------------------------|
D|o-----------------------------------------------------------------o|
A|o-----------------------------------------------------------------o|
D|--00000-------00000-------00000---00000-------00000-------00000----|
    1 + 2 + 3 + 4 + 1 + 2 + 3 + 4 + 1 + 2 + 3 + 4 + 1 + 2 + 3 + 4 +

Verse 0:08
G|-------------------------------------------------------------------|
D|o-----------------------------------------------------------------o|
A|o-----------------------------------------------------------------o|
D|--00000-------00000-------00000---00000-------00000-------00000----|
    1 + 2 + 3 + 4 + 1 + 2 + 3 + 4 + 1 + 2 + 3 + 4 + 1 + 2 + 3 + 4 +

0:18
G|-----------------------------------------------------------------|
D|-----------------------------------------------------------------|
A|-----------------------------------------------------------------|
D|-1-----------1-/-8-------7-------0---0-------0-/-3-------5-------|
   1 + 2 + 3 + 4 + 1 + 2 + 3 + 4 + 1 + 2 + 3 + 4 + 1 + 2 + 3 + 4 +

G|-----------------------------------------------------------------|
D|-----------------------------------------------------------------|
A|-------------------------------------------------4-------0-------|
D|-1---1-------1-/-8-------7-------0---0-------0-------------------|
   1 + 2 + 3 + 4 + 1 + 2 + 3 + 4 + 1 + 2 + 3 + 4 + 1 + 2 + 3 + 4 +

0:27
G|-------------------------------------------------------------------|
D|o-----------------------------------------------------------------o|
A|o-----------------------------------------------------------------o|x4
D|--00000-------00000-------00000---00000-------00000-------00000----|
    1 + 2 + 3 + 4 + 1 + 2 + 3 + 4 + 1 + 2 + 3 + 4 + 1 + 2 + 3 + 4 +

Rest

0:49
G|-----------------------------------------------------------------|
D|-----------------------------------------------------------------|
A|-----------------6-------------------------------6-------6-------|
D|-0-----0-----0-----------0-----0-----0-----0---------------------|
   1 + 2 + 3 + 4 + 1 + 2 + 3 + 4 + 1 + 2 + 3 + 4 + 1 + 2 + 3 + 4 +

0:52
G|-------------------------------------------------------------------|
D|o-----------------------------------------------------------------o|
A|o-----------------6-------------------------------6-------6-------o|x4
D|--0-0---0---0-0-0-----0-0-0-0---0---0-0-0---0---0-----0-0-----0-0--|
    1 + 2 + 3 + 4 + 1 + 2 + 3 + 4 + 1 + 2 + 3 + 4 + 1 + 2 + 3 + 4 +

Pre Chorus 1:06
G|-----------------------------------------------------------------------|
D|-----------------------------------------------------------------------|
A|-----------------------------------------------------------------------|
D|-12-----11-----10---8---7---5-----/-12-----11-----10---8---7---5-----/-|
   1  e + a  2 e +  a 3 e + a 4 e + a 1  e + a  2 e +  a 3 e + a 4 e + a 

G|-----------------------------------------------------------------------|
D|-----------------------------------------------------------------------|
A|-----------------------------------------------------------------------|
D|-12-----11-----10---8---7---5-----/-12-----11-----10---5---------------|
   1  e + a  2 e +  a 3 e + a 4 e + a 1  e + a  2 e +  a 3 e + a 4 e + a 

Chorus 1:14
G|-----------------------------------------------------------------------------------------------|
D|---------------------------5-------------------------------------------------------------------|
A|-------------------------------8-----------8---7-----------7---5-------5---4---6---------------|
D|-0---0-0/6---6-6-0---0-0-----------0-0-0-----------0-0-0-----------0-0-----------1---1-------/-|
   1 + 2 + 3 + 4 + 1 + 2 + 3 + 4 + 1 + 2 + 3 + 4 + 1 + 2 + 3 + 4 + 1 + 2 + 3 + 4 + 1 + 2 + 3 + 4 +

G|-----------------------------------------------------------------------------------------------|
D|---------------------------5-------------------------------------------------------------------|
A|-------------------------------8-----------8---7-----------7---5-------5---4---6---------------|
D|---------6---6-6-0---0-0-----------0-0-0-----------0-0-0-----------0-0-----------1---1------1-1|
   1 + 2 + 3 + 4 + 1 + 2 + 3 + 4 + 1 + 2 + 3 + 4 + 1 + 2 + 3 + 4 + 1 + 2 + 3 + 4 + 1 + 2 + 3 + 4 +

Verse 1:34
G|-------------------------------------------------------------------|
D|o-----------------------------------------------------------------o|
A|o-----5---5-----6---------------------5---5-----6-----------------o|
D|--0000--------------5---6---1-3-3-0000------0000----1---3---5---6--|
    1 + 2 + 3 + 4 + 1 + 2 + 3 + 4 + 1 + 2 + 3 + 4 + 1 + 2 + 3 + 4 +

1:49
G|-------------------------------------------------------------------|
D|o-----------------------------------------------------------------o|
A|o-----5---5-----6---------------------5---5-----6-----------------o|
D|--0000--00--0000----5---6---1-3---0000--00--0000----1---3---5---6--|
    1 + 2 + 3 + 4 + 1 + 2 + 3 + 4 + 1 + 2 + 3 + 4 + 1 + 2 + 3 + 4 +

Interlude 2:04
G|-------------------------------------------------------------------|
D|o-----------------------------------------------------------------o|
A|o---5-4---3-2-1-0-------------------5-4---3-2-1-0-----------------o|
D|--0-----0---------0-7-6-0-6-5-3-3-0-----0---------0-7-6-0-6-5-3-3--|
    1 + 2 + 3 + 4 + 1 + 2 + 3 + 4 + 1 + 2 + 3 + 4 + 1 + 2 + 3 + 4 +

Solo/Breakdown 2:18
G|-----------------------------------------------------------|
D|o---------------------------------------------------------o|
A|o---------------------------------------------------------o|x4
D|--00--00---00-0-0-00000-------00--00---00-0-0-00000--------|
    1 + 2 + 3 + 4 + 5 + 6 + 7 + 1 + 2 + 3 + 4 + 5 + 6 + 7 +

2:42
G|-------------------------------------------------------------------|
D|o-----------------------------------------------------------------o|
A|o-----------------------------------------------------------------o|x4
D|--0---0-0-6-------5---0-0-0-4b--------0-0-0-0-----1---0-0-3---0-0--|
    1 e + a 2 e + a 3 e + a 4 e + a 1 e + a 2 e + a 3 e + a 4 e + a

Bridge 2:56
G|-----------------------------------------------------------------|
D|-----------------------------------------------------------------|
A|-----------------------------------------------------------------|
D|-5-5-5-5-5-5-5-5-5-5-5-5-5-5-5-5-1-1-1-1-1-1-1-1-1-1-1-1-1-1-1-1-|
   1 + 2 + 3 + 4 + 1 + 2 + 3 + 4 + 1 + 2 + 3 + 4 + 1 + 2 + 3 + 4 +

G|-----------------------------------------------------------------|
D|-----------------------------------------------------------------|
A|-1-1-1-1-1-1-1-1-1-1-3-3-5-1-1-1---------------------------------|
D|---------------------------------3-3-3-3-3-3-3-3-4-4-4-4-4-4-4-4-|
   1 + 2 + 3 + 4 + 1 + 2 + 3 + 4 + 1 + 2 + 3 + 4 + 1 + 2 + 3 + 4 +

G|-----------------------------------------------------------------|
D|-----------------------------------------------------------------|
A|-----------------------------------------------------------1-3-3-|
D|-5-5-5-5-5-5-5-5-5-5-5-5-5-8-5-5-1-1-1-1-1-1-1-1-1-1-1-1-1-------|
   1 + 2 + 3 + 4 + 1 + 2 + 3 + 4 + 1 + 2 + 3 + 4 + 1 + 2 + 3 + 4 +

G|-----------------------------------------------------------------|
D|-----------------------------------------------------------------|
A|-1-1-1-1-1-1-1-1-1-1-1-1-1-1-1-1---------------------------------|
D|---------------------------------3-3-3-3-3-3-3-3-4-4-4-4-4-4-4-4-|
   1 + 2 + 3 + 4 + 1 + 2 + 3 + 4 + 1 + 2 + 3 + 4 + 1 + 2 + 3 + 4 +

Verse 3:25
G|-------------------------------------------------------------------|
D|o-----------------------------------------------------------------o|
A|o-----------------6-------------------------------6-------6-------o|x4
D|--0-0---0---0-0-0-----0-0-0-0---0---0-0-0---0---0-----0-0-----0-0--|
    1 + 2 + 3 + 4 + 1 + 2 + 3 + 4 + 1 + 2 + 3 + 4 + 1 + 2 + 3 + 4 +

Pre Chorus 3:39
G|-----------------------------------------------------------------------|
D|-----------------------------------------------------------------------|
A|-----------------------------------------------------------------------|
D|-12-----11-----10---8---7---5-----/-12-----11-----10---8---7---5-----/-|
   1  e + a  2 e +  a 3 e + a 4 e + a 1  e + a  2 e +  a 3 e + a 4 e + a 

G|-----------------------------------------------------------------------|
D|-----------------------------------------------------------------------|
A|-----------------------------------------------------------------------|
D|-12-----11-----10---8---7---5-----/-12-----11-----10---5---------------|
   1  e + a  2 e +  a 3 e + a 4 e + a 1  e + a  2 e +  a 3 e + a 4 e + a 

Chorus 3:46
G|-----------------------------------------------------------------------------------------------|
D|---------------------------5-------------------------------------------------------------------|
A|-------------------------------8-----------8---7-----------7---5-------5---4---6---------------|
D|-0---0-0/6---6-6-0---0-0-----------0-0-0-----------0-0-0-----------0-0-----------1---1-------/-|
   1 + 2 + 3 + 4 + 1 + 2 + 3 + 4 + 1 + 2 + 3 + 4 + 1 + 2 + 3 + 4 + 1 + 2 + 3 + 4 + 1 + 2 + 3 + 4 +

G|-----------------------------------------------------------------------------------------------|
D|---------------------------5-------------------------------------------------------------------|
A|-------------------------------8-----------8---7-----------7---5-------5---4---6---------------|
D|---------6---6-6-0---0-0-----------0-0-0-----------0-0-0-----------0-0-----------1---1-------/-|
   1 + 2 + 3 + 4 + 1 + 2 + 3 + 4 + 1 + 2 + 3 + 4 + 1 + 2 + 3 + 4 + 1 + 2 + 3 + 4 + 1 + 2 + 3 + 4 +

4:07
G|-----------------------------------------------------------------------------------------------|
D|---------------------------5-------------------------------------------------------------------|
A|-------------------------------8-----------8---7-----------7---5-------5---4---6---------------|
D|-0-0-0-0/6---6-6-0---0-0-----------0-0-0-----------0-0-0-----------0-0-----------1---1-------/-|
   1 + 2 + 3 + 4 + 1 + 2 + 3 + 4 + 1 + 2 + 3 + 4 + 1 + 2 + 3 + 4 + 1 + 2 + 3 + 4 + 1 + 2 + 3 + 4 +

G|---------------------------------------------------------------------------------------------|
D|---------------------------5-----------------------------------------------------------------|
A|-------------------------------8-----------8---7-----------7---5-------5---4---6-------------|
D|---------6---6-6-0---0-0-----------0-0-0-----------0-0-0-----------0-0-----------1-----------|
   1 + 2 + 3 + 4 + 1 + 2 + 3 + 4 + 1 + 2 + 3 + 4 + 1 + 2 + 3 + 4 + 1 + 2 + 3 + 4 + 1 + 2 + 3 + 4 

Outro 4:31
G|---------------------------------------------------------------------------------|
D|---------------------------------------------------------------------------------|
A|---------------------------------------------------------------------------------|
D|(1)--------------00000-------00000-------00000---00000-------00000-------00000---|
   1 + 2 + 3 + 4 + 1 + 2 + 3 + 4 + 1 + 2 + 3 + 4 + 1 + 2 + 3 + 4 + 1 + 2 + 3 + 4 +

G|-----------------------------------------------------------------|
D|-----------------------------------------------------------------|
A|-----------------------------------------------------------------|
D|-00000-------00000-------00000---00000-------00000---------------|
   1 + 2 + 3 + 4 + 1 + 2 + 3 + 4 + 1 + 2 + 3 + 4 + 1 + 2 + 3 + 4 +

--------------------------------------------------------------------------------------

Clairvoyant Disease

Intro
G|-----------------------------------------------------------------|
D|-----------------------------------------------------------------|
A|-----------------5---------------1-----------3-1-----------------|
D|-0-------0-----5---------------------------------5-------7-------|
   1 + 2 + 3 + 4 + 1 + 2 + 3 + 4 + 1 + 2 + 3 + 4 + 1 + 2 + 3 + 4 +

G|-----------------------------------------------------------------|
D|-----------------------------------------------------------------|
A|-----------------5-------5-------1-----------3-1-----------------|
D|-0-------0-----5---------------------------------5-------7-7-7---|
   1 + 2 + 3 + 4 + 1 + 2 + 3 + 4 + 1 + 2 + 3 + 4 + 1 + 2 + 3 + 4 +

Verse 0:14
G|-----------------------------------------------------------------|
D|---------------3-------2-----0-2---------------------------------|
A|---------------------------------1-----------0h1-0h1---3---1-0-1-|
D|-0---------------------------------------------------------------|
   1 + 2 + 3 + 4 + 1 + 2 + 3 + 4 + 1 + 2 + 3 + 4 + 1 + 2 + 3 + 4 +

G|-----------------------------------------------------------------|
D|---------------0-3-----2-----0-2---------------------------------|
A|---------------------------------1-------1---0h1-0h1-----3---0h1-|
D|-0-------0-------------------------------------------------------|
   1 + 2 + 3 + 4 + 1 + 2 + 3 + 4 + 1 + 2 + 3 + 4 + 1 + 2 + 3 + 4 +

G|-----------------------------------------------------------------|
D|---------------0-3-----2-----0-2-----------------3(3)--------2-3-|
A|---------------------------------1-------1---0h1---1-----1-------|
D|-0-------0-------------------------------------------------------|
   1 + 2 + 3 + 4 + 1 + 2 + 3 + 4 + 1 + 2 + 3 + 4 + 1 + 2 + 3 + 4 +

G|-----------------------------------------------------------------|
D|---------------0-3-----2-----0-2---------------------------------|
A|---------------------------------1-----------0h1-1-1-1-1-1-1-1-1-|
D|-0---------------------------------------------------------------|
   1 + 2 + 3 + 4 + 1 + 2 + 3 + 4 + 1 + 2 + 3 + 4 + 1 + 2 + 3 + 4 +

Chorus 0:40
G|-------------------------------------------------------------------|
D|o-----------------------------------------------------------------o|
A|o-------------7---------------8---------------7-------------------o|x4
D|--0-0-0---0-0-----0-0-0---0-0-----0-0-8---0-0-----0-0-6---0-0-7----|
    1 + 2 + 3 + 4 + 1 + 2 + 3 + 4 + 1 + 2 + 3 + 4 + 1 + 2 + 3 + 4 +

Verse 1:08
G|-----------------------------------------------------------------|
D|---------------3-------2-----0-2---------------------------------|
A|---------------------------------1-----------0h1-1-----3---1-0-1-|
D|-0---------------------------------------------------------------|
   1 + 2 + 3 + 4 + 1 + 2 + 3 + 4 + 1 + 2 + 3 + 4 + 1 + 2 + 3 + 4 +

G|-----------------------------------------------------------------|
D|---------------0-3-----2-----0-2---------------------------------|
A|---------------------------------1-------1---0h1-0h1---1-3-1-0-1-|
D|-0---------------------------------------------------------------|
   1 + 2 + 3 + 4 + 1 + 2 + 3 + 4 + 1 + 2 + 3 + 4 + 1 + 2 + 3 + 4 +

G|-----------------------------------------------------------------|
D|---------------0-3-----2-----0-2-----------------3-----2-----2-3-|
A|---------------------------------1-------1---0h1-----------------|
D|-0---------------------------------------------------------------|
   1 + 2 + 3 + 4 + 1 + 2 + 3 + 4 + 1 + 2 + 3 + 4 + 1 + 2 + 3 + 4 +

G|-----------------------------------------------------------------|
D|---------------0-3-----2-----0-2---------------------------------|
A|---------------------------------1-----------0h1-1-1-1---1-1-1-1-|
D|-0---------------------------------------------------------------|
   1 + 2 + 3 + 4 + 1 + 2 + 3 + 4 + 1 + 2 + 3 + 4 + 1 + 2 + 3 + 4 +

Chorus 1:36
G|-------------------------------------------------------------------|
D|o-----------------------------------------------------------------o|
A|o-------------7---------------8---------------7-------------------o|x4
D|--0-0-0---0-0-----0-0-0---0-0-----0-0-8---0-0-----0-0-6---0-0-7----|
    1 + 2 + 3 + 4 + 1 + 2 + 3 + 4 + 1 + 2 + 3 + 4 + 1 + 2 + 3 + 4 +

Bridge 2:02
G|-----------------------------------------------------------------|
D|-----------------------------------------------------------------|
A|-----------------------------------------------------------------|
D|-0-0---0---0-0-0-8-8-8-8-8-8-8-8-0-0---0---0-0-0-8-8-8-8-8-8-8-8-|
   1 + 2 + 3 + 4 + 1 + 2 + 3 + 4 + 1 + 2 + 3 + 4 + 1 + 2 + 3 + 4 +

G|-------------------------------------------------|
D|---------------------------------------------2---|
A|-----------------------------------------4-------|
D|-2-2---2---2-0-2-3-3---3---3-2-3-5-5-5-5---------|
   1 + 2 + 3 + 4 + 1 + 2 + 3 + 4 + 1 + 2 + 3 + 4 +

G|-----------------------------------------------------------------|
D|-----------------------------------------------------------------|
A|-----------------------------------------------------------------|
D|-0-0---0---0-0-0-8---8888888888880-0---0---0-0-0-8---888888888888|
   1 + 2 + 3 + 4 + 1 + 2 + 3 + 4 + 1 + 2 + 3 + 4 + 1 + 2 + 3 + 4 +

G|---------------------------------------------------------------------------------|
D|---------------------------------------------2-----------------------------------|
A|-----------------------------------------4-------5---5-5-5-5-5-5-5-5-5-5-5-5-5-5-|
D|-2-2---2---2-0-2-3-3---3---3-2-3-5-5-5-5-----------------------------------------|
   1 + 2 + 3 + 4 + 1 + 2 + 3 + 4 + 1 + 2 + 3 + 4 + 1 + 2 + 3 + 4 + 1 + 2 + 3 + 4 +

Solo 2:30 
G|------------------------------------------------------------------|
D|o-----------------------------------------------------------------|
A|o-1-1-1-1-1-1-1-1-1-1-1-1-1-1-1-1-3-3-3-3-3-3-3-3-3-3-3-3-3-3-3-3-|
D|------------------------------------------------------------------|
    1 + 2 + 3 + 4 + 1 + 2 + 3 + 4 + 1 + 2 + 3 + 4 + 1 + 2 + 3 + 4 +

G|------------------------------------------------------------------|
D|-----------------------------------------------------------------o|
A|-----------------------------------------------------------------o|
D|-3-3-3-3-3-3-3-3-2-2-2-2-2-2-2-2-0-0-0-0-0-0-0-0-0-0-0-0-0-0-0-0--|
   1 + 2 + 3 + 4 + 1 + 2 + 3 + 4 + 1 + 2 + 3 + 4 + 1 + 2 + 3 + 4 +

Verse 2:58
G|-----------------------------------------------------------------|
D|-----------------------------------------------------------------|
A|-1-1-1-1-1-1-1-1-1-1-1-1-1-1-1-1-3-3-3-3-3-3-3-3-3-3-3-3-3-3-3-3-|
D|-----------------------------------------------------------------|
   1 + 2 + 3 + 4 + 1 + 2 + 3 + 4 + 1 + 2 + 3 + 4 + 1 + 2 + 3 + 4 +

G|-----------------------------------------------------------------|
D|-----------------------------------------------------------------|
A|-----------------------------------------------------------------|
D|-3-3-3-3-3-3-3-3-2-2-2-2-2-2-2-2-0-0-0-0-0-0-0-0-0-0-0-0-0-0-0-0-|
   1 + 2 + 3 + 4 + 1 + 2 + 3 + 4 + 1 + 2 + 3 + 4 + 1 + 2 + 3 + 4 +

G|-----------------------------------------------------------------|
D|-----------------------------------------------------------------|
A|-1-1-1-1-1-1-1-1-1-1-1-1-1-1-1-1-3-3-3-3-3-3-3-3-3-3-3-3-3-3-3-3-|
D|-----------------------------------------------------------------|
   1 + 2 + 3 + 4 + 1 + 2 + 3 + 4 + 1 + 2 + 3 + 4 + 1 + 2 + 3 + 4 +

G|-----------------------------------------------------------------|
D|-----------------------------------------------------------------|
A|-5-5-5-5-5-5-5-5-------------------------------------------------|
D|-----------------2-2-2-2-2-2-2-2-3-3-3-3-3-3-3-3-3-3-3-3-3-3-3-3-|
   1 + 2 + 3 + 4 + 1 + 2 + 3 + 4 + 1 + 2 + 3 + 4 + 1 + 2 + 3 + 4 +

3:25
G|-----------------------------------------------------------------|
D|-----------------------------------------------------------------|
A|---------------------------------3-3-3-3-3-3-3-3-3-3-3-3-3-3-3-3-|
D|-5-5-5-5-5-5-5-5-5-5-5-5-5-5-5-5---------------------------------|
   1 + 2 + 3 + 4 + 1 + 2 + 3 + 4 + 1 + 2 + 3 + 4 + 1 + 2 + 3 + 4 +

G|-----------------------------------------------------------------|
D|-----------------------------------------------------------------|
A|-5-5-5-5-5-5-5-5-------------------------------------------------|
D|-----------------2-2-2-2-2-2-2-2-3-3-3-3-3-3-3-3-3-3-3-3-3-3-3-3-|
   1 + 2 + 3 + 4 + 1 + 2 + 3 + 4 + 1 + 2 + 3 + 4 + 1 + 2 + 3 + 4 +

Chorus 3:39
G|-------------------------------------------------------------------|
D|o-----------------------------------------------------------------o|
A|o-------------7---------------8---------------7-------------------o|x4
D|--0-0-0---0-0-----0-0-0---0-0-----0-0-8---0-0-----0-0-6---0-0-7----|
    1 + 2 + 3 + 4 + 1 + 2 + 3 + 4 + 1 + 2 + 3 + 4 + 1 + 2 + 3 + 4 +

4:07
G|-----------------------------------------------------------------|
D|-----------------------------------------------------------------|
A|-----------------------------------------------------------------|
D|-00000-------00000-000-000-------00000-------00000-000-000-------|
   1 + 2 + 3 + 4 + 1 + 2 + 3 + 4 + 1 + 2 + 3 + 4 + 1 + 2 + 3 + 4 +

G|-----------------------------------------------------------------|
D|-----------------------------------------------------------------|
A|-----------------------------------------------------------------|
D|-00000-------00000-000-000-------00000---------------0-0---0-0000|
   1 + 2 + 3 + 4 + 1 + 2 + 3 + 4 + 1 + 2 + 3 + 4 + 1 + 2 + 3 + 4 +

G|-----------------------------------------------------------------|
D|-----------------------------------------------------------------|
A|-----------------------------------------------------------------|
D|-0---------------------------------------------------------------|
   1 + 2 + 3 + 4 + 1 + 2 + 3 + 4 + 1 + 2 + 3 + 4 + 1 + 2 + 3 + 4 +

Rest

4:37
G|-----------------------------------------------------------------|
D|-----------------------------------------------------------------|
A|-5-------------------------------1-------------1-1-----3-----1---|
D|-------------0-0-0-----------------------------------------------|
   1 + 2 + 3 + 4 + 1 + 2 + 3 + 4 + 1 + 2 + 3 + 4 + 1 + 2 + 3 + 4 +

G|-----------------------------------------------------------------|
D|-----------------0-----------2-0---------------------------------|
A|---------------------------------1-----------0-1-1---------------|
D|-0---------------------------------------------------------------|
   1 + 2 + 3 + 4 + 1 + 2 + 3 + 4 + 1 + 2 + 3 + 4 + 1 + 2 + 3 + 4 +

--------------------------------------------------------------------------------------

And All Things Will End

0:11
G|---------------------------------------------------------------------|--------|
D|o----------1211----------1211---------1211--8~7--7~-------511h12p11-o|--------|
A|o----------------------------------------------10--1087578----------o|--------|
D|--0~0(x10)------0~0(x10)-----0~0(x10)--------------------------------|-0~~~-0-|

0:36
G|------------------------------------------------------|
D|o----------------------------------------------------o|
A|o----------------------------------------------------o|
D|--0~0(x15)---3~3(x15)---5~5(x7)--666656--0~0(x15)-35--|

0:58
G|-------------------------------------------|
D|-------------------------------------------|
A|-------------------------------------------|
D|-8~8(x7)--33333h5-0~0(x15)---8~8(x7)-3--35-|

1:07
G|---------------------------------------------------------------------------|
D|----------1211----------1211---------1211--8~7--7~-------511h12p11---------|
A|----------------------------------------------10--1087578------------------|
D|-0~0(x10)------0~0(x10)-----0~0(x10)--------------------------------0~~~-0-|

1:21
G|------------------------------------------------------|
D|o----------------------------------------------------o|
A|o----------------------------------------------------o|
D|--0~0(x15)---3~3(x15)---5~5(x7)--666656--0~0(x15)-35--|

1:44                        3x
G|----------------------------|---------------------|
D|o--------------------------o|---------------------|
A|o--------------------------o|---------------------|
D|--8~8(x7)--33333h5-0~0(x15)-|--8~8(x7)-3--35-0~~~-|

*Break*

2:31
G|----------------------32------------------------------------------|
D|o----------------2~-22--20~--0-----------------------------------o|
A|o-5~-55~-3~-33-13--------------3-1~--1310-------0~-00~-0/12~-12\-o|
D|------------------------------------------5~-3-5------------------|

G|----------------------32-------------------------------------------|
D|-----------------2~-22--20~--0-------------------------------------|
A|-5~-555~-3~-333~---------------3-1~--11310-------------------------|
D|------------------------------------------5~-3-5-7~-7\2-7\3/15\3/7-|

3:42                                     4x
G|------------------------------------------|
D|o----------------------------------------o|
A|o----/5-0~-----/7-0~-----/8-0~0578758/12-o|
D|--00-------0-0-------0-0------------------|

4:06
G|---------------------|
D|-8~7--7~-------5-----|
A|----10--1087578-4543-|
D|---------------------|

4:09
G|---------------------------------------|------------|
D|o-------------------------------------o|------------|
A|o-5(x16)--8(x16)--3(x16)--1(x8)-0(x8)-o|------------|
D|---------------------------------------|-0(x7)--0-0-|

4:24                        3x
G|----------------------------|-------------------------|
D|o--------------------------o|-------------------------|
A|o--------------------------o|-------------------------|
D|--8~8(x7)--33333h5-0~0(x15)-|--8~8(x7)-3--35-0~0(x15)-|

                            3x
G|----------------------------|---------------------|
D|o--------------------------o|---------------------|
A|o--------------------------o|---------------------|
D|--8~8(x7)--33333h5-0~0(x15)-|--8~8(x7)-3--35-0~~~-|

5:11                                                        7x
G|------------------------------------------------------------|
D|o----------------------------------------------------------o|
A|o----------------------------------------------------------o|
D|--5~--358~----3~----1~-1~--1-1-1-1-1-1-1-1-0-0-0-0-0-0-0-0--|

6:30
G|----------------------------------------------------------|
D|----------------------------------------------------------|
A|------------------------------------------4-4-4-4-4-4-4-4-|
D|-4~--247~----2~----0~-0~--0-0-0-0-0-0-0-0-----------------|
B|-----------------------------------------(2-2-2-2-2-2-2-2)|

6:43
G|----------------------------------------------------------|
D|----------------------------------------------------------|
A|-------------------4~-4~--4-4-4-4-4-4-4-4-3-3-3-3-3-3-3-3-|
D|-3~--136~----1~-------------------------------------------|
B|------------------(2~-2~--2-2-2-2-2-2-2-2-1-1-1-1-1-1-1-1)|

6:57
G|----------------------------------------------------------|
D|----------------------------------------------------------|
A|-------------------3~-3~--3-3-3-3-3-3-3-3-2-2-2-2-2-2-2-2-|
D|-2~--025~----0~-------------------------------------------|
B|------------------(1~-1~--1-1-1-1-1-1-1-1-0-0-0-0-0-0-0-0)|

Tabbed by Dave Vucko
comments
We did not receive enough feedback on this tab! Please rate:
print report bad tab
1 2 3 4 5
I want to post or [tab]
guest
You may want to rate the tab now too:
select rating
Please do not post tabs as comments. Select "correction" instead!