Oops, an error
Loading. Please wait.

Waking The Fallen Tab

ver2
ver2

Album

Interactive

More versions @911Tabs.com
8,840 views 9 this week
3 commentsread comments
1 2 3 4 5
accurate
x 8
Autoscroll
+/-
esc
set tempo
stop
Contributor
Hey! There's an official Ultimate Guitar app which is ideal
for learning songs when you're away from computer. Get the app
WARNING: You are trying to view
                                    content from Ultimate-Guitar.com
                                    in an unauthorized application,
                                    which is prohibited.

                                    Please use an official Ultimate
                                    Guitar Tabs application for iPhone,
                                    iPad or Android to access legitimate
                                    chords, guitar, bass, and drum tabs
                                    from Ultimate-Guitar.com database.

                                    Type "ultimate guitar tabs" in Apple
                                    App Store's or Android Market's
                                    search to find the application.
Artist: Avenged Sevenfold
Album: Waking The Fallen (2003)



1. Waking The Fallen - Check Back For Updates


2. UNHOLY CONFESSIONS

Gtr I (D A D G B E) - 'Zacky V.'
Gtr II (D A D G B E) - 'Synyster'

 Intro
  Q=94
  D5
 4/4
  Gtr I
  PM|   PM  PM  PM   PM  PM       ~~  PM|          ~ PM|          ~~
|-----------------------------------|--------------------------------|
|-----------------------------------|--------------------------------|
|-----------------------------------|--------------------------------|
|-0-0-------------------------------|--------------------------------|
|-0-0-5---7---8---10---8---7h8p7----|-----10-0-8-0-7-----7-0-8-0-----|
|-0-0---0---0---0----0---0-------10-|-8-8------------7-7---------10--|
|
| Gtr II
| PM|
|-----------------------------------|--------------------------------|
|-----------------------------------|--------------------------------|
|-----------------------------------|--------------------------------|
|-0-0-------------------------------|--------------------------------|
|-0-0-------------------------------|--------------------------------|
|-0-0-------------------------------|--------------------------------|


  D5                                  Bb5   A5
  PM|   PM  PM  PM   PM  PM       ~~
|-----------------------------------|---------------|
|-----------------------------------|---------------|
|-----------------------------------|---------------|
|-0-0-------------------------------|-8-8---7-7-----|
|-0-0-5---7---8---10---8---7h8p7----|-8-8---7-7-----|
|-0-0---0---0---0----0---0-------10-|-8-8---7-7-----|
|
| PM|
|-----------------------------------|---------------|
|-----------------------------------|---------------|
|-----------------------------------|---------------|
|-0-0-------------------------------|-8-8---7-7-----|
|-0-0-------------------------------|-8-8---7-7-----|
|-0-0-------------------------------|-8-8---7-7-----|


    D5
    PM|   PM  PM  PM   PM  PM       ~~  PM|          ~ PM|          ~~
                                                                        3x
||------------------------------------|---------------------------------||
||o-----------------------------------|--------------------------------o||
||------------------------------------|---------------------------------||
||--0-0-------------------------------|---------------------------------||
||o-0-0-5---7---8---10---8---7h8p7----|-----10-0-8-0-7-----7-0-8-0-----o||
||--0-0---0---0---0----0---0-------10-|-8-8------------7-7---------10---||
|
|   Gtr II
|                                   ~~  PM|          ~ PM|          ~~
|                                                                       3x
||------------------------------------|---------------------------------||
||o-----------------------------------|--------------------------------o||
||------------------------------------|---------------------------------||
||--0-0-3---5---7----8---7---5h7p5----|------8-0-7-0-5-----5-0-7-0------||
||o-0-0-----------------------------7-|-----------------------------7--o||
||--0-0---0---0---0----0---0----------|-8-8------------7-7--------------||


  D5                                  Bb5   A5   G5/DA5/E F5/CD#5/Bb
  PM|   PM  PM  PM   PM  PM       ~~
|-----------------------------------|---------------------------|
|-----------------------------------|---------------------------|
|-----------------------------------|------------7-7--9-7-5-5-3-|
|-0-0-------------------------------|-8-8---7-7-----------------|
|-0-0-5---7---8---10---8---7h8p7----|-8-8---7-7-----------------|
|-0-0---0---0---0----0---0-------10-|-8-8---7-7-----------------|
|
|                                 ~~
|-----------------------------------|---------------------------|
|-----------------------------------|------------8-8-10-8-6-6-4-|
|-----------------------------------|---------------------------|
|-0-0-3---5---7----8---7---5h7p5----|-8-8---7-7-----------------|
|-0-0-----------------------------7-|-8-8---7-7-----------------|
|-0-0---0---0---0----0---0----------|-8-8---7-7-----------------|


   Verse
    D5          D5  C5/G  Bb5/F A5/E  Bb5/FBb5        C5 G5/DA5/E F5/CD#5/Bb
    Gtr I
              PM|                                PM|
||---------------------------------------|--------------------------------||
||o--------------------------------------|-------------------------------o||
||------------------12-12-10-10--9--9-10-|---------------7-7--9-7-5-5-3---||
||--12-12-12-12-0-0----------------------|-8-8-8-8-10-10------------------||
||o-12-12-12-12-0-0----------------------|-8-8-8-8-10-10-----------------o||
||--12-12-12-12-0-0----------------------|-8-8-8-8-10-10------------------||
|
|   Gtr II
|             PM|                                PM|
||---------------------------------------|--------------------------------||
||o-----------------13-13-11-11-10-10-11-|---------------8-8-10-8-6-6-4--o||
||---------------------------------------|--------------------------------||
||--12-12-12-12-0-0----------------------|-8-8-8-8-10-10------------------||
||o-12-12-12-12-0-0----------------------|-8-8-8-8-10-10-----------------o||
||--12-12-12-12-0-0----------------------|-8-8-8-8-10-10------------------||


  D5                                   G5A5  Bb5       C5
  Gtrs I, II
   PM------|      PM---------|    PM---------------|    PM------|      PM|
|------------------------------------------|-----------------------------------|
|------------------------------------------|-----------------------------------|
|------------------------------------------|-----------------------------------|
|-12-12-12-12-12-12-12-12-12-12--12-12-5-7-|-8-8-8-8-8-10-10-10-10-10-10-10-10-|
|-12-12-12-12-12-12-12-12-12-12--12-12-5-7-|-8-8-8-8-8-10-10-10-10-10-10-10-10-|
|-12-12-12-12-12-12-12-12-12-12--12-12-5-7-|-8-8-8-8-8-10-10-10-10-10-10-10-10-|


  D5       D5  C5/G  Bb5/F A5/E  Bb5/FBb5        C5 G5/DA5/E F5/CD#5/Bb
  Gtr I
           PM                               PM|
|-----------------------------------|------------------------------|
|-----------------------------------|------------------------------|
|--------------12-12-10-10--9--9-10-|---------------7-7--9-7-5-5-3-|
|-12-12-12-0-0----------------------|-8-8-8-8-10-10----------------|
|-12-12-12-0-0----------------------|-8-8-8-8-10-10----------------|
|-12-12-12-0-0----------------------|-8-8-8-8-10-10----------------|
|
| Gtr II
|          PM                               PM|
|-----------------------------------|------------------------------|
|--------------13-13-11-11-10-10-11-|---------------8-8-10-8-6-6-4-|
|-----------------------------------|------------------------------|
|-12-12-12-0-0----------------------|-8-8-8-8-10-10----------------|
|-12-12-12-0-0----------------------|-8-8-8-8-10-10----------------|
|-12-12-12-0-0----------------------|-8-8-8-8-10-10----------------|


   Bridge
    D5
    Gtrs I, II
    PM------------|      PM------------|
||---------------------|---------------------||
||o--------------------|--------------------o||
||---------------------|---------------------||
||--0-0---0-0-0-0-0----|-0-0---0-0-0-0-0-----||
||o-0-0---0-0-0-0-0----|-0-0---0-0-0-0-0----o||
||--0-0---0-0-0-0-0----|-0-0---0-0-0-0-0-----||


   Verse
    D5                            D5
    PM|   PM                  ~   PM|                             ~~~
||------------------------------|---------------------------------------||
||o-----------------------------|--------------------------------------o||
||------------------------------|---------------------------------------||
||--0-0-------------------------|-0-0-----------------------------------||
||o-0-0-7---8-5---7-----8-7-5-4-|-0-0-7p0-8p0-12p==0---13p0-12p0-[4]---o||
||--0-0---0---------------------|-0-0-----------------------------------||
|
|   Gtr II
|   PM----------------|           PM-------------------|
||------------------------------|---------------------------------------||
||o-----------------------------|--------------------------------------o||
||------------------------------|---------------------------------------||
||--0-0-------0-0-0-0-0---------|-0-0----------0-0-0-0--0---------------||
||o-0-0-------0-0-0-0-0---------|-0-0----------0-0-0-0--0--------------o||
||--0-0-------0-0-0-0-0---------|-0-0----------0-0-0-0--0---------------||


   Chorus
    D5   D5 E5F5C5
    Gtrs I, II
||----------------|-----------------------|
||o---------------|-----------------------|
||--7--x--------5-|-(5)-5-5---------------|
||--7--x-0--2-3-5-|-(5)-5-5--/3-2h3p2-----|
||o-5--x-0--2-3-3-|-(3)-3-3-----------5-3-|
||-------0--2-3---|-----------------------|


  F5          C5                    C5
|---------------|---------------------|
|---------------|---------------------|
|-------------5-|-(5)-5-5-5-5-5-5-5-5-|
|-3--x-3--3-3-5-|-(5)-5-5-5-5-5-5-5-5-|
|-3--x-3--3-3-3-|-(3)-3-3-3-3-3-3-3-3-|
|-3--x-3--3-3---|---------------------|


  D5   D5 E5F5C5                      F5                G5   C5/G5
|---------------|-------------------|-----------------|---------------||
|---------------|-------------------|-----------------|--------------o||
|-7--x--------5-|-(5)-5-5-5-5-5-5-5-|-----------------|---------------||
|-7--x-0--2-3-5-|-(5)-5-5-5-5-5-5-5-|-3--x-3--3-3-5-5-|-5--x-5--5-5---||
|-5--x-0--2-3-3-|-(3)-3-3-3-3-3-3-3-|-3--x-3--3-3-5-5-|-5--x-5--5-5--o||
|------0--2-3---|-------------------|-3--x-3--3-3-5-5-|-5--x-5--5-5---||


    Gtr I
||-----------------------|-----------------------|
||o----------------------|-----------------------|
||-----------------------|-----------------------|
||-----------------------|-----------------------|
||o-/12p10h12---/8p7h8---|-/10h12p10---/7p5h7--3-|
||-----------------------|-----------------------|
|
|   Gtr II
||-----------------------|-----------------------|
||o----------------------|-----------------------|
||-----------------------|-----------------------|
||-----------------------|-----------------------|
||o--/8p=7h=8---/5p4h5---|--/7h=8p=7---/4p3h4--0-|
||-----------------------|-----------------------|


|-----------------|-------------------||
|-----------------|------------------o||
|-----------------|-------------------||
|-----------------|-------------------||
|-(3)-5--/8--7--5-|-(5)-4---/7p5h7---o||
|-----------------|-------------------||
|
|-----------------|-------------------||
|-----------------|------------------o||
|-----------------|-------------------||
|-----------------|-------------------||
|-(0)-1--/4--3--1-|-(1)-0---/4p3h4---o||
|-----------------|-------------------||


 Pre Verse
  D5
  PM|   PM  PM  PM   PM  PM       ~~   PM-|          ~ PM|          ~~
|-----------------------------------|---------------------------------|
|-----------------------------------|---------------------------------|
|-----------------------------------|---------------------------------|
|-0-0-------------------------------|---------------------------------|
|-0-0-5---7---8---10---8---7h8p7----|-------10-0-8-0-7-----7-0-8-0----|
|-0-0---0---0---0----0---0-------10-|--8--8------------7-7---------10-|
|
|-----------------------------------|---------------------------------|
|-----------------------------------|---------------------------------|
|-----------------------------------|---------------------------------|
|-0---------------------------------|-(0)-----------------------------|
|-0---------------------------------|-(0)-----------------------------|
|-0---------------------------------|-(0)-----------------------------|


  D5                                  Bb5   A5
  PM|   PM  PM  PM   PM  PM       ~~
|-----------------------------------|---------------|
|-----------------------------------|---------------|
|-----------------------------------|---------------|
|-0-0-------------------------------|-8-8---7-7-----|
|-0-0-5---7---8---10---8---7h8p7----|-8-8---7-7-----|
|-0-0---0---0---0----0---0-------10-|-8-8---7-7-----|
|
| PM|
|-----------------------------------|---------------|
|-----------------------------------|---------------|
|-----------------------------------|---------------|
|-0-0-------------------------------|-8-8---7-7-----|
|-0-0-------------------------------|-8-8---7-7-----|
|-0-0-------------------------------|-8-8---7-7-----|


   Verse
    D5
    PM|   PM  PM  PM   PM  PM       ~~  PM|          ~ PM|          ~~
                                                                        4x
||------------------------------------|---------------------------------||
||o-----------------------------------|--------------------------------o||
||------------------------------------|---------------------------------||
||--0-0-------------------------------|---------------------------------||
||o-0-0-5---7---8---10---8---7h8p7----|-----10-0-8-0-7-----7-0-8-0-----o||
||--0-0---0---0---0----0---0-------10-|-8-8------------7-7---------10---||
|
|   Gtr II
|                                   ~~  PM|          ~ PM|          ~~
|                                                                       4x
||------------------------------------|---------------------------------||
||o-----------------------------------|--------------------------------o||
||------------------------------------|---------------------------------||
||--0-0-3---5---7----8---7---5h7p5----|------8-0-7-0-5-----5-0-7-0------||
||o-0-0-----------------------------7-|-----------------------------7--o||
||--0-0---0---0---0----0---0----------|-8-8------------7-7--------------||


  D5
 6/8
  Gtrs I, II
  PM--------------------------------------------------|
|-------------|-------------|-------------|-------------|
|-------------|-------------|-------------|-------------|
|-------------|-------------|-------------|-------------|
|-0-0-0-0-0-0-|-0-0-0-0-0-0-|-0-0-0-0-0-0-|-0-0-0-0-0-0-|
|-0-0-0-0-0-0-|-0-0-0-0-0-0-|-0-0-0-0-0-0-|-0-0-0-0-0-0-|
|-0-0-0-0-0-0-|-0-0-0-0-0-0-|-0-0-0-0-0-0-|-0-0-0-0-0-0-|


  D5D5  C#5D5C5  B5BbD5  A5D5A5G#D5D5  C#5D5  C5  B5BbD5A5D5A5G#5
 4/4
|----------------------|--------------------|--------------------|
|----------------------|--------------------|--------------------|
|----------------------|--------------------|--------------------|
|-0-/12-11-0-/10-9-8-0-|-7-0-7-6-0-/12-11-0-|-/10-9-8-0-7-0-7-6--|
|-0-/12-11-0-/10-9-8-0-|-7-0-7-6-0-/12-11-0-|-/10-9-8-0-7-0-7-6--|
|-0-/12-11-0-/10-9-8-0-|-7-0-7-6-0-/12-11-0-|-/10-9-8-0-7-0-7-6--|


   Bridge
    D5
    PM------------|      PM------------|
||---------------------|---------------------||
||o--------------------|--------------------o||
||---------------------|---------------------||
||--0-0---0-0-0-0-0----|-0-0---0-0-0-0-0-----||
||o-0-0---0-0-0-0-0----|-0-0---0-0-0-0-0----o||
||--0-0---0-0-0-0-0----|-0-0---0-0-0-0-0-----||


    D5                            D5
    Gtr I
    PM|   PM                  ~   PM|                             ~~~
||------------------------------|---------------------------------------||
||o-----------------------------|--------------------------------------o||
||------------------------------|---------------------------------------||
||--0-0-------------------------|-0-0-----------------------------------||
||o-0-0-7---8-5---7-----8-7-5-4-|-0-0-7p0-8p0-12p==0---13p0-12p0-[4]---o||
||--0-0---0---------------------|-0-0-----------------------------------||
|
|   Gtr II
|   PM----------------|           PM-------------------|
||------------------------------|---------------------------------------||
||o-----------------------------|--------------------------------------o||
||------------------------------|---------------------------------------||
||--0-0-------0-0-0-0-0---------|-0-0----------0-0-0-0--0---------------||
||o-0-0-------0-0-0-0-0---------|-0-0----------0-0-0-0--0--------------o||
||--0-0-------0-0-0-0-0---------|-0-0----------0-0-0-0--0---------------||


   Breakdown
    D5
||-------------------------------------------|
||o------------------------------------------|
||-------------------------------------------|
||-------------------------------------------|
||o------------------------------------------|
||--0-11b12--0-10b11-0---9b10-----0-8-0-5b7--|
|
|   PM--------------------------|
||-------------------------------------------|
||o------------------------------------------|
||-------------------------------------------|
||--0--0-------------0-0-0----0-0------------|
||o-0--0-------------0-0-0----0-0------------|
||--0--0-------------0-0-0----0-0------------|


  D5
|--------------------------------------------||
|-------------------------------------------o||
|--------------------------------------------||
|--------------------------------------------||
|-------------------------------------------o||
|-0-11b12--0-10b11-0---9b10-----0-8-0-5b7----||
|
| PM--------------------------|
|--------------------------------------------||
|-------------------------------------------o||
|--------------------------------------------||
|-0--0-------------0-0-0----0-0--------------||
|-0--0-------------0-0-0----0-0-------------o||
|-0--0-------------0-0-0----0-0--------------||


                                E  C#
  Gtrs I, II
                  ~~~~~~~~
|-------------------|-----------------|
|-------------------|-----------------|
|-------------------|-----------------|
|-------------------|-----------------|
|-------------------|-----------7--4--|
|-0-5b7--0-5b7--0-5-|-(5)-0-3-0-------|


   Outro Chorus
    D5      D5  E5FC5
||------------------|-----------------------|
||o-----------------|-----------------------|
||--7--x--------5---|-(5)-5-5---------------|
||--7--x-0--2-3-5---|-(5)-5-5--/3-2h3p2-----|
||o-5--x-0--2-3-3---|-(3)-3-3-----------5-3-|
||-------0--2-3-----|-----------------------|


  F5          C5C5                   C5
|----------------|-----------------------|
|----------------|-----------------------|
|-------------5--|-(5)-5-5-5-5-5-5-5-5---|
|-3--x-3--3-3-5--|-(5)-5-5-5-5-5-5-5-5---|
|-3--x-3--3-3-3--|-(3)-3-3-3-3-3-3-3-3---|
|-3--x-3--3-3----|-----------------------|


  D5      D5  E5FC5
|-----------------|-------------------|
|-----------------|-------------------|
|-7--x--------5---|-(5)-5-5-5-5-5-5-5-|
|-7--x-0--2-3-5---|-(5)-5-5-5-5-5-5-5-|
|-5--x-0--2-3-3---|-(3)-3-3-3-3-3-3-3-|
|------0--2-3-----|-------------------|


  F5              G5         G5G5
|------------------|---------------||--------|
|------------------|--------------o||--------|
|------------------|---------------||--------|
|-3--x-3--3-3-5-5--|-5--x-5--5-5---||-(5)----|
|-3--x-3--3-3-5-5--|-5--x-3--5-5--o||-(5)----|
|-3--x-3--3-3-5-5--|-5--x-5--5-5---||-(5)----|


   Outro
||-------------------------------------------|
||o------------------------------------------|
||-------------------------------------------|
||-------------------------------------------|
||o------------------------------------------|
||--0-11b12--0-10b11-0---9b10-----0-8-0-5b7--|
|
|   Gtr II
|   PM--------------------------|
||-------------------------------------------|
||o------------------------------------------|
||-------------------------------------------|
||--0--0-------------0-0-0----0-0------------|
||o-0--0-------------0-0-0----0-0------------|
||--0--0-------------0-0-0----0-0------------|


  D5
|--------------------------------------------||
|-------------------------------------------o||
|--------------------------------------------||
|--------------------------------------------||
|-------------------------------------------o||
|-0-11b12--0-10b11-0---9b10-----0-8-0-5b7----||
|
| PM--------------------------|
|--------------------------------------------||
|-------------------------------------------o||
|--------------------------------------------||
|-0--0-------------0-0-0----0-0--------------||
|-0--0-------------0-0-0----0-0-------------o||
|-0--0-------------0-0-0----0-0--------------||


    Gtrs I, II
||------------------------------------|
||o-----------------------------------|
||------------------------------------|
||------------------------------------|
||o-----------------------------------|
||--0-11b12-0-10b11-0-9b10-0-8-0-5b7--|


                                        D5
|------------------------------------||---------*|
|-----------------------------------o||---------*|
|------------------------------------||---------*|
|------------------------------------||-0-0-----*|
|-----------------------------------o||-0-0-----*|
|-0-11b12-0-10b11-0-9b10-0-8-0-5b7---||-0-0-----*|


3. CHAPTER FOUR


Gtr I (D A D G B E) - 'Left Channel'
Gtr II (D A D G B E) - 'Right Channel'
Gtr III (D A D G B E) - 'Neutral Overdub'

   Intro
    Fast Rock Q=187
    D5  E5  F5                D5  A5  Bb5
   4/4
    Gtrs I, II
||-------------|------------|------------|---------||
||o------------|------------|------------|--------o||
||-------------|------------|------------|---------||
||--0---2---3--|-(3)--------|-0---7---8--|-(8)-----||
||o-0---2---3--|-(3)--------|-0---7---8--|-(8)----o||
||--0---2---3--|-(3)--------|-0---7---8--|-(8)-----||


    D5
        PM--|          PM------|         PM--|          PM------|
||---------------|-----------------|--------------|-------------------||
||o--------------|-----------------|--------------|------------------o||
||---------------|-----------------|--------------|-------------------||
||--0---------0--|-(0)-------------|-0---------0--|-(0)---------------||
||o-0---0-0-0-0--|-(0)-0-0-0-0-0---|-0---0-0-0-0--|-(0)-0-0-0-0-0----o||
||--0---0-0-0-0--|-(0)-0-0-0-0-0---|-0---0-0-0-0--|-(0)-0-0-0-0-0-----||


  D5
       PM--|           PM------|            PM--|           PM------|
|---------------|------------------|-----------------|------------------
|---------------|------------------|-----------------|------------------
|---------------|------------------|-----------------|------------------
|--0---------0--|--(0)-------------|---0----------0--|--(0)-------------
|--0---0-0-0-0--|--(0)-0-0-0-0-0---|---0----0-0-0-0--|--(0)-0-0-0-0-0---
|--0---0-0-0-0--|--(0)-0-0-0-0-0---|---0----0-0-0-0--|--(0)-0-0-0-0-0---
|
| Gtr III
|                                      ~~~~~~~~~~~~~~~~~~~~~
|---------------|------------------|-----------------|------------------
|---------------|------------------|-----------------|------------------
|-10------------|-(10)-------------|-(10)------------|-(10)-------------
|---------------|------------------|-----------------|------------------
|--8------------|--(8)-------------|--(8)------------|--(8)-------------
|---------------|------------------|-----------------|------------------


  D5
         PM--|           PM------|            PM--|           PM------|
|-----------------|------------------|-----------------|------------------||
|-----------------|------------------|-----------------|------------------||
|-----------------|------------------|-----------------|------------------||
|---0----------0--|--(0)-------------|---0----------0--|--(0)-------------||
|---0----0-0-0-0--|--(0)-0-0-0-0-0---|---0----0-0-0-0--|--(0)-0-0-0-0-0---||
|---0----0-0-0-0--|--(0)-0-0-0-0-0---|---0----0-0-0-0--|--(0)-0-0-0-0-0---||
|
|   ~~~~~~~~~~~~~~~~~~~~~~~~~~~~~~~~~~~~~~~~~~~~~~~~~~~~~~~~~~
|-----------------|------------------|-----------------|------------------||
|-----------------|------------------|-----------------|------------------||
|-(10)------------|-(10)-------------|-(10)------------|-(10)-------------||
|-----------------|------------------|-----------------|------------------||
|--(8)------------|--(8)-------------|--(8)------------|--(8)-------------||
|-----------------|------------------|-----------------|------------------||


   Pre-Verse
    D5
    Gtr I
||---------------------|--------------------|
||o--------------------|--------------------|
||---------------------|--------------------|
||------------------7--|--8-----7-----------|
||o-/8-----10----------|----------------10--|
||---------------------|--------------------|
|
|   Gtr II
||---------------------|--------------------|
||o--------------------|--------------------|
||---------------------|--------------------|
||------------------3--|-/5-----3-----------|
||o--5------7----------|-----------------7--|
||---------------------|--------------------|
|
|   Gtr III
||---------------------|--------------------|
||o--------------------|--------------------|
||---7-7-7--7-(7)-7-7--|--7-7-7-7-(7)-7--7--|
||---7-7-7--7-(7)-7-7--|--7-7-7-7-(7)-7--7--|
||o--5-5-5--5-(5)-5-5--|--5-5-5-5-(5)-5--5--|
||---------------------|--------------------|


  C5
|--------------------|----------------------|
|--------------------|----------------------|
|--------------------|----------------------|
|-------/10-------8--|-7-----8-------/10----|
|-7------------------|----------------------|
|--------------------|----------------------|
|
|--------------------|----------------------|
|--------------------|----------------------|
|--------------------|----------------------|
|--------/7-------5--|-3-----5---------7\---|
|-3------------------|----------------------|
|--------------------|----------------------|
|
|--------------------|----------------------|
|--------------------|----------------------|
|-5-5-5---5-(5)-5-5--|-5-5-5-5-(5)-5---5----|
|-5-5-5---5-(5)-5-5--|-5-5-5-5-(5)-5---5----|
|-3-3-3---3-(3)-3-3--|-3-3-3-3-(3)-3---3----|
|--------------------|----------------------|


  Bb5
|-------------------|--------------------|
|-------------------|--------------------|
|-------------------|--------------------|
|----------------7--|-/8-----7-----------|
|-8-----10----------|----------------10--|
|-------------------|--------------------|
|
|-------------------|--------------------|
|-------------------|--------------------|
|-------------------|--------------------|
|----------------3--|-/5-----3-----------|
|-5------7----------|-----------------7--|
|-------------------|--------------------|
|
|-------------------|--------------------|
|-------------------|--------------------|
|-3-3-3--3-(3)-3-3--|--3-3-3-3-(3)-3--3--|
|-3-3-3--3-(3)-3-3--|--3-3-3-3-(3)-3--3--|
|-1-1-1--1-(1)-1-1--|--1-1-1-1-(1)-1--1--|
|-------------------|--------------------|


                     C5
|------------------|-------------------||
|------------------|------------------o||
|------------------|-------------------||
|-------5-------7--|-------5-------7---||
|-5----------------|-7----------------o||
|------------------|-------------------||
|
|------------------|-------------------||
|------------------|------------------o||
|------------------|-------------------||
|-------2-------3--|-------2-------3---||
|-1----------------|-3----------------o||
|------------------|-------------------||
|
|------------------|-------------------||
|------------------|------------------o||
|-3-3-3-3-(3)-3-3--|-5-5-5-5-(5)-5-5---||
|-3-3-3-3-(3)-3-3--|-5-5-5-5-(5)-5-5---||
|-1-1-1-1-(1)-1-1--|-3-3-3-3-(3)-3-3--o||
|------------------|-------------------||


   Verse
    $
    D5                                F5        D5  C/E
    Gtrs I, II
        PM--|          PM--|    PM|
||---------------|------------------|-------------|--------------|
||o--------------|------------------|-------------|--------------|
||---------------|------------------|-------------|--------------|
||--0---------0--|-(0)-------0------|-3----3--3p0-|-2----2--2-2--|
||o-0---0-0-0-0--|-(0)-0-0-0-0--0-0-|-3----3--3p0-|-3----3--3-3--|
||--0---0-0-0-0--|-(0)-0-0-0-0--0-0-|-3----3--3p0-|-2----2--2-2--|


  Bb5                               F5        D5  C/E
      PM--|          PM--|    PM|
|--------------|------------------|-------------|--------------||
|--------------|------------------|-------------|-------------o||
|--------------|------------------|-------------|--------------||
|-8---------8--|-(8)-------8------|-3----3--3p0-|-2----2--2-2--||
|-8---8-8-8-8--|-(8)-8-8-8-8--8-8-|-3----3--3p0-|-3----3--3-3-o||
|-8---8-8-8-8--|-(8)-8-8-8-8--8-8-|-3----3--3p0-|-2----2--2-2--||


 Pre-Chorus
  D5                          Bb5
  Gtrs I, II
|-------------|-------------|-------------|-------------|
|-------------|-------------|-------------|-------------|
|-------------|-------------|-------------|-------------|
|-0---0---0-0-|-0----0--0-0-|-8---8---8-8-|-8----8--8-8-|
|-0---0---0-0-|-0----0--0-0-|-8---8---8-8-|-8----8--8-8-|
|-0---0---0-0-|-0----0--0-0-|-8---8---8-8-|-8----8--8-8-|


  F5                          C/E
|-------------|-------------|-------------|-------------|
|-------------|-------------|-------------|-------------|
|-------------|-------------|-------------|-------------|
|-3---3---3-3-|-3----3--3-3-|-2---2---2-2-|-2----2--2-2-|
|-3---3---3-3-|-3----3--3-3-|-3---3---3-3-|-3----3--3-3-|
|-3---3---3-3-|-3----3--3-3-|-2---2---2-2-|-2----2--2-2-|


  D5                          Bb5
|-------------|-------------|-------------|-------------|
|-------------|-------------|-------------|-------------|
|-------------|-------------|-------------|-------------|
|-0---0---0-0-|-0----0--0-0-|-8---8---8-8-|-8----8--8-8-|
|-0---0---0-0-|-0----0--0-0-|-8---8---8-8-|-8----8--8-8-|
|-0---0---0-0-|-0----0--0-0-|-8---8---8-8-|-8----8--8-8-|


  F5                          A/Db
|-------------|-------------|-----------------|-----------------||
|-------------|-------------|-----------------|-----------------||
|-------------|-------------|-----------------|-----------------||
|-3---3---3-3-|-3----3--3-3-|-11---11---11-11-|-11----11--11-11-||
|-3---3---3-3-|-3----3--3-3-|-12---12---12-12-|-12----12--12-12-||
|-3---3---3-3-|-3----3--3-3-|-11---11---11-11-|-11----11--11-11-||


 Chorus
  D5                 C5
  Gtrs I, II
|-----------------------|-------------------------------|
|-----------------------|-------------------------------|
|-----------------------|-------------------------------|
|-12--12-----12------10-|-(10)-10-10-10-(10)-10-10-(10)-|
|-12--12-----12------10-|-(10)-10-10-10-(10)-10-10-(10)-|
|-12--12-----12------10-|-(10)-10-10-10-(10)-10-10-(10)-|
|
| Gtr III
|-----------------------|-------------------------------|
|-10--10--10-10-(10)--8-|--(8)-----5------5------5------|
|--x---x---x--x-------x-|----------x------x------x------|
|--7---7---7--7--(7)--5-|--(5)-----2------2------2------|
|-----------------------|-------------------------------|
|-----------------------|-------------------------------|


  Bb5           C5
|------------------|------------------------------|
|------------------|------------------------------|
|------------------|------------------------------|
|-8--8----8-----10-|-(10)-10-10-10-(10)10-10-(10)-|
|-8--8----8-----10-|-(10)-10-10-10-(10)10-10-(10)-|
|-8--8----8-----10-|-(10)-10-10-10-(10)10-10-(10)-|
|
|------------------|------------------------------|
|-6--6--6-6-(6)--8-|--(8)----10-----10s11-10------|
|-x--x--x-x------x-|----------x------x-----x------|
|-3--3--3-3-(3)--5-|--(5)-----7------7s=8--7------|
|------------------|------------------------------|
|------------------|------------------------------|


  D5                 C5
|-----------------------|-------------------------------|
|-----------------------|-------------------------------|
|-----------------------|-------------------------------|
|-12--12-----12------10-|-(10)-10-10-10-(10)-10-10-(10)-|
|-12--12-----12------10-|-(10)-10-10-10-(10)-10-10-(10)-|
|-12--12-----12------10-|-(10)-10-10-10-(10)-10-10-(10)-|
|
|-----------------------|-------------------------------|
|-10--10--10-10-(10)--8-|--(8)-----5------5------5------|
|--x---x---x--x-------x-|----------x------x------x------|
|--7---7---7--7--(7)--5-|--(5)-----2------2------2------|
|-----------------------|-------------------------------|
|-----------------------|-------------------------------|


  Bb5           C5
|------------------|-------------------------------|
|------------------|-------------------------------|
|------------------|-------------------------------|
|-8--8----8-----10-|-(10)-10-10-10-(10)-10-10-(10)-|
|-8--8----8-----10-|-(10)-10-10-10-(10)-10-10-(10)-|
|-8--8----8-----10-|-(10)-10-10-10-(10)-10-10-(10)-|
|
|------------------|-------------------------------|
|-6--6--6-6-(6)--5-|--(5)-----5------5------5------|
|-x--x--x-x------x-|----------x------x------x------|
|-3--3--3-3-(3)--2-|--(2)-----2------2------2------|
|------------------|-------------------------------|
|------------------|-------------------------------|


  A5
     PM------------------------------------------------------------------|
|----------------|-------------------|-----------------|-------------------||
|----------------|-------------------|-----------------|-------------------||
|----------------|-------------------|-----------------|-------------------||
|-7--------------|-------------------|-----------------|-------------------||
|-7--7-7-7-7-7-7-|--7--7-7-7-7-7-7-7-|-7-7-7-7-7-7-7-7-|--7--7-7-7-7-7-7-7-||
|-7--7-7-7-7-7-7-|--7--7-7-7-7-7-7-7-|-7-7-7-7-7-7-7-7-|--7--7-7-7-7-7-7-7-||
|
|----------------|-------------------|-----------------|-------------------||
|----------------|-------------------|-----------------|-------------------||
|-6--------------|-(6)---------------|-6---------------|-(6)---------------||
|-x--------------|-------------------|-x---------------|-------------------||
|-4--------------|-(4)---------------|-4---------------|-(4)---------------||
|----------------|-------------------|-----------------|-------------------||


   Bridge
    D5                 C5          Bb5
    Gtr I
                                   ~
||-------------------|----------------|
||o--------------6---|-5--------------|
||-----------7-------|-----7---5---7--|
||------/7-----------|----------------|
||o------------------|----------------|
||-------------------|----------------|
|
|   Gtr II
|                                  ~
||---------------5---|----------------|
||o----------6-------|-8---6---5---6--|
||------/7-----------|----------------|
||-------------------|----------------|
||o------------------|----------------|
||-------------------|----------------|
|
|   Gtr III
||-------------------|----------------|
||o------------------|----------------|
||--7-7--7-7-7-7-7-7-|-5-5-5-5-5-5-3--|
||--7-7--7-7-7-7-7-7-|-5-5-5-5-5-5-3--|
||o-5-5--5-5-5-5-5-5-|-3-3-3-3-3-3-1--|
||-------------------|----------------|


                       C5
|--------------------|----------------------|
|----------------6---|-8---6---5h6p==5------|
|-(7)\-------7-------|-----------------5----|
|-------/7-----------|----------------------|
|--------------------|----------------------|
|--------------------|----------------------|
|
|----------------5---|-6---5---3h5p==3------|
|-(6)\-------6-------|-----------------5----|
|-------/7-----------|----------------------|
|--------------------|----------------------|
|--------------------|----------------------|
|--------------------|----------------------|
|
|--------------------|----------------------|
|--------------------|----------------------|
|-(3)----3-3-3-3-3-3-|-5-5-5-5-5---5---5-5--|
|-(3)----3-3-3-3-3-3-|-5-5-5-5-5---5---5-5--|
|-(1)----1-1-1-1-1-1-|-3-3-3-3-3---3---3-3--|
|--------------------|----------------------|


  D5                  C5          Bb5
                                   ~~~~
|-------------------|-----------------|
|---------------6---|-5---------------|
|-7\--------7-------|-----7---5-------|
|------/7-----------|-------------/8--|
|-------------------|-----------------|
|-------------------|-----------------|
|
|                                  ~~~~
|---------------5---|-----------------|
|-6\--------6-------|-8---6---5-------|
|------/7-----------|-------------/7--|
|-------------------|-----------------|
|-------------------|-----------------|
|-------------------|-----------------|
|
|-------------------|-----------------|
|-------------------|-----------------|
|-7--7--7-7-7-7-7-7-|-5-5-5-5-5-5--3--|
|-7--7--7-7-7-7-7-7-|-5-5-5-5-5-5--3--|
|-5--5--5-5-5-5-5-5-|-3-3-3-3-3-3--1--|
|-------------------|-----------------|


                             D.S. al Coda
                             D.S. al Coda
               C5
 ~~~~~     ~                   ~~
|------------------|------------------------||
|----------6-------|------5----6----(6)\---o||
|------7-------/5--|-(5)--------------------||
|-(8)--------------|------------------------||
|------------------|-----------------------o||
|------------------|------------------------||
|
|~~~~~     ~                   ~~
|----------5-------|------------------------||
|------6-----------|------8---10---(10)\---o||
|-(7)----------/9--|-(9)--------------------||
|------------------|------------------------||
|------------------|-----------------------o||
|------------------|------------------------||
|
|------------------|------------------------||
|------------------|-----------------------o||
|-(3)--3-3-3-3--5--|-(5)--5-5--5-5---5---5--||
|-(3)--3-3-3-3--5--|-(5)--5-5--5-5---5---5--||
|-(1)--1-1-1-1--3--|-(3)--3-3--3-3---3---3-o||
|------------------|------------------------||


   Interlude
    &
    N.C. D5      N.C.   D5      N.C.
    Gtr I
         PM----|        PM----|
||--------------------|-------------------|
||o-------------------|-------------------|
||--------------------|-------------------|
||--------------------|-------------------|
||o------0-0-0-0------|-0-0-0-0-----------|
||--7s8\-0-0-0-0-7s8\-|-0-0-0-0-7s8\-6s7\-|
|
|   Gtr II
|        PM----|        PM----|
||--------------------|-------------------|
||o-------------------|-------------------|
||--------------------|-------------------|
||--------------------|-------------------|
||o-3s4\-0-0-0-0-3s4\-|-0-0-0-0-3s4\-2s3\-|
||-------0-0-0-0------|-0-0-0-0-----------|


       D5      N.C.   D5      N.C.
       PM----|        PM----|
|-------------------|---------------------||
|-------------------|--------------------o||
|-------------------|---------------------||
|-------------------|---------------------||
|------0-0-0-0------|-0-0-0-0------------o||
|-7s8\-0-0-0-0-7s8\-|-0-0-0-0-7s8\-6s7\---||
|
|      PM----|        PM----|
|-------------------|---------------------||
|-------------------|--------------------o||
|-------------------|---------------------||
|-------------------|---------------------||
|-3s4\-0-0-0-0-3s4\-|-0-0-0-0-3s4\-2s3\--o||
|------0-0-0-0------|-0-0-0-0-------------||


   Re-Intro
    D5  E5  F5                D5  A5  Bb5
    Gtrs I, II
||-------------|------------|------------|---------||
||o------------|------------|------------|--------o||
||-------------|------------|------------|---------||
||--0---2---3--|-(3)--------|-0---7---8--|-(8)-----||
||o-0---2---3--|-(3)--------|-0---7---8--|-(8)----o||
||--0---2---3--|-(3)--------|-0---7---8--|-(8)-----||


   Breakdown
    Half-Time Eighth Feel Q=94
    Dm                        A5        G5A5
   6/8
    Gtrs I, II
||--------------------------|---------------|
||o-------------------------|---------------|
||--10-10-10-10-10-10-10-10-|-9-9-9-9-9-7-9-|
||---0--0--0--0--0--0--0--0-|-7-7-7-7-7-5-7-|
||o--0--0--0--0--0--0--0--0-|-7-7-7-7-7-5-7-|
||---0--0--0--0--0--0--0--0-|-7-7-7-7-7-5-7-|


  Bb5                       F6      E6
                                             4x
|-------------------------|------------------||
|-------------------------|-----------------o||
|-10-10-10-10-10-10-10-10-|-7-7-7-7-6-6-6-6--||
|--8--8--8--8--8--8--8--8-|-3-3-3-3-2-2-2-2--||
|--8--8--8--8--8--8--8--8-|-5-5-5-5-4-4-4-4-o||
|--8--8--8--8--8--8--8--8-|-3-3-3-3-2-2-2-2--||


   Guitar Break
    a Tempo Q=187
    D5
   4/4
    Gtr I
||---------------------|--------------------|
||o--------------------|--------------------|
||---------------------|--------------------|
||------------------7--|-/8-----7-----------|
||o-/8-----10----------|----------------10--|
||---------------------|--------------------|
|
|   Gtr II
||---------------------|--------------------|
||o--------------------|--------------------|
||---------------------|--------------------|
||---------------------|-/5-----------------|
||o--5------7-------8--|--------8--------7--|
||---------------------|--------------------|
|
|   Gtr III
||---------------------|--------------------|
||o--------------------|--------------------|
||---7-7-7--7-(7)-7-7--|--7-7-7-7-(7)-7--7--|
||---7-7-7--7-(7)-7-7--|--7-7-7-7-(7)-7--7--|
||o--5-5-5--5-(5)-5-5--|--5-5-5-5-(5)-5--5--|
||---------------------|--------------------|


  C5
|--------------------|----------------------|
|--------------------|----------------------|
|--------------------|----------------------|
|-------/10-------8--|-7-----8-------/10----|
|-7------------------|----------------------|
|--------------------|----------------------|
|
|--------------------|----------------------|
|--------------------|----------------------|
|--------------------|----------------------|
|--------/7-------5--|-------5---------7\---|
|-3------------------|-8--------------------|
|--------------------|----------------------|
|
|--------------------|----------------------|
|--------------------|----------------------|
|-5-5-5---5-(5)-5-5--|-5-5-5-5-(5)-5---5----|
|-5-5-5---5-(5)-5-5--|-5-5-5-5-(5)-5---5----|
|-3-3-3---3-(3)-3-3--|-3-3-3-3-(3)-3---3----|
|--------------------|----------------------|


  Bb5
|-------------------|--------------------|
|-------------------|--------------------|
|-------------------|--------------------|
|----------------7--|-/8-----7-----------|
|-8-----10----------|----------------10--|
|-------------------|--------------------|
|
|-------------------|--------------------|
|-------------------|--------------------|
|-------------------|--------------------|
|----------------3--|-/5-----3-----------|
|-5------7----------|-----------------7--|
|-------------------|--------------------|
|
|-------------------|--------------------|
|-------------------|--------------------|
|-3-3-3--3-(3)-3-3--|--3-3-3-3-(3)-3--3--|
|-3-3-3--3-(3)-3-3--|--3-3-3-3-(3)-3--3--|
|-1-1-1--1-(1)-1-1--|--1-1-1-1-(1)-1--1--|
|-------------------|--------------------|


                      D5
|-------------------|--------------------||
|-------------------|-------------------o||
|-------------------|--------------------||
|--------5-------7--|--------5-------7---||
|-/5----------------|-/7----------------o||
|-------------------|--------------------||
|
|-------------------|--------------------||
|-------------------|-------------------o||
|-------------------|--------------------||
|--------2-------3--|--------2-------3---||
|--1----------------|--3----------------o||
|-------------------|--------------------||
|
|-------------------|--------------------||
|-------------------|-------------------o||
|--3-3-3-3-(3)-3-3--|--5-5-5-5-(5)-5-5---||
|--3-3-3-3-(3)-3-3--|--5-5-5-5-(5)-5-5---||
|--1-1-1-1-(1)-1-1--|--3-3-3-3-(3)-3-3--o||
|-------------------|--------------------||


  D5 N.C.
  Gtrs I, II
|----------|-----||
|----------|-----||
|----------|-----||
|-0--------|-----||
|-0--------|-----||
|-0--------|-----||


 Guitar Solo
  D5
  Gtrs I, II
  PM------------|             PM--------------|
|--------------------|-----------------------------------------|
|--------------------|-----------------------------------------|
|--------------------|-----------------------------------------|
|--------------------|-----------------------------------------|
|-0-0-0-0-0-0--------|--------0------------0----0--------------|
|-0-0-0-0-0-0--------|--------0------------0----0--------------|
|
| Gtr III
|--------------------|-----------------------------------------|
|--------------------|-------13-(13)b17==(13)r(13)-------------|
|--------------------|----14-----------------------14-9-(9)b10r|
|-----------------10-|-12--------------------------------------|
|-------------0-8----|-----------------------------------------|
|--------------------|-----------------------------------------|


  F5
   PM--------------|                          PM----|
|------------------------|--------------------------------------|
|------------------------|--------------------------------------|
|------------------------|--------------------------------------|
|------------------------|--------------------------------------|
|--3--3-3-3-3-3----------|--------------------3---3--3----------|
|--3--3-3-3-3-3----------|--------------------3---3--3----------|
|
|  ~~~
|------------------12----|-15-(15)b17==(15)r(15)-12----------12-|
|---------------13----13-|--------------------------13----13----|
|-(9)--------------------|-----------------------------14-------|
|------------------------|--------------------------------------|
|------------------------|--------------------------------------|
|------------------------|--------------------------------------|


  Bb5
   PM----------------------|                       PM---|
|---------------------------------------|---------------------------------|
|---------------------------------------|---------------------------------|
|---------------------------------------|---------------------------------|
|---------------------------------------|---------------------------------|
|--8-8--8--8--8--8----------------------|----------8--8---8---------------|
|--8-8--8--8--8--8----------------------|----------8--8---8---------------|
|
|-13------------17-(17)b18r(17)-(17)b18r|=(17)-13-10----------------------|
|------15-------------------------------|------------10-(10)b12r(10)------|
|---------14-15-------------------------|----------------------------9-10-|
|---------------------------------------|---------------------------------|
|---------------------------------------|---------------------------------|
|---------------------------------------|---------------------------------|


  F5                         C/E
   PM--------------------------------------|
|--------------------------|-----------------------------------|
|--------------------------|-----------------------------------|
|--------------------------|-----------------------------------|
|--------------------------|-----------------------------------|
|--3-3--3--3--3-3----------|--3-3--3--3--3--3------------------|
|--3-3--3--3--3-3----------|--2-2--2--2--2--2------------------|
|
|-13---12---------------13-|-15---13-12------------------------|
|---------10---------10----|------------13---------------------|
|------------10-9-10-------|---------------12b14==(12)r(12)-9--|
|--------------------------|-----------------------------------|
|--------------------------|-----------------------------------|
|--------------------------|-----------------------------------|


  D5
   PM----------------|             PM--------------|
|-------------------------|-----------------------------------------|
|-------------------------|-----------------------------------------|
|-------------------------|-----------------------------------------|
|-------------------------|-----------------------------------------|
|--0-0-0---0---0-0--------|--------0------------0----0--------------|
|--0-0-0---0---0-0--------|--------0------------0----0--------------|
|
|  ~~
|-------------------------|-----------------------------------------|
|-------------------------|-------13-(13)b17==(13)r(13)-------------|
|-10-----(10)\------------|----14-----------------------14-9-(9)b10r|
|----------------------10-|-12--------------------------------------|
|------------------0-8----|-----------------------------------------|
|-------------------------|-----------------------------------------|


  F5
   PM--------------|                          PM----|
|------------------------|--------------------------------------|
|------------------------|--------------------------------------|
|------------------------|--------------------------------------|
|------------------------|--------------------------------------|
|--3--3-3-3-3-3----------|--------------------3---3--3----------|
|--3--3-3-3-3-3----------|--------------------3---3--3----------|
|
|  ~~~
|------------------12----|-15-(15)b17==(15)r(15)-12----------12-|
|---------------13----13-|--------------------------13----13----|
|-(9)--------------------|-----------------------------14-------|
|------------------------|--------------------------------------|
|------------------------|--------------------------------------|
|------------------------|--------------------------------------|


  Bb5
   PM----------------------|                       PM---|
|---------------------------------------|---------------------------------|
|---------------------------------------|---------------------------------|
|---------------------------------------|---------------------------------|
|---------------------------------------|---------------------------------|
|--8-8--8--8--8--8----------------------|----------8--8---8---------------|
|--8-8--8--8--8--8----------------------|----------8--8---8---------------|
|
|-13------------17-(17)b18r(17)-(17)b18r|=(17)-13-10----------------------|
|------15-------------------------------|------------10-(10)b12r(10)------|
|---------14-15-------------------------|----------------------------9-10-|
|---------------------------------------|---------------------------------|
|---------------------------------------|---------------------------------|
|---------------------------------------|---------------------------------|


  F5                         C/E
   PM--------------------------------------|
|--------------------------|---------------------------------||
|--------------------------|---------------------------------||
|--------------------------|---------------------------------||
|--------------------------|---------------------------------||
|--3-3--3--3--3-3----------|--3-3--3--3--3--3----------------||
|--3-3--3--3--3-3----------|--2-2--2--2--2--2----------------||
|
|-13---12---------------13-|-15---13-12----15-13-12------10--||
|---------10---------10----|------------13------------10-----||
|------------10-9-10-------|------------------------9--------||
|--------------------------|---------------------------------||
|--------------------------|---------------------------------||
|--------------------------|---------------------------------||


 Outro
  Half-Time Eighth Feel Q=94
  Dm                                A5                  G5A5
 6/8
|---------------------------------|-------------------------|
|---------------------------------|-------------------------|
|-10----10-10-10-10------10-10-10-|---9------9-9-9---9--7-9-|
|--0-----0--0--0--0-------0--0--0-|---7------7-7-7---7--5-7-|
|--0-----0--0--0--0-------0--0--0-|---7------7-7-7---7--5-7-|
|--0-----0--0--0--0-------0--0--0-|---7------7-7-7---7--5-7-|
|
|                                                    ~~~~~~~~
|----------------15pb16========15-|-(15)b17========(15)r====|
|------------------------15-------|-------------------------|
|-17b19---------------------------|-------------------------|
|---------------------------------|-------------------------|
|---------------------------------|-------------------------|
|---------------------------------|-------------------------|


  Bb5                         F6          E6
|---------------------------|------------------------|
|---------------------------|------------------------|
|--10--10-10-10-10-10-10-10-|---7---7-7-7--6--6-6--6-|
|---8---8--8--8--8--8--8--8-|---3---3-3-3--2--2-2--2-|
|---8---8--8--8--8--8--8--8-|---5---5-5-5--4--4-4--4-|
|---8---8--8--8--8--8--8--8-|---3---3-3-3--2--2-2--2-|
|
|~~~~~~
|-(15)----------------------|-(15)\------------------|
|---------------------------|------------------------|
|---------------------------|-------------12-14---15-|
|---------------------------|--------------x--x----x-|
|---------------------------|-------------10-12---13-|
|---------------------------|------------------------|


  Dm                           A5          G5A5
|----------------------------|-----------------|
|----------------------------|-----------------|
|-10-10-10----10-10-10-10-10-|-9-9-9---9-9-7-9-|
|--0--0--0-----0--0--0--0--0-|-7-7-7---7-7-5-7-|
|--0--0--0-----0--0--0--0--0-|-7-7-7---7-7-5-7-|
|--0--0--0-----0--0--0--0--0-|-7-7-7---7-7-5-7-|
|
|----------------------------|-----------------|
|----------------------------|-----------------|
|-14-14-14-14-14-14-12----10-|-9-9-9-9-9-9-7-9-|
|--x--x--x--x--x--x--x-----x-|-x-x-x-x-x-x-x-x-|
|-12-12-12-12-12-12-10-----8-|-7-7-7-7-7-7-5-7-|
|----------------------------|-----------------|


  Bb5                           F6             E6
|-----------------------------|--------------------------------|
|-----------------------------|--------------------------------|
|-10-10-10---10-10-10-10-10---|--7--7--7-----7--6--6--6--6-----|
|--8--8--8----8--8--8--8--8---|--3--3--3-----3--2--2--2--2-----|
|--8--8--8----8--8--8--8--8---|--5--5--5-----5--4--4--4--4-----|
|--8--8--8----8--8--8--8--8---|--3--3--3-----3--2--2--2--2-----|
|
|-----------------------------|--------------------------------|
|-----------------------------|--------------------------------|
|--7--7--7-7--7--7--7--7--7-7-|-10-10-10-10-10-12-12-12-12-12--|
|--x--x--x-x--x--x--x--x--x-x-|--x--x--x--x--x--x--x--x--x--x--|
|--5--5--5-5--5--5--5--5--5-5-|--8--8--8--8--8-10-10-10-10-10--|
|-----------------------------|--------------------------------|


  Dm                              A5          G5 A5
|-------------------------------|------------------|
|-------------------------------|------------------|
|-10-10-10----10-10-10-10-10----|-9-9-9---9-9--7-9-|
|--0--0--0-----0--0--0--0--0----|-7-7-7---7-7--5-7-|
|--0--0--0-----0--0--0--0--0----|-7-7-7---7-7--5-7-|
|--0--0--0-----0--0--0--0--0----|-7-7-7---7-7--5-7-|
|
|-------------------------------|------------------|
|-------------------------------|------------------|
|-10-10-10-10-10-10-10-10-10-10-|-9-9-9-9-9-9-12-9-|
|--x--x--x--x--x--x--x--x--x--x-|-x-x-x-x-x-x--x-x-|
|--8--8--8--8--8--8--8--8--8--8-|-7-7-7-7-7-7-10-7-|
|-------------------------------|------------------|


  Bb5                             F6             E6
|-------------------------------|----------------------------|
|-------------------------------|----------------------------|
|-10-10-10----10-10-10-10-10----|--7--7--7-----7--6--6-6--6--|
|--8--8--8-----8--8--8--8--8----|--3--3--3-----3--2--2-2--2--|
|--8--8--8-----8--8--8--8--8----|--5--5--5-----5--4--4-4--4--|
|--8--8--8-----8--8--8--8--8----|--3--3--3-----3--2--2-2--2--|
|
|-------------------------------|----------------------------|
|-------------------------------|----------------------------|
|-10-10-10-10-10-10-10-10-10-10-|-14-14-14-14-14-12-14---15--|
|--x--x--x--x--x--x--x--x--x--x-|--x--x--x--x--x--x--x----x--|
|--8--8--8--8--8--8--8--8--8--8-|-12-12-12-12-12-10-12---13--|
|-------------------------------|----------------------------|


  Dm                           A5          G5A5
|----------------------------|-----------------|
|----------------------------|-----------------|
|-10-10-10----10-10-10-10-10-|-9-9-9---9-9-7-9-|
|--0--0--0-----0--0--0--0--0-|-7-7-7---7-7-5-7-|
|--0--0--0-----0--0--0--0--0-|-7-7-7---7-7-5-7-|
|--0--0--0-----0--0--0--0--0-|-7-7-7---7-7-5-7-|
|
|----------------------------|-----------------|
|----------------------------|-----------------|
|-14-14-14-14-14-14-12----10-|-9-9-9-9-9-9-7-9-|
|--x--x--x--x--x--x--x-----x-|-x-x-x-x-x-x-x-x-|
|-12-12-12-12-12-12-10-----8-|-7-7-7-7-7-7-5-7-|
|----------------------------|-----------------|


  Bb5                           F6             E6
|-----------------------------|---------------------------|
|-----------------------------|---------------------------|
|-10-10-10---10-10-10-10-10---|--7--7--7-----7-6-6-6-6----|
|--8--8--8----8--8--8--8--8---|--3--3--3-----3-2-2-2-2----|
|--8--8--8----8--8--8--8--8---|--5--5--5-----5-4-4-4-4----|
|--8--8--8----8--8--8--8--8---|--3--3--3-----3-2-2-2-2----|
|
|-----------------------------|---------------------------|
|-----------------------------|---------------------------|
|--7--7--7-7--7--7--7--7--7-7-|-10-10-10-10-10-9-9-9-9-9--|
|--x--x--x-x--x--x--x--x--x-x-|--x--x--x--x--x-x-x-x-x-x--|
|--5--5--5-5--5--5--5--5--5-5-|--8--8--8--8--8-7-7-7-7-7--|
|-----------------------------|---------------------------|


  Dm                              A5                G5 A5
|-------------------------------|-------------------------|
|-------------------------------|-------------------------|
|-10-10-10----10-10-10-10-10----|--9--9--9-----9--9--7--9-|
|--0--0--0-----0--0--0--0--0----|--7--7--7-----7--7--5--7-|
|--0--0--0-----0--0--0--0--0----|--7--7--7-----7--7--5--7-|
|--0--0--0-----0--0--0--0--0----|--7--7--7-----7--7--5--7-|
|
|-------------------------------|-------------------------|
|-------------------------------|-------------------------|
|-14-14-14-14-14-14-14-14-14-14-|-17-17-17-17-17-17-17-19-|
|--x--x--x--x--x--x--x--x--x--x-|--x--x--x--x--x--x--x--x-|
|-12-12-12-12-12-12-12-12-12-12-|-15-15-15-15-15-15-15-17-|
|-------------------------------|-------------------------|


  Bb5                             F6           E6
|-------------------------------|-------------------------|
|-------------------------------|-------------------------|
|-10-10-10----10-10-10-10-10----|--7--7-7----7--6--6-6-6--|
|--8--8--8-----8--8--8--8--8----|--3--3-3----3--2--2-2-2--|
|--8--8--8-----8--8--8--8--8----|--5--5-5----5--4--4-4-4--|
|--8--8--8-----8--8--8--8--8----|--3--3-3----3--2--2-2-2--|
|
|-------------------------------|-------------------------|
|-------------------------------|-------------------------|
|-10-10-10-10-10-10-10-10-10-10-|-14-12---10---12-10---9--|
|--x--x--x--x--x--x--x--x--x--x-|--x--x----x----x--x---x--|
|--8--8--8--8--8--8--8--8--8--8-|-12-10----8---10--8---7--|
|-------------------------------|-------------------------|


  Dm                              A5          G5  A5
|-------------------------------|---------------------|
|-------------------------------|---------------------|
|-10-10-10----10-10-10-10-10----|-9-9-9---9-9-7---9---|
|--0--0--0-----0--0--0--0--0----|-7-7-7---7-7-5---7---|
|--0--0--0-----0--0--0--0--0----|-7-7-7---7-7-5---7---|
|--0--0--0-----0--0--0--0--0----|-7-7-7---7-7-5---7---|
|
|-------------------------------|---------------------|
|-------------------------------|---------------------|
|-14-14-14-14-14-14-14-14-14-14-|-6-6-6-6-6-6-6-6-6-6-|
|--x--x--x--x--x--x--x--x--x--x-|-x-x-x-x-x-x-x-x-x-x-|
|-12-12-12-12-12-12-12-12-12-12-|-4-4-4-4-4-4-4-4-4-4-|
|-------------------------------|---------------------|


  Bb5                           F6        E6
|-----------------------------|----------------------|
|-----------------------------|----------------------|
|-10-10-10---10-10-10-10-10---|-7-7-7---7-6-6-6-6----|
|--8--8--8----8--8--8--8--8---|-3-3-3---3-2-2-2-2----|
|--8--8--8----8--8--8--8--8---|-5-5-5---5-4-4-4-4----|
|--8--8--8----8--8--8--8--8---|-3-3-3---3-2-2-2-2----|
|
|-----------------------------|----------------------|
|-----------------------------|----------------------|
|--3--3--3-3--3--3--3--3--3-3-|-7-7-7-7-7-6-6-6-6-6--|
|--x--x--x-x--x--x--x--x--x-x-|-x-x-x-x-x-x-x-x-x-x--|
|--1--1--1-1--1--1--1--1--1-1-|-5-5-5-5-5-4-4-4-4-4--|
|-----------------------------|----------------------|


  Dm                              A5          G5  A5
|-------------------------------|---------------------|
|-------------------------------|---------------------|
|-10-10-10----10-10-10-10-10----|-9-9-9---9-9-7---9---|
|--0--0--0-----0--0--0--0--0----|-7-7-7---7-7-5---7---|
|--0--0--0-----0--0--0--0--0----|-7-7-7---7-7-5---7---|
|--0--0--0-----0--0--0--0--0----|-7-7-7---7-7-5---7---|
|
|-------------------------------|---------------------|
|-------------------------------|---------------------|
|-10-10-10-10-10-10-10-10-10-10-|-9-9-9-9-9-9-9-9-9-9-|
|--x--x--x--x--x--x--x--x--x--x-|-x-x-x-x-x-x-x-x-x-x-|
|--8--8--8--8--8--8--8--8--8--8-|-7-7-7-7-7-7-7-7-7-7-|
|-------------------------------|---------------------|


  Bb5                             F6        E6
|-------------------------------|----------------------*|
|-------------------------------|----------------------*|
|-10-10-10----10-10-10-10-10----|-7-7-7---7-6-6-6-6----*|
|--8--8--8-----8--8--8--8--8----|-3-3-3---3-2-2-2-2----*|
|--8--8--8-----8--8--8--8--8----|-5-5-5---5-4-4-4-4----*|
|--8--8--8-----8--8--8--8--8----|-3-3-3---3-2-2-2-2----*|
|
|-------------------------------|----------------------*|
|-------------------------------|----------------------*|
|-10-10-10-10-10-10-10-10-10-10-|-7-7-7-7-7-6-6-6-6-6--*|
|--x--x--x--x--x--x--x--x--x--x-|-x-x-x-x-x-x-x-x-x-x--*|
|--8--8--8--8--8--8--8--8--8--8-|-5-5-5-5-5-4-4-4-4-4--*|
|-------------------------------|----------------------*|



4. REMENISSIONS


Gtr I (D A D G B E) - 'Left Ear'
Gtr II (D A D G B E) - 'Right Ear'
Gtr III (D A D G B E) - 'Neutral'
Gtr IV (D A D G B E) - 'Clean Guitar 1'
Gtr V (D A D G B E) - 'Clean Guitar 2'

 Intro
  Fast Rock Q=173
  D5 N.C.        D5 N.C.                 D5 N.C.        D5 N.C.
 4/4
  Gtrs I, II
|----------------------|---------------|----------------------|------||
|----------------------|---------------|----------------------|------||
|----------------------|---------------|----------------------|------||
|-------------------0--|----0----------|-------------------0--|------||
|-0--------------0-----|-1-----0-------|-0--------------0-----|-1----||
|-0--2b3.5-(2)b3-0-----|---------5-3-2-|-0--2b3.5-(2)b3-0-----|------||


  N.C.
  TP TP TP TP   TP TP TP TP   TP TP TP TP   TP TP ~
|-------------|-------------|-------------|------------|
|-------------|-------------|-------------|------------|
|-------------|-------------|-------------|------------|
|----------7--|-5-----------|----------5--|-------7----|
|-5--7--8-----|----8--7--5--|-4--5--7-----|-4--0-------|
|-------------|-------------|-------------|------------|


  N.C.
  TP TP TP TP   TP TP TP TP   TP TP TP TP   ~
|-------------|-------------|-------------|------|
|-------------|-------------|-------------|------|
|----------3--|-------------|-------------|------|
|----0--3-----|-3--0-----0--|-------2-----|-5----|
|-1-----------|-------1-----|-0--4-----4--|------|
|-------------|-------------|-------------|------|


  N.C.
  Gtr I
  TP TP TP TP   TP TP TP TP   TP TP TP TP   TP TP ~
|-------------|-------------|-------------|------------|
|-------------|-------------|-------------|------------|
|-------------|-------------|-------------|------------|
|----------7--|-5-----------|----------5--|-------7----|
|-5--7--8-----|----8--7--5--|-4--5--7-----|-4--0-------|
|-------------|-------------|-------------|------------|
|
| Gtr II
| TP TP TP TP   TP TP TP TP   TP TP TP TP   TP TP ~
|-------------|-------------|-------------|------------|
|-------------|-------------|-------------|------------|
|----------5--|-------------|-------------|------------|
|-7--5--7-----|-8--7--5-----|-------5--8--|------------|
|-------------|----------8--|-7--8--------|-7--4--4----|
|-------------|-------------|-------------|------------|


  N.C.
  TP TP TP TP   TP TP TP TP   TP TP TP TP   ~
|-------------|-------------|-------------|------||
|-------------|-------------|-------------|------||
|----------3--|-------------|-------------|------||
|----0--3-----|-3--0-----0--|-------2-----|-5----||
|-1-----------|-------1-----|-0--4-----4--|------||
|-------------|-------------|-------------|------||
|
| TP TP TP TP   TP TP TP TP   TP TP TP TP   ~
|-------------|-------------|-------------|------||
|-------------|-------------|-------------|------||
|----------7--|-------------|-------------|------||
|-------8-----|-8-----------|-------5-----|------||
|-5--8--------|----8--5--8--|-4--7-----4--|-7----||
|-------------|-------------|-------------|------||


 Pre-Verse
  Slower Q=88
  D5     Dsus2    D5     D6       D5     Dm6      Esus4
  PM---|          PM---|          PM---|
|---------------|---------------|---------------|-5----(5)----||
|--------5------|--------3------|--------2------|-5----(5)----||
|--------2------|--------3------|--------3------|-------------||
|--------0------|--------0------|--------0------|-------------||
|-0-0--0-0------|-0-0--0-0------|-0-0--0-0------|-------------||
|-0-0--0-0------|-0-0--0-0------|-0-0--0-0------|-------------||
|
| PM---|          PM---|          PM---|
|--------5------|--------5------|---------------|-5----(5)----||
|--------3------|--------5------|--------2------|-5----(5)----||
|--------2------|--------3------|--------3------|-3----(3)----||
|--------0------|--------0------|--------0------|-------------||
|-0-0--0-0------|-0-0--0-0------|-0-0--0-0------|-------------||
|-0-0--0-0------|-0-0--0-0------|-0-0--0-0------|-------------||


   Verse
    D5    F5E5D5            F5E5D5  BbN.C.        Bb5   N.C.
    Gtrs I, II
      PM|             PM--|           PM----| ~ PM      PM----| ~
||--------------------------------|--------------------------------|
||o-------------------------------|--------------------------------|
||--------------------------------|--------------------------------|
||--0-----3p2-0-0-(0)-------3p2-0-|-8-------------8-(8)------------|
||o-0-0-0-3p2-0-0-(0)-0-0-0-3p2-0-|-8---------5---8-(8)---------5--|
||--0-0-0-3p2-0-0-(0)-0-0-0-3p2-0-|-8-8-8-8-8---8-8-(8)-8-8-8-8----|


  C N.C.
    PM|                   PM|
|-----------------------------|
|-----------------------------|
|-----------------------------|
|-2-----5-3-2-0-(0)-2---------|
|-3-3-3---------------3-3-----|
|-------------------------5-5-|


                                             1.
  Bb5     G5          C5        A5            D5
    PM                    PM                  PM|
|-------------------------------------------|--------------------|
|-------------------------------------------|--------------------|
|-------------------------------------------|--------------------|
|-8---x-x-5-(5)-5-5-5-10----x-x-7-(7)-7-7-7-|------0--0--0S12\---|
|-8-8-x-x-5-(5)-5-5-5-10-10-x-x-7-(7)-7-7-7-|-0-0--0--0--0S12\---|
|-8-8-x-x-5-(5)-5-5-5-10-10-x-x-7-(7)-7-7-7-|-0-0--0--0--0S12\---|


  D5    F5E5D5            F5E5D5  BbN.C.        Bb5   N.C.
    PM|             PM--|           PM----| ~ PM      PM----| ~
|-------------------------------|--------------------------------|
|-------------------------------|--------------------------------|
|-------------------------------|--------------------------------|
|-0-----3p2-0-0-(0)-------3p2-0-|-8-------------8-(8)------------|
|-0-0-0-3p2-0-0-(0)-0-0-0-3p2-0-|-8---------5---8-(8)---------5--|
|-0-0-0-3p2-0-0-(0)-0-0-0-3p2-0-|-8-8-8-8-8---8-8-(8)-8-8-8-8----|


  C N.C.                        Bb5     G5          C5        A5
    PM|                   PM|     PM                    PM
|-----------------------------|---------------------------------------------||
|-----------------------------|--------------------------------------------o||
|-----------------------------|---------------------------------------------||
|-2-----5-3-2-0-(0)-2---------|-8---x-x-5-(5)-5-5-5-10----x-x-7-(7)-7-7-7---||
|-3-3-3---------------3-3-----|-8-8-x-x-5-(5)-5-5-5-10-10-x-x-7-(7)-7-7-7--o||
|-------------------------5-5-|-8-8-x-x-5-(5)-5-5-5-10-10-x-x-7-(7)-7-7-7---||


 Bridge
  2.
  N.C.  D5                          N.C.  D5
                                   5/4
        PM----------------------|         PM--------------------------------|
|-10-11---------------------------|-10-11--------------------------------------|
|-15-15---------------------------|-15-15--------------------------------------|
|---------------------------------|--------------------------------------------|
|---------------------------------|--------------------------------------------|
|-------0-0-0-(0)-0-0-0-(0)-0-0-0-|-------0-0-0-(0)-0-0-0-(0)-0-0-0-(0)-0-0-0--|
|-------0-0-0-(0)-0-0-0-(0)-0-0-0-|-------0-0-0-(0)-0-0-0-(0)-0-0-0-(0)-0-0-0--|


  N.C.  D5                          N.C.  D5
 4/4
        PM----------------------|         PM--------------------|
|-10-11---------------------------|-10-11-------------------------||
|-15-15---------------------------|-15-15-------------------------||
|---------------------------------|-------------------------------||
|---------------------------------|-------------------------------||
|-------0-0-0-(0)-0-0-0-(0)-0-0-0-|-------0-0-0-(0)-0-0-0-0-0-0-0-||
|-------0-0-0-(0)-0-0-0-(0)-0-0-0-|-------0-0-0-(0)-0-0-0-0-0-0-0-||


    D5         Bb5        G5         C5
||-----------|----------|----------|--------||
||o----------|----------|----------|-------o||
||-----------|----------|----------|--------||
||--0--------|-8--------|-5--------|-10-----||
||o-0--------|-8--------|-5--------|-10----o||
||--0--------|-8--------|-5--------|-10-----||


 Guitar Break
  N.C.
  Gtr IV
|-------------------------------------|-------------------------------------|
|-------6-(6)-------6-----6-(6)-------|-------8-(8)-------8-----8-(8)-------|
|-----7-------7-------7---------7-----|-------------7-------7---------7-----|
|---7-----------7-------7---------7---|-----5---------5-------5---------5---|
|-5---------------5-----------------5-|---5-------------5-----------------5-|
|-------------------------------------|-5-----------------------------------|
|
| Gtr V
|-5-----------------------------5-----|-6-----------------------5-----6-----|
|-------------------6-----8-----------|-------------------8-----------------|
|-------------------------------------|-------------------------------------|
|-------------------------------------|-------------------------------------|
|-------------------------------------|-------------------------------------|
|-------------------------------------|-------------------------------------|


  N.C.
|---------------------------------------|
|-------3---(3)-------3---------3-------|
|-----0---------0-------0---------0-----|
|---2-------------2-------2---------2---|
|-3-----------------3-------3---------3-|
|---------------------------------------|
|
|-----8---------------------------------|
|-5-6---5h6p=5----6-5-------------------|
|---------------7-----5-------5h7p==5---|
|---------------------------------------|
|---------------------------------------|
|---------------------------------------|


|-------0---(0)---------------3-(3)---0------|
|---------------2-----------------------2----|
|-----2-----------2---------0----------------|
|---2---------------2-----2---------------2--|
|-0---------------------4--------------------|
|--------------------------------------------|
|
|-------------------9------------------------|
|-------5-6--8--------8----------8--5--------|
|-----------------------9-----6-------6------|
|---------------------------------------5h7--|
|--------------------------------------------|
|--------------------------------------------|


  N.C.
|------------------------------------------|
|-------6---(6)--------6------6-(6)--------|
|-----7---------7--------7-----------7-----|
|---7-------------7--------7-----------7---|
|-5-----------------5--------------------5-|
|------------------------------------------|
|
|---------------------10-----12-----13-----|
|-3s5---5h6--5---------6------8-----10-----|
|---------------7--------------------------|
|------------------------------------------|
|------------------------------------------|
|------------------------------------------|


|------------------------------------------|
|--------8-(8)--------8------8-(8)---------|
|--------------7--------7-----------7------|
|------5---------5--------5-----------5----|
|----5-------------5--------------------5--|
|--5---------------------------------------|
|
|-10-----------------10-----12-----13------|
|-11-----------------11------8-----10------|
|------------------------------------------|
|------------------------------------------|
|------------------------------------------|
|------------------------------------------|


  N.C.
|--------------------------------------|
|--------3-(3)---------3-------3-------|
|------0-------0---------0-------0-----|
|----2-----------2---------2-------2---|
|--3---------------3---------3-------3-|
|--------------------------------------|
|
|-12-----------------------------------|
|--8---------------6-3-5---5-6-5---5-6-|
|------------------------7-------7-----|
|--------------------------------------|
|--------------------------------------|
|--------------------------------------|


|-------0-(0)---------------3-(3)------0------||
|-------------2--------------------------2----||
|-----2---------2--------0--------------------||
|---2-------------2----2--------------------2-||
|-0-----------------4-------------------------||
|---------------------------------------------||
|
|---5--------------------9-10--9h10p9---------||
|-8-----8-----5-----8-10----------------------||
|-----5----6----6---------------------10-9----||
|-----------------7------------------------11-||
|---------------------------------------------||
|---------------------------------------------||


   Bridge
    D5                              G5
    Gtrs I, II
      PM------------------------|     PM------------------------|
||--------------------------------|--------------------------------|
||o-------------------------------|--------------------------------|
||--------------------------------|--------------------------------|
||--0-----------------------------|-5------------------------------|
||o-0-0-0-0-0-0-0-0-0-0-0-0-0-0-0-|-5-5-5-5-5-5-5-5-5-5-5-5-5-5-5--|
||--0-0-0-0-0-0-0-0-0-0-0-0-0-0-0-|-5-5-5-5-5-5-5-5-5-5-5-5-5-5-5--|


  1.
  C5                                             F5            A5
      PM------------------------------------|      PM--------|   PM--------|
|----------------------------------------------|------------------------------||
|----------------------------------------------|-----------------------------o||
|----------------------------------------------|------------------------------||
|-10-------------------------------------------|-3-------------7--------------||
|-10-10-10-10-10-10-10-10-10-10-10-10-10-10-10-|-3-3-3-3-3-3-3-7-7-7-7-7-7-7-o||
|-10-10-10-10-10-10-10-10-10-10-10-10-10-10-10-|-3-3-3-3-3-3-3-7-7-7-7-7-7-7--||


  2.
  C5                                             Bb5   C5
      PM------------------------------------|
|----------------------------------------------|---------------|
|----------------------------------------------|---------------|
|----------------------------------------------|---------------|
|-10-------------------------------------------|-8---8-10---10-|
|-10-10-10-10-10-10-10-10-10-10-10-10-10-10-10-|-8---8-10---10-|
|-10-10-10-10-10-10-10-10-10-10-10-10-10-10-10-|-8---8-10---10-|


  D5                                                        Bb5    C5
|---------------------------------------------------------|-----------------||
|---------------------------------------------------------|-----------------||
|---------------------------------------------------------|-----------------||
|-12-12-x-x-x-x-12-12-x-x-x-x-12-12-x-x-x-x-12-12-x-x-x-x-|-8-8----10-10----||
|-12-12-x-x-x-x-12-12-x-x-x-x-12-12-x-x-x-x-12-12-x-x-x-x-|-8-8----10-10----||
|-12-12-x-x-x-x-12-12-x-x-x-x-12-12-x-x-x-x-12-12-x-x-x-x-|-8-8----10-10----||


   Chorus
    D5N.C.          Bb5           C5          F5  D5C/E
||------------------------------|--------------------------|
||o-----------------------------|--------------------------|
||--7---------------3-3-3-3-3-3-|-5-5-5-5-5-5--------------|
||--7---------------3-3-3-3-3-3-|-5-5-5-5-5-5-3-3---2-2-2--|
||o-5-5-5-7-8-7-5-0-1-1-1-1-1-1-|-3-3-3-3-3-3-3-3-0-3-3-3--|
||------------------------------|-------------3-3-0-2-2-2--|


  1.
  D5N.C.          Bb5           C5          F5    D5C5
|-----------------------------|----------------------------||
|-----------------------------|---------------------------o||
|-7---------------3-3-3-3-3-3-|-5-5-5-5-5-5-10-10---5-5-5--||
|-7---------------3-3-3-3-3-3-|-5-5-5-5-5-5-10-10-0-5-5-5--||
|-5-5-5-7-8-7-5-0-1-1-1-1-1-1-|-3-3-3-3-3-3--8--8-0-3-3-3-o||
|-----------------------------|----------------------------||


  2.
  D5N.C.          Bb5           C5      A5C5D5     N.C.
                                                      2/4
|-----------------------------|----------------------|-----||
|-----------------------------|----------------------|-----||
|-7---------------3-3-3-3-3-3-|-5-5-5-5-2-5-7-(7)\---|-----||
|-7---------------3-3-3-3-3-3-|-5-5-5-5-2-5-7-(7)\---|-----||
|-5-5-5-7-8-7-5-0-1-1-1-1-1-1-|-3-3-3-3-0-3-5-(5)\---|-----||
|-----------------------------|----------------------|-----||


    N.C.
   4/4
    Gtr I
||----------------------------|-------------------------------|
||o---------------------------|-------------------------------|
||--7-7-x-5-5-x--3--3-x-2-2-x-|-3-3-3-3-3-3--3--3--3--3--3--3-|
||--x-x-x-x-x-x--x--x-x-x-x-x-|-x-x-x-x-x-x--x--x--x--x--x--x-|
||o-5-5-x-3-3-x--1--1-x-0-0-x-|-1-1-1-1-1-1--1--1--1--1--1--1-|
||----------------------------|-------------------------------|
|
|   Gtr II
||----------------------------|-------------------------------|
||o---------------------------|-------------------------------|
||--7-7-x-9-9-x-10-10-x-9-9-x-|-3-3-3S7-7-7S10-10-10S15-15-15-|
||--x-x-x-x-x-x--x--x-x-x-x-x-|-x-x-xSx-x-xS=x--x--xS=x--x--x-|
||o-5-5-x-7-7-x--8--8-x-7-7-x-|-1-1-1S5-5-5S=8--8--8S13-13-13-|
||----------------------------|-------------------------------|


  A5
|--------------------------------||
|-------------------------------o||
|-2-2-2S=6--6-6S9-9-9S14-14-14---||
|-x-x-xS=x--x-xSx-x-xS=x--x--x---||
|-0-0-0S=4--4-4S7-7-7S12-12-12--o||
|--------------------------------||
|
|--------------------------------||
|-------------------------------o||
|-2-2---(2)----------------------||
|-2-2---(2)----------------------||
|-0-0---(0)---------------------o||
|--------------------------------||


  C5                       Bb5                   A5         N.C.
|------------------------|---------------------|----------|--------||
|------------------------|---------------------|----------|--------||
|-9-9-----9-9----(9)-10\-|-7-7-7--7-----(7)-9\-|-6--------|-(6)----||
|-x-x-----x-x---------x--|-x-x-x--x---------x--|-x--------|--------||
|-7-7-----7-7----(7)--8\-|-5-5-5--5-----(5)-7\-|-4--------|-(4)----||
|------------------------|---------------------|----------|--------||
|
|------------------------|---------------------|----------|--------||
|------------------------|---------------------|----------|--------||
|-5-5-(5)-------------5\-|-3-3---(3)-----------|-2--------|--6-----||
|-5-5-(5)-------------5\-|-3-3---(3)-----------|-2--------|--x-----||
|-3-3-(3)-------------3\-|-1-1---(1)-----------|-0--------|--4-----||
|------------------------|---------------------|----------|--------||


 Interlude
  D5
  Gtrs I, II
         PM|                     PM|
|------------|----------|------------|------||
|------------|----------|------------|------||
|------------|----------|------------|------||
|-0----------|-0--------|-0----------|-0----||
|-0------0-0-|-0--------|-0------0-0-|-0----||
|-0------0-0-|-0--------|-0------0-0-|-0----||


  D5
                  PM|
|---------------------|-------------------|
|----/3---------------|----/3-------------|
|---------3---2-------|---------3---2-----|
|-0--(0)-(0)-(0)------|-0--(0)-(0)-(0)----|
|-0--(0)-(0)-(0)--0-0-|-0--(0)-(0)-(0)----|
|-0--(0)-(0)-(0)--0-0-|-0--(0)-(0)-(0)----|


                  PM|
|---------------------|-------------------|
|----/3---------------|----/3-------------|
|---------3---2-------|---------3---2-----|
|-0--(0)-(0)-(0)------|-0--(0)-(0)-(0)----|
|-0--(0)-(0)-(0)--0-0-|-0--(0)-(0)-(0)----|
|-0--(0)-(0)-(0)--0-0-|-0--(0)-(0)-(0)----|


  D5
  Gtr I
                  PM|
|---------------------|-------------------|
|----/3---------------|----/3-------------|
|---------3---2-------|---------3---2-----|
|-0--(0)-(0)-(0)------|-0--(0)-(0)-(0)----|
|-0--(0)-(0)-(0)--0-0-|-0--(0)-(0)-(0)----|
|-0--(0)-(0)-(0)--0-0-|-0--(0)-(0)-(0)----|
|
| Gtr II
|                 PM|
|---------------------|-------------------|
|----/6---------------|----/6-------------|
|---------7---6-------|---------7---6-----|
|-0--(0)-(0)-(0)------|-0--(0)-(0)-(0)----|
|-0--(0)-(0)-(0)--0-0-|-0--(0)-(0)-(0)----|
|-0--(0)-(0)-(0)--0-0-|-0--(0)-(0)-(0)----|


                  PM|
|---------------------|-------------------||
|----/3---------------|----/3-------------||
|---------3---2-------|---------3---2-----||
|-0--(0)-(0)-(0)------|-0--(0)-(0)-(0)----||
|-0--(0)-(0)-(0)--0-0-|-0--(0)-(0)-(0)----||
|-0--(0)-(0)-(0)--0-0-|-0--(0)-(0)-(0)----||
|
|                 PM|
|---------------------|-------------------||
|----/6---------------|----/6-------------||
|---------7---6-------|---------7---6-----||
|-0--(0)-(0)-(0)------|-0--(0)-(0)-(0)----||
|-0--(0)-(0)-(0)--0-0-|-0--(0)-(0)-(0)----||
|-0--(0)-(0)-(0)--0-0-|-0--(0)-(0)-(0)----||


 Breakdown
  D5 Eb5E5 F5   D5 Eb5E5 F5   D5 Eb5E5 F5   D5 Eb5E5 F5
  Gtrs I, II
|-------------|-------------|-------------|-------------||
|-------------|-------------|-------------|-------------||
|-------------|-------------|-------------|-------------||
|-0--1--2--3--|-0--1--2--3--|-0--1--2--3--|-0--1--2--3--||
|-0--1--2--3--|-0--1--2--3--|-0--1--2--3--|-0--1--2--3--||
|-0--1--2--3--|-0--1--2--3--|-0--1--2--3--|-0--1--2--3--||


   Bridge
    D5
    Gtr I
||--------------------------------------------------|
||o------/10-/10---------------10-------------------|
||---------------12-10-12-(12)----10-(10)-----------|
||--12----------------------------------------------|
||o-------------------------------------------------|
||--------------------------------------------------|
|
|   Gtr II
||--------------------------------------------------|
||o-------/6--/6--5-----5--(5)--6-------------------|
||-------------------7-------------7--(7)-----------|
||---7----------------------------------------------|
||o-------------------------------------------------|
||--------------------------------------------------|
|
|   Gtr III
|    PM|                        PM-------------------
||--------------------------------------------------|
||o-------------------------------------------------|
||--------------------------------------------------|
||--------------------------------------------------|
||o--0-0------------------------0--0---0--0-0-0-0-0-|
||---0-0------------------------0--0---0--0-0-0-0-0-|


  Bb5
|-----------------------------------------------------|
|---------/11-/11-10----10-(10)-11--------------------|
|--------------------12------------12-(12)------------|
|-----------------------------------------------------|
|-----------------------------------------------------|
|-----------------------------------------------------|
|
|-----------------------------------------------------|
|----------/8--/8--6--5--6--(6)--8--5--(5)------------|
|-----------------------------------------------------|
|-----------------------------------------------------|
|-----------------------------------------------------|
|-----------------------------------------------------|
|
|-------|                        PM----------------|
|-----------------------------------------------------|
|-----------------------------------------------------|
|-----------------------------------------------------|
|-----------8-----------------------------------------|
|-8-8-8-8---8--------------------8--8---8--8-8-8-8-8--|
|-8-8-8-8---8--------------------8--8---8--8-8-8-8-8--|


  C5
|-------------------------------------------------------------|
|-------------/13-/13-11-10-11-(11)-13-10-(10)----------------|
|-------------------------------------------------------------|
|-------------------------------------------------------------|
|-------------------------------------------------------------|
|-------------------------------------------------------------|
|
|-------------------------------------------------------------|
|-------------/10-/10--8--6--8--(8)-10--6--(6)----------------|
|-------------------------------------------------------------|
|-------------------------------------------------------------|
|-------------------------------------------------------------|
|-------------------------------------------------------------|
|
|  PM------|                         PM------------------------
|-------------------------------------------------------------|
|-------------------------------------------------------------|
|-------------------------------------------------------------|
|--------------10---------------------------------------------|
|-10-10-10-10--10-------------------10-10--10--10-10-10-10-10-|
|-10-10-10-10--10-------------------10-10--10--10-10-10-10-10-|


  F5                             C/E
|---------------------------------------------------------------||
|-/13---11---10---11---10--------10----------------------------o||
|---------------------------12--------12---10---12---10---9-----||
|---------------------------------------------------------------||
|--------------------------------------------------------------o||
|---------------------------------------------------------------||
|
|---------------------------------------------------------------||
|-/10----8----6----8----6----5----6----5---------5-------------o||
|-------------------------------------------7---------7---5-----||
|---------------------------------------------------------------||
|--------------------------------------------------------------o||
|---------------------------------------------------------------||
|
|-----------------------------------------------------------|
|---------------------------------------------------------------||
|--------------------------------------------------------------o||
|---------------------------------------------------------------||
|---------------------------------------------------------------||
|---3-3----3----3--3-3----3----3--3-3----3----3--3-3----3---3--o||
|---3-3----3----3--3-3----3----3--2-2----2----2--2-2----2---2---||


 Guitar Break
  D5                            G5
  Gtrs I, II
|-----------------------------|-----------------------------|
|-----------------------------|-----------------------------|
|-----------------------------|-----------------------------|
|-0-0-0-0-0-0-0-0-0-0-0-0-0-0-|-5-5-5-5-5-5-5-5-5-5-5-5-5-5-|
|-0-0-0-0-0-0-0-0-0-0-0-0-0-0-|-5-5-5-5-5-5-5-5-5-5-5-5-5-5-|
|-0-0-0-0-0-0-0-0-0-0-0-0-0-0-|-5-5-5-5-5-5-5-5-5-5-5-5-5-5-|
|
| Gtr V
|-5---------------------5-----|-6-----------------5---6-----|
|---------------6---8---------|---------------8-------------|
|-----------------------------|-----------------------------|
|-----------------------------|-----------------------------|
|-----------------------------|-----------------------------|
|-----------------------------|-----------------------------|


  C5
|-------------------------------------------------|
|-------------------------------------------------|
|-------------------------------------------------|
|-10---10-10---10-10-10-10-10-10-10---10-10-10-10-|
|-10---10-10---10-10-10-10-10-10-10---10-10-10-10-|
|-10---10-10---10-10-10-10-10-10-10---10-10-10-10-|
|
|-------8-----------------------------------------|
|--5-6-----5h6p=5-----6--5------------------------|
|------------------7--------5-------5h=7p====5----|
|-------------------------------------------------|
|-------------------------------------------------|
|-------------------------------------------------|


  F5                A5
|-----------------------------------|
|-----------------------------------|
|-----------------------------------|
|-3-3-3---3-3-3-3---7-7-7-7---7-7-7-|
|-3-3-3---3-3-3-3---7-7-7-7---7-7-7-|
|-3-3-3---3-3-3-3---7-7-7-7---7-7-7-|
|
|---------------9-------------------|
|-----5-6-8-------8-------8-5-------|
|-------------------9---6-----6-----|
|-------------------------------5h7-|
|-----------------------------------|
|-----------------------------------|


  D5                                   G5
|------------------------------------|---------------------------------|
|------------------------------------|---------------------------------|
|------------------------------------|---------------------------------|
|-0---0-0---0-0-0-0--0-0--0-0--0-0-0-|--5-5-5-5-5-5-5--5-5--5-5--5-5-5-|
|-0---0-0---0-0-0-0--0-0--0-0--0-0-0-|--5-5-5-5-5-5-5--5-5--5-5--5-5-5-|
|-0---0-0---0-0-0-0--0-0--0-0--0-0-0-|--5-5-5-5-5-5-5--5-5--5-5--5-5-5-|
|
|-------------------10---12---13-----|-10-------------10---12---13-----|
|-3s5---5h6-5--------6----8---10-----|-11-------------11----8---10-----|
|-------------7----------------------|---------------------------------|
|------------------------------------|---------------------------------|
|------------------------------------|---------------------------------|
|------------------------------------|---------------------------------|


  C5
|-----------------------------------------------|
|-----------------------------------------------|
|-----------------------------------------------|
|-10-10-10-10-10-10-10---10---10-10-10-10-10-10-|
|-10-10-10-10-10-10-10---10---10-10-10-10-10-10-|
|-10-10-10-10-10-10-10---10---10-10-10-10-10-10-|
|
|-12--------------------------------------------|
|--8-----------------6-3--5----5--6--5-----5--6-|
|---------------------------7-----------7-------|
|-----------------------------------------------|
|-----------------------------------------------|
|-----------------------------------------------|


  F5              A5
|------------------------------------------||
|------------------------------------------||
|------------------------------------------||
|-3---3-3-3-3-3-3-7----7--7-7-------7-7--7-||
|-3---3-3-3-3-3-3-7----7--7-7-------7-7--7-||
|-3---3-3-3-3-3-3-7----7--7-7-------7-7--7-||
|
|---5------------------9-10-9h10p9---------||
|-8-----8---5-----8-10---------------------||
|-----5---6---6--------------------10-9----||
|---------------7-----------------------11-||
|------------------------------------------||
|------------------------------------------||


   Interlude
    D5
    Gtrs I, II
||--------------------------------------------|
||o-------------------------------------------|
||--------------------------------------------|
||---0--0--0--0--0--0--0--0--0--0--0--0--0--0-|
||o--0--0--0--0--0--0--0--0--0--0--0--0--0--0-|
||---0--0--0--0--0--0--0--0--0--0--0--0--0--0-|
|
|   Gtr III
||--------------------------------------------|
||o-------------------------------------------|
||--14-14-14-14-14-14-14-14-14-14-14s17-17-17-|
||---x--x--x--x--x--x--x--x--x--x--x-----x--x-|
||o-12-12-12-12-12-12-12-12-12-12-12s15-15-15-|
||--------------------------------------------|


  G5
|--------------------------------------------------|
|--------------------------------------------------|
|--------------------------------------------------|
|--5-----5--5--5--5--5--5--5-----5--5--5--5--5--5--|
|--5-----5--5--5--5--5--5--5-----5--5--5--5--5--5--|
|--5-----5--5--5--5--5--5--5-----5--5--5--5--5--5--|
|
|--------------------------------------------------|
|--------------------------------------------------|
|-17s15-15-15-15s14-14s12-12-12-12-12-12-10-10-10--|
|--x-----x--x--x-----x-----x--x--x--x--x--x--x--x--|
|-15s13-13-13-13s12-12s10-10-10-10-10-10--8--8--8--|
|--------------------------------------------------|


  1.
  C5
|-------------------------------------------------|
|-------------------------------------------------|
|-------------------------------------------------|
|-10----10-10-10-10-10-10-10----10-10-10-10-10-10-|
|-10----10-10-10-10-10-10-10----10-10-10-10-10-10-|
|-10----10-10-10-10-10-10-10----10-10-10-10-10-10-|
|
|-------------------------------------------------|
|-------------------------------------------------|
|-10s12-12-12-12s10-10s=9-(9)-9--9--9--9s=7--7s=5-|
|--x-----x--x--x-----x--------x--x--x--x-----x----|
|--8s10-10-10-10s=8--8s=7-(7)-7--7--7--7s=5--5s=3-|
|-------------------------------------------------|


  F5              A5
|----------------------------------||
|---------------------------------o||
|----------------------------------||
|-3---3-3-3-3-3-3-7---7-7-7-7-7-7--||
|-3---3-3-3-3-3-3-7---7-7-7-7-7-7-o||
|-3---3-3-3-3-3-3-7---7-7-7-7-7-7--||
|
|----------------------------------||
|---------------------------------o||
|-5-5-5-5-5-5-5-5-6-6-6-6-6-6-6-6--||
|-x-x-x-x-x-x-x-x-x-x-x-x-x-x-x-x--||
|-3-3-3-3-3-3-3-3-4-4-4-4-4-4-4-4-o||
|----------------------------------||


  2.
  C5                                                A5
|-------------------------------------------------|-----------------|
|-------------------------------------------------|-----------------|
|-------------------------------------------------|-----------------|
|-10----10-10-10-10-10-10-10----10-10-10-10-10-10-|-7-7-7-7-7-7-7-7-|
|-10----10-10-10-10-10-10-10----10-10-10-10-10-10-|-7-7-7-7-7-7-7-7-|
|-10----10-10-10-10-10-10-10----10-10-10-10-10-10-|-7-7-7-7-7-7-7-7-|
|
|-------------------------------------------------|-----------------|
|-------------------------------------------------|-----------------|
|-10s12-12-12-12s10-10s=9-(9)-9--9--9--9s=7--7s=5-|-6---------------|
|--x-----x--x--x-----x--------x--x--x--x-----x----|-x---------------|
|--8s10-10-10-10s=8--8s=7-(7)-7--7--7--7s=5--5s=3-|-4---------------|
|-------------------------------------------------|-----------------|


  Eb5               F5                D5
                                                             2/4
  Gtrs I, II
|-----------------|-----------------|----------|------------|--------||
|-----------------|-----------------|----------|------------|--------||
|-----------------|-----------------|----------|------------|--------||
|-1-1-1-1-1-1-1-1-|-3-3-3-3-3-3-3-3-|-0--------|-(0)--------|-(0)----||
|-1-1-1-1-1-1-1-1-|-3-3-3-3-3-3-3-3-|-0--------|-(0)--------|-(0)----||
|-1-1-1-1-1-1-1-1-|-3-3-3-3-3-3-3-3-|-0--------|-(0)--------|-(0)----||


   Outro
    Faster Q=128
    D5
   4/4
    PM--------------------------------------------------------------|
                                                                       8x
||----------------------------------|----------------------------------||
||o---------------------------------|---------------------------------o||
||----------------------------------|----------------------------------||
||----------------------------------|----------------------------------||
||o-0-0-0-0-0-0-0-0-0-0-0-0-0-0-0-0-|-0-0-0-0-0-0-0-0-0-0-0-0-0-0-0-0-o||
||--0-0-0-0-0-0-0-0-0-0-0-0-0-0-0-0-|-0-0-0-0-0-0-0-0-0-0-0-0-0-0-0-0--||



5. DESECRATE THROUGH REVERANCE


Gtr I (D A D G B E) - 'Left Ear'
Gtr II (D A D G B E) - 'Right Ear'
Gtr III (D A D G B E) - 'Neutral Guitar'
Gtr IV (D A D G B E) - 'Untitled'
Gtr V (D A D G B E) - 'Untitled'

   Intro
    Moderate Rock Q=94
    N.C.
   4/4
    Gtrs I, II
                           ~
||-----------------|--------------|-----------------|------------------||
||o----------------|--------------|-----------------|-----------------o||
||-----------------|--------------|-----------------|------------------||
||--0---0-2--3-(3)S|=8---7-6--7\--|-3---(3)S5---(5)S|=2---(2)S8--7\----||
||o-x---x-x--x-----|-x---x-x--x---|-x-------x-------|-x-------x--x----o||
||--0---0-2--3-(3)S|=8---7-6--7\--|-3---(3)S5---(5)S|=2---(2)S8--7\----||


    Dm            Em F Gm                 F        Em F Dm
    Gtrs I, II
                                             ~~~
||-------------------------|------------------------------|
||o------------------------|------------------------------|
||-------------------------|------------------------------|
||--0----0--2-------3--(3)S|===8----------7--6-------7\---|
||o-x----x--x-------x------|---x----------x--x-------x----|
||--0----0--2-------3--(3)S|===8----------7--6-------7\---|
|
|   Gtr III
||-------------------------|------------------------------|
||o-6--6-8-(8)-10-(10)-11--|-(11)-10-(10)-8-(8)-10-(10)-6-|
||--7--7-9-(9)-10-(10)-12--|-(12)-10-(10)-9-(9)-10-(10)-7-|
||-------------------------|------------------------------|
||o------------------------|------------------------------|
||-------------------------|------------------------------|


                         EF Em                   F Em
|----------------------------|--------------------------||
|----------------------------|-------------------------o||
|----------------------------|--------------------------||
|--3-----(3)S=5----------(5)S|==2-----(2)S==8-----7\----||
|--x----------x--------------|--x-----------x-----x----o||
|--3-----(3)S=5----------(5)S|==2-----(2)S==8-----7\----||
|
|----------------------------|--------------------------||
|-(6)--6--8--(8)-10-(10)--8--|-(8)--8-10--(10)-8-(8)---o||
|-(7)--7--9--(9)-10-(10)--9--|-(9)--9-10--(10)-9-(9)----||
|----------------------------|--------------------------||
|----------------------------|-------------------------o||
|----------------------------|--------------------------||


  Double-Time Q=188
  D5
  Gtrs I, II
|----------|--------||
|----------|--------||
|----------|--------||
|-0--------|-(0)----||
|-0--------|-(0)----||
|-0--------|-(0)----||


    D5    N.C.                        D5
    Gtr I
    PM--|                        ~    PM--|  PM|  PM
||-----------------|----------------|---------------|
||o----------------|----------------|---------------|
||-----------------|----------------|---------------|
||-----------------|----------------|---------------|
||o-0-0-0--8-----7-|-----7---5-8-7--|-0-0-0--0-0--0-|
||--0-0-0----7h8---|-7-5---7--------|-0-0-0--0-0--0-|
|
|   Gtr II
|   PM--|                             PM--|  PM|  PM
||-----------------|----------------|---------------|
||o----------------|----------------|---------------|
||-----------------|----------------|---------------|
||-----------------|----------------|---------------|
||o-0-0-0----------|----------------|-0-0-0--0-0--0-|
||--0-0-0----------|----------------|-0-0-0--0-0--0-|


  N.C.
|-----------------|-------------------||
|-----------------|------------------o||
|-----------------|---------7---9-10--||
|-----------------|---7-------8-------||
|-8-----7-----5s7-|-5---7s8----------o||
|---7h8---7-5-----|-------------------||
|
|-----------------|-------------------||
|-----------------|------------------o||
|-----------------|-------------------||
|-----------------|-------------------||
|-----------------|------------------o||
|-----------------|-------------------||


   Pre-Verse
    D5               E5   F5     E5         G5    F5
    Gtr I
    PM|
||-----------------|-----------|----------|------------|
||o----------------|-----------|----------|------------|
||-----------------|-----------|----------|------------|
||------0--0-0-0-0-|-2----3----|-2--------|-/5----3----|
||o-0-0-0--0-0-0-0-|-2----3----|-2--------|-/5----3----|
||--0-0-0--0-0-0-0-|-2----3----|-2--------|-/5----3----|
|
|   Gtr II
|   PM|
||-----------------|-----------|----------|------------|
||o----------------|-----------|----------|------------|
||-----------------|-----------|----------|------------|
||------3--3-3-3-3-|-5----7----|-5--------|--8----7----|
||o-5-5-5--5-5-5-5-|-7----8----|-7--------|-10----8----|
||--0-0------------|-----------|----------|------------|


  N.C.
  Gtrs I, II
|-----------------------|-------------------|
|-----------------------|-------------------|
|-----------------------|-------------------|
|-----------------------|-------------------|
|-----------------------|-------------------|
|-0-0-0-0-3-(3)-3-0-0-0-|-0-3-(3)-0-6-0-6h7-|


  D5               E5   F5     E5         N.C.
  Gtr I
  PM|                                      PM--------------|
|----------------|-----------|----------|--------------------|
|----------------|-----------|----------|--------------------|
|----------------|-----------|----------|--------------------|
|-----0--0-0-0-0-|-2----3----|-2--------|-/5-7-8-7---12-11---|
|-0-0-0--0-0-0-0-|-2----3----|-2--------|----------8-------7-|
|-0-0-0--0-0-0-0-|-2----3----|-2--------|--------------------|
|
| Gtr II
| PM|
|----------------|-----------|----------|--------------------|
|----------------|-----------|----------|--------------------|
|----------------|-----------|----------|--------------------|
|-----3--3-3-3-3-|-5----7----|-5--------|--------------------|
|-5-5-5--5-5-5-5-|-7----8----|-7--------|--------------------|
|-0-0------------|-----------|----------|--------------------|


  1.
  N.C.
  Gtrs I, II
|-----------------------|--------------------||
|-----------------------|-------------------o||
|-----------------------|--------------------||
|-----------------------|--------------------||
|-----------------------|-------------------o||
|-0-0-0-0-3-(3)-3-0-0-0-|-0-6-(6)-6-0-0-6h7--||


  2.
  D5
|----------|------------|----------|--------|
|----------|------------|----------|--------|
|----------|------------|----------|--------|
|-0--------|-(0)--------|-0--------|-(0)----|
|-0--------|-(0)--------|-0--------|-(0)----|
|-0--------|-(0)--------|-0--------|-(0)----|


  D5
|----------|------------|------------|--------|
|----------|------------|------------|--------|
|----------|------------|------------|--------|
|-0--------|-(0)--------|-(0)--------|-(0)----|
|-0--------|-(0)--------|-(0)--------|-(0)----|
|-0--------|-(0)--------|-(0)--------|-(0)----|


  D5    N.C.                        D5
                                   2/4
  Gtr I
  PM--|                        ~    PM|  PM
|----------------|----------------|--------||
|----------------|----------------|--------||
|----------------|----------------|--------||
|----------------|----------------|--------||
|-0-0-0--8-----7-|-----7---5-8-7--|-0-0--0-||
|-0-0-0----7h8---|-7-5---7--------|-0-0--0-||
|
| Gtr II
| PM--|                             PM|  PM
|----------------|----------------|--------||
|----------------|----------------|--------||
|----------------|----------------|--------||
|----------------|----------------|--------||
|-0-0-0----------|----------------|-0-0--0-||
|-0-0-0----------|----------------|-0-0--0-||


 Verse
  F5E5   N.C.    E5    F5      E5     N.C.    E5    F5
 4/4
  Gtrs I, II
|------------|---------------|------------|---------------|
|------------|---------------|------------|---------------|
|------------|---------------|------------|---------------|
|-3p2-2------|---2-2-2h3-3-3-|-2-2-2------|---2-2-2h3-3-3-|
|-3p2-2------|---2-2-2h3-3-3-|-2-2-2------|---2-2-2h3-3-3-|
|-3p2-2------|---2-2-2h3-3-3-|-2-2-2------|---2-2-2h3-3-3-|


  D5
  PM---------------------------------------------------------------|
|--------------|------------------|---------------|------------------|
|--------------|------------------|---------------|------------------|
|--------------|------------------|---------------|------------------|
|--------------|------------------|---------------|------------------|
|-0--0--0-0--0-|-(0)-0-0-0--0-0-0-|-0-0-0--0-0--0-|-(0)-0-0-0--0-0-0-|
|-0--0--0-0--0-|-(0)-0-0-0--0-0-0-|-0-0-0--0-0--0-|-(0)-0-0-0--0-0-0-|


  F5E5   N.C.    E5    F5      E5         N.C.  E5    F5
|------------|---------------|--------------|---------------|
|------------|---------------|--------------|---------------|
|------------|---------------|--------------|---------------|
|-3p2-2------|---2-2-2h3-3-3-|-2-2-2--2-2---|---2-2-2h3-3-3-|
|-3p2-2------|---2-2-2h3-3-3-|-2-2-2--2-2---|---2-2-2h3-3-3-|
|-3p2-2------|---2-2-2h3-3-3-|-2-2-2--2-2---|---2-2-2h3-3-3-|


  D5
  PM---------------------------------------------------------------|
|--------------|------------------|---------------|------------------|
|--------------|------------------|---------------|------------------|
|--------------|------------------|---------------|------------------|
|--------------|------------------|---------------|------------------|
|-0--0--0-0--0-|-(0)-0-0-0--0-0-0-|-0-0-0--0-0--0-|-(0)-0-0-0--0-0-0-|
|-0--0--0-0--0-|-(0)-0-0-0--0-0-0-|-0-0-0--0-0--0-|-(0)-0-0-0--0-0-0-|


  F5E5   N.C.    E5    F5      E5     N.C.          E5    F5
                                      Gtrs IV, V    Gtrs I, II
|------------|---------------|---------------|------------------|
|------------|---------------|---------------|------------------|
|------------|---------------|---------------|------------------|
|-3p2-2------|---2-2-2h3-3-3-|-2-2-2---------|------2-2-2h3-3-3-|
|-3p2-2------|---2-2-2h3-3-3-|-2-2-2---------|------2-2-2h3-3-3-|
|-3p2-2------|---2-2-2h3-3-3-|-2-2-2--[3]----|-(3)--2-2-2h3-3-3-|


  D5
  PM---------------------------------------------------------------|
|--------------|------------------|---------------|------------------|
|--------------|------------------|---------------|------------------|
|--------------|------------------|---------------|------------------|
|--------------|------------------|---------------|------------------|
|-0--0--0-0--0-|-(0)-0-0-0--0-0-0-|-0-0-0--0-0--0-|-(0)-0-0-0--0-0-0-|
|-0--0--0-0--0-|-(0)-0-0-0--0-0-0-|-0-0-0--0-0--0-|-(0)-0-0-0--0-0-0-|


  F5E5   N.C.    E5    F5      E5         N.C.  E5    F5  D5
|------------|---------------|--------------|---------------||
|------------|---------------|--------------|---------------||
|------------|---------------|--------------|---------------||
|-3p2-2------|---2-2-2h3-3-3-|-2-2-2--2-2---|---2-2-2h3-3-0-||
|-3p2-2------|---2-2-2h3-3-3-|-2-2-2--2-2---|---2-2-2h3-3-0-||
|-3p2-2------|---2-2-2h3-3-3-|-2-2-2--2-2---|---2-2-2h3-3-0-||


   Pre-Chorus
    N.C.         D5       N.C.         D5
     PM--------|           PM--------|
||----------------------|---------------------|
||o---------------------|---------------------|
||----------------------|---------------------|
||--------------------0-|-------------------0-|
||o--------------0-0--0-|--------------0-0--0-|
||---0-0-0-0-0-0-0-0--0-|--0-0-0-0-0-0-0-0--0-|


  1.
  N.C.         D5       N.C.         D5
   PM--------|
|---------------------|-----------------||
|---------------------|----------------o||
|---------------------|-----------------||
|-------------------0-|--------------0--||
|--------------0-0--0-|--------------0-o||
|--0-0-0-0-0-0-0-0--0-|--0-3-0-5-6-7-0--||


  2.
  N.C.         D5       N.C.
   PM--------|
|---------------------|------------------||
|---------------------|------------------||
|---------------------|------------------||
|-------------------0-|------------------||
|--------------0-0--0-|------------------||
|--0-0-0-0-0-0-0-0--0-|--8-7-5-(5)-6-7-0-||


   Chorus
    F6                E6        F6 D5
||------------------|----------------|
||o-----------------|----------------|
||--7-7-7-7-7-7-7-7-|-6-6-6-6-6-7----|
||--3-3-3-3-3-3-3-3-|-2-2-2-2-2-3--0-|
||o-5-5-5-5-5-5-5-5-|-4-4-4-4-4-5--0-|
||--3-3-3-3-3-3-3-3-|-2-2-2-2-2-3--0-|


                      Bb6         Bb5
|-------------------|----------------------|
|-------------------|----------------------|
|-------------------|----------------------|
|-(0)-0-0-0-0-0-0-0-|--8--8--8--8-8-8-8-8--|
|-(0)-0-0-0-0-0-0-0-|-10-10-10-10-8-8-8-8--|
|-(0)-0-0-0-0-0-0-0-|--8--8--8--8-8-8-8-8--|


  C                           CsuD5  N.C.         D5       N.C.         D5
                                      PM--------|           PM--------|
|-----------------|----------------|---------------------|---------------------|
|-----------------|----------------|---------------------|---------------------|
|-5-5-5-5-5-5-5-5-|-5-5-5-5-5-5----|---------------------|---------------------|
|-2-2-2-2-2-2-2-2-|-2-2-2-2-2-3--0-|-------------------0-|-------------------0-|
|-3-3-3-3-3-3-3-3-|-3-3-3-3-3-3--0-|--------------0-0--0-|--------------0-0--0-|
|-----------------|--------------0-|--0-0-0-0-0-0-0-0--0-|--0-0-0-0-0-0-0-0--0-|


  1.
  N.C.         D5       N.C.         D5
   PM--------|           PM--------|
|---------------------|----------------------||
|---------------------|---------------------o||
|---------------------|----------------------||
|-------------------0-|-------------------0--||
|--------------0-0--0-|--------------0-0--0-o||
|--0-0-0-0-0-0-0-0--0-|--0-0-0-0-0-0-0-0--0--||


  2.
  N.C.         D5                N.C.
   PM--------|
|---------------------|------------||
|---------------------|------------||
|---------------------|------------||
|-------------------0-|--0--0-0----||
|--------------0-0--0-|--0--0-0----||
|--0-0-0-0-0-0-0-0--0-|--0--0-0----||


 Verse
  F5E5   N.C.    E5    F5      E5     N.C.    E5    F5
|------------|---------------|------------|---------------|
|------------|---------------|------------|---------------|
|------------|---------------|------------|---------------|
|-3p2-2------|---2-2-2h3-3-3-|-2-2-2------|---2-2-2h3-3-3-|
|-3p2-2------|---2-2-2h3-3-3-|-2-2-2------|---2-2-2h3-3-3-|
|-3p2-2------|---2-2-2h3-3-3-|-2-2-2------|---2-2-2h3-3-3-|


  D5
  PM---------------------------------------------------------------|
|--------------|------------------|---------------|------------------|
|--------------|------------------|---------------|------------------|
|--------------|------------------|---------------|------------------|
|--------------|------------------|---------------|------------------|
|-0--0--0-0--0-|-(0)-0-0-0--0-0-0-|-0-0-0--0-0--0-|-(0)-0-0-0--0-0-0-|
|-0--0--0-0--0-|-(0)-0-0-0--0-0-0-|-0-0-0--0-0--0-|-(0)-0-0-0--0-0-0-|


  F5E5   N.C.    E5    F5      E5         N.C.  E5    F5
|------------|---------------|--------------|---------------|
|------------|---------------|--------------|---------------|
|------------|---------------|--------------|---------------|
|-3p2-2------|---2-2-2h3-3-3-|-2-2-2--2-2---|---2-2-2h3-3-3-|
|-3p2-2------|---2-2-2h3-3-3-|-2-2-2--2-2---|---2-2-2h3-3-3-|
|-3p2-2------|---2-2-2h3-3-3-|-2-2-2--2-2---|---2-2-2h3-3-3-|


  D5
  PM---------------------------------------------------------------|
|--------------|------------------|---------------|------------------|
|--------------|------------------|---------------|------------------|
|--------------|------------------|---------------|------------------|
|--------------|------------------|---------------|------------------|
|-0--0--0-0--0-|-(0)-0-0-0--0-0-0-|-0-0-0--0-0--0-|-(0)-0-0-0--0-0-0-|
|-0--0--0-0--0-|-(0)-0-0-0--0-0-0-|-0-0-0--0-0--0-|-(0)-0-0-0--0-0-0-|


  F5E5   N.C.    E5    F5      E5     N.C.          E5    F5
                                      Gtrs IV, V    Gtrs I, II
|------------|---------------|---------------|------------------|
|------------|---------------|---------------|------------------|
|------------|---------------|---------------|------------------|
|-3p2-2------|---2-2-2h3-3-3-|-2-2-2---------|------2-2-2h3-3-3-|
|-3p2-2------|---2-2-2h3-3-3-|-2-2-2---------|------2-2-2h3-3-3-|
|-3p2-2------|---2-2-2h3-3-3-|-2-2-2--[3]----|-(3)--2-2-2h3-3-3-|


  D5
  PM---------------------------------------------------------------|
|--------------|------------------|---------------|------------------|
|--------------|------------------|---------------|------------------|
|--------------|------------------|---------------|------------------|
|--------------|------------------|---------------|------------------|
|-0--0--0-0--0-|-(0)-0-0-0--0-0-0-|-0-0-0--0-0--0-|-(0)-0-0-0--0-0-0-|
|-0--0--0-0--0-|-(0)-0-0-0--0-0-0-|-0-0-0--0-0--0-|-(0)-0-0-0--0-0-0-|


  F5E5   N.C.    E5    F5      E5         N.C.  E5    F5  D5
|------------|---------------|--------------|---------------||
|------------|---------------|--------------|---------------||
|------------|---------------|--------------|---------------||
|-3p2-2------|---2-2-2h3-3-3-|-2-2-2--2-2---|---2-2-2h3-3-0-||
|-3p2-2------|---2-2-2h3-3-3-|-2-2-2--2-2---|---2-2-2h3-3-0-||
|-3p2-2------|---2-2-2h3-3-3-|-2-2-2--2-2---|---2-2-2h3-3-0-||


   Pre-Chorus
    N.C.         D5       N.C.         D5
     PM--------|           PM--------|
||----------------------|---------------------|
||o---------------------|---------------------|
||----------------------|---------------------|
||--------------------0-|-------------------0-|
||o--------------0-0--0-|--------------0-0--0-|
||---0-0-0-0-0-0-0-0--0-|--0-0-0-0-0-0-0-0--0-|


  1.
  N.C.         D5       N.C.         D5
   PM--------|
|---------------------|-----------------||
|---------------------|----------------o||
|---------------------|-----------------||
|-------------------0-|--------------0--||
|--------------0-0--0-|--------------0-o||
|--0-0-0-0-0-0-0-0--0-|--0-3-0-5-6-7-0--||


  2.
  N.C.         D5       N.C.
   PM--------|
|---------------------|------------------||
|---------------------|------------------||
|---------------------|------------------||
|-------------------0-|------------------||
|--------------0-0--0-|------------------||
|--0-0-0-0-0-0-0-0--0-|--8-7-5-(5)-6-7-0-||


   Chorus
    F6                E6        F6 D5
||------------------|----------------|
||o-----------------|----------------|
||--7-7-7-7-7-7-7-7-|-6-6-6-6-6-7----|
||--3-3-3-3-3-3-3-3-|-2-2-2-2-2-3--0-|
||o-5-5-5-5-5-5-5-5-|-4-4-4-4-4-5--0-|
||--3-3-3-3-3-3-3-3-|-2-2-2-2-2-3--0-|


                      Bb6         Bb5
|-------------------|----------------------|
|-------------------|----------------------|
|-------------------|----------------------|
|-(0)-0-0-0-0-0-0-0-|--8--8--8--8-8-8-8-8--|
|-(0)-0-0-0-0-0-0-0-|-10-10-10-10-8-8-8-8--|
|-(0)-0-0-0-0-0-0-0-|--8--8--8--8-8-8-8-8--|


  C                           CsuD5  N.C.         D5       N.C.         D5
                                      PM--------|           PM--------|
|-----------------|----------------|---------------------|---------------------|
|-----------------|----------------|---------------------|---------------------|
|-5-5-5-5-5-5-5-5-|-5-5-5-5-5-5----|---------------------|---------------------|
|-2-2-2-2-2-2-2-2-|-2-2-2-2-2-3--0-|-------------------0-|-------------------0-|
|-3-3-3-3-3-3-3-3-|-3-3-3-3-3-3--0-|--------------0-0--0-|--------------0-0--0-|
|-----------------|--------------0-|--0-0-0-0-0-0-0-0--0-|--0-0-0-0-0-0-0-0--0-|


  N.C.         D5       N.C.         D5
   PM--------|           PM--------|
|---------------------|----------------------||
|---------------------|---------------------o||
|---------------------|----------------------||
|-------------------0-|-------------------0--||
|--------------0-0--0-|--------------0-0--0-o||
|--0-0-0-0-0-0-0-0--0-|--0-0-0-0-0-0-0-0--0--||


   Interlude
    F6                            E6                F5      D5
    Gtr I
||------------------------------|------------------------------|
||o-/10--------------10-(10)----|------------------------------|
||--------10-12-(12)---------12-|-(12)----9-10-(10)-12-(12)-10-|
||------------------------------|------------------------------|
||o-----------------------------|------------------------------|
||------------------------------|------------------------------|
|
|   Gtr II
||------------------------------|------------------------------|
||o-----------------------------|------------------------------|
||--/10--------------10-(10)----|------------------------------|
||--------12-14-(14)---------14-|-(14)---11-12-(12)-14-(14)-12-|
||o-----------------------------|------------------------------|
||------------------------------|------------------------------|
|
|   Gtr III
||------------------------------|------------------------------|
||o-----------------------------|------------------------------|
||----7-7--7--7---7---7---7---7-|---6--6--6--6---6---7---------|
||----3-3--3--3---3---3---3---3-|---2--2--2--2---2---3-------0-|
||o---5-5--5--5---5---5---5---5-|---4--4--4--4---4---5-------0-|
||----3-3--3--3---3---3---3---3-|---2--2--2--2---2---3-------0-|


                        Bb6          Bb5
|---------------------|------------------------|
|----------------10---|-/11----------10--------|
|-(10)----------------|------------------------|
|---------------------|------------------------|
|---------------------|------------------------|
|---------------------|------------------------|
|
|---------------------|------------------------|
|---------------------|------------------------|
|----------------10---|-/12----------10--------|
|-(12)----------------|------------------------|
|---------------------|------------------------|
|---------------------|------------------------|
|
|---------------------|------------------------|
|---------------------|------------------------|
|---------------------|------------------------|
|--(0)-0-0-0-0-0--0-0-|---8--8--8--8--8-8-8-8--|
|--(0)-0-0-0-0-0--0-0-|--10-10-10-10--8-8-8-8--|
|--(0)-0-0-0-0-0--0-0-|---8--8--8--8--8-8-8-8--|


  C                              CsusD5
|------------------|--------------------|
|------------------|--------10---11--10-|
|-12---------------|-12-----------------|
|------------------|--------------------|
|------------------|--------------------|
|------------------|--------------------|
|
|------------------|--------------------|
|------------------|--------------------|
|------------------|--------10---12--10-|
|-14---------------|-14-----------------|
|------------------|--------------------|
|------------------|--------------------|
|
|------------------|--------------------|
|------------------|--------------------|
|--5-5-5-5-5-5-5-5-|--5-5-5--5-5--5-----|
|--2-2-2-2-2-2-2-2-|--2-2-2--2-2--3---0-|
|--3-3-3-3-3-3-3-3-|--3-3-3--3-3--3---0-|
|------------------|------------------0-|


    ~~~~
|--------------------|---------------------|
|-(10)---------------|--------------10-----|
|--------------------|-/10-----12----------|
|--------------------|---------------------|
|--------------------|---------------------|
|--------------------|---------------------|
|
|   ~~~~
|--------------------|---------------------|
|--------------------|---------------------|
|-(10)---------------|--------------10-----|
|--------------------|-/12-----14----------|
|--------------------|---------------------|
|--------------------|---------------------|
|
|--------------------|---------------------|
|--------------------|---------------------|
|--------------------|---------------------|
|--(0)-0-0-0-0-0-0-0-|---0-0-0--0-0--0-0-0-|
|--(0)-0-0-0-0-0-0-0-|---0-0-0--0-0--0-0-0-|
|--(0)-0-0-0-0-0-0-0-|---0-0-0--0-0--0-0-0-|


  Bb5                  C5
|--------------------|-------------------||
|-/11-------10-------|------------------o||
|--------------------|-12----------------||
|--------------------|-------------------||
|--------------------|------------------o||
|--------------------|-------------------||
|
|--------------------|-------------------||
|--------------------|------------------o||
|--12-------10-------|-------------------||
|--------------------|-14----------------||
|--------------------|------------------o||
|--------------------|-------------------||
|
|--------------------|-------------------||
|--------------------|------------------o||
|--------------------|--5-5-5-5-5-5-5-5--||
|---8-8-8-8--8-8-8-8-|--5-5-5-5-5-5-5-5--||
|---8-8-8-8--8-8-8-8-|--3-3-3-3-3-3-3-3-o||
|---8-8-8-8--8-8-8-8-|-------------------||


   Breakdown
    D5  N.C.   D5    N.C.             D5  N.C.
    Gtr I
    PM|        PM|                    PM|
                                                                      4x
||-----------------|----------------|-----------------|---------------||
||o----------------|----------------|-----------------|--------------o||
||-----------------|----------------|-----------------|---------------||
||------/7--5------|--/8--7--5--7\--|-----/7--5---/8--|-7--5--7S=2----||
||o-0-0--------0-0-|----------------|-0-0-------------|--------------o||
||--0-0--------0-0-|----------------|-0-0-------------|---------------||
|
|   Gtr II
|   PM|        PM|                    PM|
|                                                                     4x
||-----------------|----------------|-----------------|---------------||
||o----------------|----------------|-----------------|--------------o||
||-----------------|----------------|-----------------|---------------||
||-----------------|----------------|-----------------|---------------||
||o-0-0-/8--7--0-0-|-/10--8--7--8\--|-0-0-/8--7--/10--|-8--7--8S=3---o||
||--0-0--------0-0-|----------------|-0-0-------------|---------------||


 Bridge
  D5                    C5                    Eb5
  Gtrs I, II
|---------------------|---------------------|----------|--------|
|---------------------|---------------------|----------|--------|
|---------------------|---------------------|----------|--------|
|-12--12-12-12-12-12S=|=10--10-10-10-10-10--|-1--------|-(1)----|
|-12--12-12-12-12-12S=|=10--10-10-10-10-10--|-1--------|-(1)----|
|-12--12-12-12-12-12S=|=10--10-10-10-10-10--|-1--------|-(1)----|


  F5               A
     PM--------------------------|
|----------------|-----------------||
|----------------|-----------------||
|----------------|-----------------||
|-3--------------|-----------------||
|-3--3-3-3-3-3-3-|-4-4-4-4-4-4-4-4-||
|-3--3-3-3-3-3-3-|-7-7-7-7-7-7-7-7-||


   Interlude
    D5                      C/E
    Gtr I
||------------------------|----------------|
||o-----------------------|----------------|
||--10--10-10-10-10-10-10-|-9--9-9-9-9-9-9-|
||---x---x--x--x--x--x--x-|-x--x-x-x-x-x-x-|
||o--8---8--8--8--8--8--8-|-7--7-7-7-7-7-7-|
||------------------------|----------------|
|
|   Gtr II
||------------------------|----------------|
||o-----------------------|----------------|
||------------------------|----------------|
||--12--12-12-12-12-12-12-|-2--2-2-2-2-2-2-|
||o-12--12-12-12-12-12-12-|-3--3-3-3-3-3-3-|
||--12--12-12-12-12-12-12-|-2--2-2-2-2-2-2-|


  C5                      D5
|-----------------------|-----------------|
|-----------------------|-----------------|
|--9---9--9--9--9--9--9-|-7--7-7-7-7-7-7--|
|--x---x--x--x--x--x--x-|-x--x-x-x-x-x-x--|
|--7---7--7--7--7--7--7-|-5--5-5-5-5-5-5--|
|-----------------------|-----------------|
|
|-----------------------|-----------------|
|-----------------------|-----------------|
|-----------------------|-----------------|
|-10--10-10-10-10-10-10-|-0--0-0-0-0-0-0--|
|-10--10-10-10-10-10-10-|-0--0-0-0-0-0-0--|
|-10--10-10-10-10-10-10-|-0--0-0-0-0-0-0--|


  D5                      C5
|-----------------------|-----------------------|
|-----------------------|-----------------------|
|-10--10-10-10-10-10-10-|--9---9--9--9--9--9--9-|
|--x---x--x--x--x--x--x-|--x---x--x--x--x--x--x-|
|--8---8--8--8--8--8--8-|--7---7--7--7--7--7--7-|
|-----------------------|-----------------------|
|
|-----------------------|-----------------------|
|-----------------------|-----------------------|
|-----------------------|-----------------------|
|-12--12-12-12-12-12-12-|-10--10-10-10-10-10-10-|
|-12--12-12-12-12-12-12-|-10--10-10-10-10-10-10-|
|-12--12-12-12-12-12-12-|-10--10-10-10-10-10-10-|


  F5               N.C.
|----------------|-----------------||
|----------------|----------------o||
|-5--5-5-5-5-5-5-|-6--6-6-6-6-6-6--||
|-x--x-x-x-x-x-x-|-x--x-x-x-x-x-x--||
|-3--3-3-3-3-3-3-|-4--4-4-4-4-4-4-o||
|----------------|-----------------||
|
|----------------|-----------------||
|----------------|----------------o||
|----------------|-6--6-6-6-6-6-6--||
|-3--3-3-3-3-3-3-|-x--x-x-x-x-x-x--||
|-3--3-3-3-3-3-3-|-4--4-4-4-4-4-4-o||
|-3--3-3-3-3-3-3-|-----------------||


  D5                      C5
|----------|------------|-----------|---------|
|----------|------------|-----------|---------|
|-7--------|-(7)--------|--9--------|--(9)----|
|-x--------|------------|--x--------|---------|
|-5--------|-(5)--------|--7--------|--(7)----|
|----------|------------|-----------|---------|
|
|----------|------------|-----------|---------|
|----------|------------|-----------|---------|
|----------|------------|-----------|---------|
|-0--------|-(0)--------|-10--------|-(10)----|
|-0--------|-(0)--------|-10--------|-(10)----|
|-0--------|-(0)--------|-10--------|-(10)----|


  Bb5
|-------------------------|-------------------------|
|-------------------------|-------------------------|
|-10-10-10-10-10-10-10-10-|-10-10-10-10-10-10-10-10-|
|--x--x--x--x--x--x--x--x-|--x--x--x--x--x--x--x--x-|
|--8--8--8--8--8--8--8--8-|--8--8--8--8--8--8--8--8-|
|-------------------------|-------------------------|
|
|-------------------------|-------------------------|
|-------------------------|-------------------------|
|-------------------------|-------------------------|
|--8--8--8--8--8--8--8--8-|--8--8--8--8--8--8--8--8-|
|--8--8--8--8--8--8--8--8-|--8--8--8--8--8--8--8--8-|
|--8--8--8--8--8--8--8--8-|--8--8--8--8--8--8--8--8-|


  F5                A5
|-----------------|-----------------|
|-----------------|-----------------|
|-5-5-5-5-5-5-5-5-|-6-6-6-6-6-6-6-6-|
|-x-x-x-x-x-x-x-x-|-x-x-x-x-x-x-x-x-|
|-3-3-3-3-3-3-3-3-|-4-4-4-4-4-4-4-4-|
|-----------------|-----------------|
|
|-----------------|-----------------|
|-----------------|-----------------|
|-----------------|-----------------|
|-3-3-3-3-3-3-3-3-|-7-7-7-7-7-7-7-7-|
|-3-3-3-3-3-3-3-3-|-7-7-7-7-7-7-7-7-|
|-3-3-3-3-3-3-3-3-|-7-7-7-7-7-7-7-7-|


  D5
|-----------------|-----------------|
|-----------------|-----------------|
|-7-7-7-7-7-7-7-7-|-7-7-7-7-7-7-7-7-|
|-x-x-x-x-x-x-x-x-|-x-x-x-x-x-x-x-x-|
|-5-5-5-5-5-5-5-5-|-5-5-5-5-5-5-5-5-|
|-----------------|-----------------|
|
|-----------------|-----------------|
|-----------------|-----------------|
|-----------------|-----------------|
|-0-0-0-0-0-0-0-0-|-0-0-0-0-0-0-0-0-|
|-0-0-0-0-0-0-0-0-|-0-0-0-0-0-0-0-0-|
|-0-0-0-0-0-0-0-0-|-0-0-0-0-0-0-0-0-|


  C5
|-------------------------|-------------------------|
|-------------------------|-------------------------|
|--9--9--9--9--9--9--9--9-|--9--9--9--9--9--9--9--9-|
|--x--x--x--x--x--x--x--x-|--x--x--x--x--x--x--x--x-|
|--7--7--7--7--7--7--7--7-|--7--7--7--7--7--7--7--7-|
|-------------------------|-------------------------|
|
|-------------------------|-------------------------|
|-------------------------|-------------------------|
|-------------------------|-------------------------|
|-10-10-10-10-10-10-10-10-|-10-10-10-10-10-10-10-10-|
|-10-10-10-10-10-10-10-10-|-10-10-10-10-10-10-10-10-|
|-10-10-10-10-10-10-10-10-|-10-10-10-10-10-10-10-10-|


  Bb5
|-------------------------|-------------------------|
|-------------------------|-------------------------|
|-10-10-10-10-10-10-10-10-|-10-10-10-10-10-10-10-10-|
|--x--x--x--x--x--x--x--x-|--x--x--x--x--x--x--x--x-|
|--8--8--8--8--8--8--8--8-|--8--8--8--8--8--8--8--8-|
|-------------------------|-------------------------|
|
|-------------------------|-------------------------|
|-------------------------|-------------------------|
|-------------------------|-------------------------|
|--8--8--8--8--8--8--8--8-|--8--8--8--8--8--8--8--8-|
|--8--8--8--8--8--8--8--8-|--8--8--8--8--8--8--8--8-|
|--8--8--8--8--8--8--8--8-|--8--8--8--8--8--8--8--8-|


  F6                A             D5
|-----------------|-----------------||
|-----------------|-----------------||
|-5-5-5-5-5-5-5-5-|-6-6-6-6-6-6-6---||
|-x-x-x-x-x-x-x-x-|-x-x-x-x-x-x-x-0-||
|-3-3-3-3-3-3-3-3-|-4-4-4-4-4-4-4-0-||
|-----------------|---------------0-||
|
|-----------------|-----------------||
|-----------------|-----------------||
|-----------------|-----------------||
|-3-3-3-3-3-3-3-3-|---------------0-||
|-5-5-5-5-5-5-5-5-|-4-4-4-4-7-7-7-0-||
|-3-3-3-3-3-3-3-3-|-7-7-7-7-7-7-7-0-||


 Outro
  N.C.         D5       N.C.         D5
  Gtrs I, II
   PM--------|           PM--------|
|---------------------|---------------------|
|---------------------|---------------------|
|---------------------|---------------------|
|-------------------0-|-------------------0-|
|--------------0-0--0-|--------------0-0--0-|
|--0-0-0-0-0-0-0-0--0-|--0-0-0-0-0-0-0-0--0-|


  N.C.         D5                N.C.
   PM--------|
|---------------------|------------*|
|---------------------|------------*|
|---------------------|------------*|
|-------------------0-|--0--0-0----*|
|--------------0-0--0-|--0--0-0----*|
|--0-0-0-0-0-0-0-0--0-|--0--0-0----*|


6. Eternal Rest - Check Back For Updates


7. SECOND HEARTBEAT


Gtr I (D A D G B E) - 'Zacky Guitar'
Gtr II (D A D G B E) - 'Synyster Guitar 1'
Gtr III (D A D G B E) - 'Neutral Guitar 1'
Gtr IV (D A D G B E) - 'Wierd Noise During The Interlude'
Gtr V (D A D G B E) - 'Neutral Guitar 2'

 Intro
  Moderately Fast Rock Q=138
  N.C.
 4/4
  Gtr II
  PM--------------------------------------------------------------|
|---------------------------------|---------------------------------|
|---------------------------------|---------------------------------|
|---------------------------------|---------------------------------|
|---------------------------------|---------------------------------|
|-3-3-3-3-3-3-3-3-3-3-3-3-3-3-3-3-|-3-3-3-3-3-3-3-3-3-3-3-3-3-3-3-3-|
|---------------------------------|---------------------------------|


  N.C.
  Gtrs I, II
  PM--------------------------------------------------------------|
|---------------------------------|----------------------------------||
|---------------------------------|----------------------------------||
|---------------------------------|----------------------------------||
|---------------------------------|----------------------------------||
|-3-3-3-3-3-3-3-3-3-3-3-3-3-3-3-3-|-3-3-3-3-3-3-3-3-3-3-3-3-3-3-3-3--||
|---------------------------------|----------------------------------||


 Pre-Verse
  Slightly Slower Q=135
  C5                              Bb5   Ab5              F5     G5
  Gtrs I, II
|---------------|---------------------|----------------|-----/3--------|
|-------3---3---|--4----4--3----------|-----3s4-3------|--------6-4-3--|
|-5---5---------|---------------5---3-|---5-------5-3--|---5-----------|
|---5-----5-----|-----5---------------|-6--------------|-6-------------|
|---------------|---------------------|----------------|---------------|
|---------------|---------------------|----------------|---------------|
|
| Gtr III
|                             PM--|
|---------------|---------------------|----------------|---------------|
|---------------|---------------------|----------------|---------------|
|-5-------------|-(5)-----(5)---------|----------------|---------------|
|-5-------------|-(5)-----(5)-5---3---|-6--------------|-3------5------|
|-3-------------|-(3)-----(3)-3---1---|-6--------------|-3------5------|
|---------------|---------------------|-6--------------|-3------5------|


  C5                              Bb5   Ab5              F5     G5
  Gtr I
|---------------|---------------------|----------------|-----/3--------||
|-------3---3---|--4----4--3----------|-----3s4-3------|--------6-4-3--||
|-5---5---------|---------------5---3-|---5-------5-3--|---5-----------||
|---5-----5-----|-----5---------------|-6--------------|-6-------------||
|---------------|---------------------|----------------|---------------||
|---------------|---------------------|----------------|---------------||
|
| Gtr II
|-------1---1---|--3----3--1----------|-----1s3-1------|-----/6-4-3----||
|-4---4---------|---------------4---3-|---4-------4-3--|---4--------6--||
|---3-----3-----|-----3---------------|-5--------------|-5-------------||
|---------------|---------------------|----------------|---------------||
|---------------|---------------------|----------------|---------------||
|---------------|---------------------|----------------|---------------||
|
| Gtr III
|                             PM--|
|---------------|---------------------|----------------|---------------||
|---------------|---------------------|----------------|---------------||
|-5-------------|-(5)-----(5)---------|----------------|---------------||
|-5-------------|-(5)-----(5)-5---3---|-6--------------|-3------5------||
|-3-------------|-(3)-----(3)-3---1---|-6--------------|-3------5------||
|---------------|---------------------|-6--------------|-3------5------||


    Slightly Slower Q=132
    C5
||----------------------------------|---------------------------------|
||o-----------------3-----------3---|-4-----------4---3---------------|
||--5-----------5-------------------|-----------------------5-----3---|
||--------5---------------5---------|-------5-------------------------|
||o---------------------------------|---------------------------------|
||----------------------------------|---------------------------------|
|
||------------------1-----------1---|-3-----------3---1---------------|
||o-4-----------4-------------------|-----------------------4-----3---|
||--------3---------------3---------|-------3-------------------------|
||----------------------------------|---------------------------------|
||o---------------------------------|---------------------------------|
||----------------------------------|---------------------------------|
|
|   PM--------------------------------------------------------------|
||----------------------------------|---------------------------------|
||o---------------------------------|---------------------------------|
||----------------------------------|---------------------------------|
||--5-5-5-5-5-5-5-5-5-5-5-5-5-5-5-5-|-5-5-5-5-5-5-5-5-5-5-5-5-5-5-5-5-|
||o-3-3-3-3-3-3-3-3-3-3-3-3-3-3-3-3-|-3-3-3-3-3-3-3-3-3-3-3-3-3-3-3-3-|
||----------------------------------|---------------------------------|


  Ab5                               F5               G5
|---------------------------------|-------------/3---------------------||
|-------------3s4-3---------------|------------------6-----4-----3----o||
|-------5---------------5-----3---|-------5----------------------------||
|-6-------------------------------|-6----------------------------------||
|---------------------------------|-----------------------------------o||
|---------------------------------|------------------------------------||
|
|-------------1s3-1---------------|-------------/6---4-----3-----------||
|-------4---------------4-----3---|-------4----------------------6----o||
|-5-------------------------------|-5----------------------------------||
|---------------------------------|------------------------------------||
|---------------------------------|-----------------------------------o||
|---------------------------------|------------------------------------||
|
| PM---------------------------------------------------------------|
|---------------------------------|------------------------------------||
|---------------------------------|-----------------------------------o||
|---------------------------------|------------------------------------||
|---------------------------------|------------------------------------||
|-6-6-6-6-6-6-6-6-6-6-6-6-6-6-6-6-|-3-3-3-3-3-3--3-3-5-5-5-5-5-5-5-5--o||
|-6-6-6-6-6-6-6-6-6-6-6-6-6-6-6-6-|-3-3-3-3-3-3--3-3-5-5-5-5-5-5-5-5---||


  H=H
  C5
  ~~~~~~~~~~~~~~~
|----------|--------||
|-4--------|--------||
|----------|--5-----||
|----------|--------||
|----------|--------||
|----------|--------||
|
| ~~~~~~~~~~~~~~~
|-3--------|--------||
|----------|--------||
|----------|--5-----||
|----------|--------||
|----------|--------||
|----------|--------||
|
|----------|--------||
|----------|--------||
|-5--------|-(5)----||
|-5--------|-(5)----||
|-3--------|-(3)----||
|----------|--------||


   Verse
    Faster Q=195
    C5        D5          Eb5       G5       Ab5             G5
||----------------------|------------------|---------------|----------------||
||o---------------------|------------------|---------------|---------------o||
||--12-12--12-10-10--10-|-12-12--12-3-3--3-|-5-5--5-5-5--5-|-4-4--4-4-4--4--||
||---x--x---x--x--x---x-|--x--x---x-x-x--x-|-x-x--x-x-x--x-|-x-x--x-x-x--x--||
||o-10-10--10--8--8---8-|-10-10--10-1-1--1-|-3-3--3-3-3--3-|-2-2--2-2-2--2-o||
||----------------------|------------------|---------------|----------------||
|
||----------------------|------------------|---------------|----------------||
||o---------------------|------------------|---------------|---------------o||
||--12-12--12--7--7---7-|--8--8---8-3-3--3-|-5-5--5-5-5--5-|-4-4--4-4-4--4--||
||---x--x---x--x--x---x-|--x--x---x-x-x--x-|-x-x--x-x-x--x-|-x-x--x-x-x--x--||
||o-10-10--10--5--5---5-|--6--6---6-1-1--1-|-3-3--3-3-3--3-|-2-2--2-2-2--2-o||
||----------------------|------------------|---------------|----------------||
|
||----------------------|------------------|---------------|----------------||
||o---------------------|------------------|---------------|---------------o||
||---5--5---5--7--7---7-|--8--8---8--------|---------------|----------------||
||---5--5---5--7--7---7-|--8--8---8-5-5--5-|-6-6--6-6-6--6-|-5-5--5-5-5--5--||
||o--3--3---3--5--5---5-|--6--6---6-5-5--5-|-6-6--6-6-6--6-|-5-5--5-5-5--5-o||
||----------------------|-----------5-5--5-|-6-6--6-6-6--6-|-5-5--5-5-5--5--||


  N.C.    C5 N.C.    D5   N.C.    Eb5N.C.        G5
  PM----|    PM----|      PM----|     PM------|
|-----------------------|----------------------------|
|-----------------------|----------------------------|
|---------5----------7--|---------8--------------12--|
|---------5----------7--|---------8--------------12--|
|-3-3-3-3-3--5-5-5-5-5--|-6-6-6-6-6--10-10-10-10-10--|
|-----------------------|----------------------------|
|
| PM----|    PM----|      PM----|     PM------|
|-----------------------|----------------------------|
|-----------------------|----------------------------|
|---------5----------7--|---------8--------------12--|
|---------5----------7--|---------8--------------12--|
|-3-3-3-3-3--5-5-5-5-5--|-6-6-6-6-6--10-10-10-10-10--|
|-----------------------|----------------------------|
|
| PM----|    PM----|      PM----|     PM------|
|-----------------------|----------------------------|
|-----------------------|----------------------------|
|---------5----------7--|---------8--------------12--|
|---------5----------7--|---------8--------------12--|
|-3-3-3-3-3--5-5-5-5-5--|-6-6-6-6-6--10-10-10-10-10--|
|-----------------------|----------------------------|


  Ab5             G5
|---------------|-----------------|
|---------------|-----------------|
|-5-5--5-5-5--5-|-4-4--4-4-4---4--|
|-x-x--x-x-x--x-|-x-x--x-x-x---x--|
|-3-3--3-3-3--3-|-2-2--2-2-2---2--|
|---------------|-----------------|
|
|                        Gtr IV
|                        TPTPTPTP
|---------------|-----------------|
|---------------|-----------------|
|---------------|-----------------|
|-6-6--6-6-6--6-|-5-5--5-xSxSxSx\-|
|-6-6--6-6-6--6-|-5-5--5-xSxSxSx\-|
|-6-6--6-6-6--6-|-5-5--5-xSxSxSx\-|
|
|---------------|-----------------|
|---------------|-----------------|
|---------------|-----------------|
|-6-6--6-6-6--6-|-5-5--5-5-5---5--|
|-6-6--6-6-6--6-|-5-5--5-5-5---5--|
|-6-6--6-6-6--6-|-5-5--5-5-5---5--|


  C5        D5          Eb5       G5       Ab5             G5
  Gtr I
|---------------------|------------------|---------------|----------------|
|---------------------|------------------|---------------|----------------|
|-12-12--12-10-10--10-|-12-12--12-3-3--3-|-5-5--5-5-5--5-|-4-4--4-4-4--4--|
|--x--x---x--x--x---x-|--x--x---x-x-x--x-|-x-x--x-x-x--x-|-x-x--x-x-x--x--|
|-10-10--10--8--8---8-|-10-10--10-1-1--1-|-3-3--3-3-3--3-|-2-2--2-2-2--2--|
|---------------------|------------------|---------------|----------------|
|
| Gtr II
|---------------------|------------------|---------------|----------------|
|---------------------|------------------|---------------|----------------|
|-12-12--12--7--7---7-|--8--8---8-3-3--3-|-5-5--5-5-5--5-|-4-4--4-4-4--4--|
|--x--x---x--x--x---x-|--x--x---x-x-x--x-|-x-x--x-x-x--x-|-x-x--x-x-x--x--|
|-10-10--10--5--5---5-|--6--6---6-1-1--1-|-3-3--3-3-3--3-|-2-2--2-2-2--2--|
|---------------------|------------------|---------------|----------------|
|
| Gtr III
|---------------------|------------------|---------------|----------------|
|---------------------|------------------|---------------|----------------|
|--5--5---5--7--7---7-|--8--8---8--------|---------------|----------------|
|--5--5---5--7--7---7-|--8--8---8-5-5--5-|-6-6--6-6-6--6-|-5-5--5-5-5--5--|
|--3--3---3--5--5---5-|--6--6---6-5-5--5-|-6-6--6-6-6--6-|-5-5--5-5-5--5--|
|---------------------|-----------5-5--5-|-6-6--6-6-6--6-|-5-5--5-5-5--5--|


  Eb5                   D5      N.C.
                        PM----|  ~~~
|---------------------|----------------||
|---------------------|----------------||
|-12-12--12-12-12--12-|----------------||
|--x--x---x--x--x---x-|----------------||
|-10-10--10-10-10--10-|-0-0-0-0-[5]----||
|---------------------|-0-0-0-0--------||
|
|                       PM----|  ~~~
|---------------------|----------------||
|---------------------|----------------||
|-12-12--12-12-12--12-|----------------||
|--x--x---x--x--x---x-|----------------||
|-10-10--10-10-10--10-|-0-0-0-0-[5]----||
|---------------------|-0-0-0-0--------||
|
|                       PM----|
|---------------------|----------------||
|---------------------|----------------||
|---------------------|----------------||
|--1--1---1--1--1---1-|----------------||
|--1--1---1--1--1---1-|-0-0-0-0--------||
|--1--1---1--1--1---1-|-0-0-0-0--------||


 Pre-Chorus
  Slower Q=185
  N.C.
  Gtr I
|------------|-----------------|--------------|-----------------------|
|------------|-----------------|--------------|-----------------------|
|-5---7---8--|-/13------(13)\--|-8---10---12--|-12s15-(15)----(15)\---|
|-x---x---x--|---x-------------|-x----x----x--|--x--------------------|
|-3---5---6--|-/11------(11)\--|-6----8---10--|-10s13-(13)----(13)\---|
|------------|-----------------|--------------|-----------------------|
|
| Gtr II
|------------|-----------------|--------------|-----------------------|
|------------|-----------------|--------------|-----------------------|
|-5---7---8--|-/13------(13)\--|-8---10---12--|-12s15-(15)----(15)\---|
|-x---x---x--|---x-------------|-x----x----x--|--x--------------------|
|-3---5---6--|-/11------(11)\--|-6----8---10--|-10s13-(13)----(13)\---|
|------------|-----------------|--------------|-----------------------|


  N.C.
|---------------|-----------------|--------------|-----------------------||
|---------------|-----------------|--------------|-----------------------||
|--5----7----8--|-/13------(13)\--|-8---10---12--|-12s15-(15)----(15)\---||
|--x----x----x--|---x-------------|-x----x----x--|--x--------------------||
|--3----5----6--|-/11------(11)\--|-6----8---10--|-10s13-(13)----(13)\---||
|---------------|-----------------|--------------|-----------------------||
|
|---------------|-----------------|--------------|-----------------------||
|---------------|-----------------|--------------|-----------------------||
|-17---15---12--|-/13------(13)\--|-8---10---12--|-12s15-(15)----(15)\---||
|--x----x----x--|---x-------------|-x----x----x--|--x--------------------||
|-15---13---10--|-/11------(11)\--|-6----8---10--|-10s13-(13)----(13)\---||
|---------------|-----------------|--------------|-----------------------||


 Chorus
  C5 N.C.C5 N.C.C5 N.C.     Ab5N.C.   AbN.Ab5
  Gtr I
|----------------------|--------------------------|
|----------------------|--------------------------|
|-20-----19-----15-----|-15s17-(17)-------17S=====|
|--x------x------x-----|--x----------------xS=====|
|-18-----17-----13-----|-13s15-(15)-------15S=====|
|----------------------|--------------------------|
|
| Gtr III
|    PM|    PM|    PM----|       PM-|   PM
|----------------------|--------------------------|
|----------------------|--------------------------|
|--5------5------5-----|--------------------------|
|--5------5------5-----|-----6--------6----6-(6)\-|
|--3-3-3--3-3-3--3-----|-----6--------6----6-(6)\-|
|------------------0-0-|--0--6---6--6-6-6--6-(6)\-|


  N.C.      Eb5N.C.   Eb5N.C.   BbN.C.BbN.Bb5
|--------------------------|--------------------|
|--------------------------|--------------------|
|-15-----15-15-(15)---12S==|=10-----------10S===|
|--x------x--x---------xS==|==x------------xS===|
|-13-----13-13-(13)---10S==|==8------------8S===|
|--------------------------|--------------------|
|
|  PM----|       PM-|    PM--|    PM|   PM
|--------------------------|--------------------|
|--------------------------|--------------------|
|--------------------------|----3-----3----3----|
|------------1---------1---|----3-----3----3----|
|------------1---------1---|--1-1-1-1-1-1--1----|
|--1-1-1--1--1---1--1--1-1-|--------------------|


  C5 N.C. C5 N.C.   C5 N.C.    AbN.C.AbN.Ab5
  Gtr I
|--------------------------|--------------------|
|--------------------------|--------------------|
|-12---12-12-(12)---10S====|=8-----------8------|
|--x----x--x---------xS====|=x-----------x------|
|-10---10-10-(10)----8S====|=6-----------6------|
|--------------------------|--------------------|
|
| Gtr II
|--------------------------|--------------------|
|--------------------------|--------------------|
|--------------------------|--------------------|
|--------------------------|--------------------|
|--------------------------|--------------------|
|--------------------------|--------------------|
|
| Gtr III
|    PM|       PM-|    PM----|   PM|   PM
|--------------------------|--------------------|
|--------------------------|--------------------|
|--5-------5---------5-----|--------------------|
|--5-------5---------5-----|---6-----6---6-(6)\-|
|--3-3--3--3---3--3--3-----|---6-----6---6-(6)\-|
|----------------------0-0-|-0-6-6-6-6-6-6-(6)\-|


  N.C.     EbN.C. EbN.C.   BbN.C.BbN.Bb5
|---------------------|------------------|
|---------------------|------------------|
|--8---------10-------|--7-------3-------|
|--x----------x-------|--x-------x-------|
|--6----------8-------|--5-------1-------|
|---------------------|------------------|
|
|---------------------|------------------|
|---------------------|------------------|
|-12---------13-------|-10-------7-------|
|--x----------x-------|--x-------x-------|
|-10---------11-------|--8-------5-------|
|---------------------|------------------|
|
|  PM----|    PM|   PM--|    PM|   PM
|---------------------|------------------|
|---------------------|------------------|
|---------------------|----3-----3---3---|
|----------1------1---|----3-----3---3---|
|----------1------1---|--1-1-1-1-1-1-1---|
|--1-1-1-1-1--1-1-1-1-|------------------|


  C5
|-------------|------------|------------|---------||
|-------------|------------|------------|---------||
|-5-----------|-(5)--------|-12---------|-(12)----||
|-x-----------|------------|--x---------|---------||
|-3-----------|-(3)--------|-10---------|-(10)----||
|-------------|------------|------------|---------||
|
|-------------|------------|------------|---------||
|-------------|------------|------------|---------||
|-5------(5)S=|==9---------|-(9)--------|--(9)----||
|-x-----------|--x---------|------------|---------||
|-3------(3)S=|==7---------|-(7)--------|--(7)----||
|-------------|------------|------------|---------||
|
|-------------|------------|------------|---------||
|-------------|------------|------------|---------||
|-5-----------|-(5)--------|-(5)--------|--(5)----||
|-5-----------|-(5)--------|-(5)--------|--(5)----||
|-3-----------|-(3)--------|-(3)--------|--(3)----||
|-------------|------------|------------|---------||


   Verse
    N.C5N.C.    C5N.C.                 C5
    Gtrs I, II
    PM  PM----|        PM------------|
||-------------------|-----------------------|
||o------------------|-----------------------|
||----5---------5----|-----------------5--5--|
||----5---------5----|-----------------5--5--|
||o-3-3-3-3-3-3-3----|-3-3-3-3-3-3-3-3-3--3--|
||-------------------|-----------------------|


  N.C5N.C.    C5      N.CAb5N.CF5
  PM  PM----|         PM    PM
|-------------------|----------------||
|-------------------|---------------o||
|---5---------5--5--|----------------||
|---5---------5--5--|----6-----3-----||
|-3-3-3-3-3-3-3--3--|----6-----3----o||
|-------------------|-6--6--3--3-----||


  N.C.
  PM--------------------------------------------------------------|
|---------------------------------|----------------------------------|
|---------------------------------|----------------------------------|
|---------------------------------|----------------------------------|
|---------------------------------|----------------------------------|
|-3-3-3-3-3-3-3-3-3-3-3-3-3-3-3-3-|-3-3-3-3-3-3-3-3-3-3-3-3-3-3-3-3--|
|---------------------------------|----------------------------------|


  N.C.                              N.CAb5N.CF5
  PM--------------------------------|     PM
|---------------------------------|-------------|
|---------------------------------|-------------|
|---------------------------------|-------------|
|---------------------------------|----6-----3--|
|-3-3-3-3-3-3-3-3-3-3-3-3-3-3-3-3-|----6-----3--|
|---------------------------------|-6--6--3--3--|


  N.C5N.C.    C5N.C.                 C5      N.C5        C5      N.CAb5N.CF5
  PM  PM----|        PM------------|         PM  PM----|         PM    PM
|------------------|-----------------------|-------------------|-------------|
|------------------|-----------------------|-------------------|-------------|
|---5---------5----|-----------------5--5--|---5---------5--5--|-------------|
|---5---------5----|-----------------5--5--|---5---------5--5--|----6-----3--|
|-3-3-3-3-3-3-3----|-3-3-3-3-3-3-3-3-3--3--|-3-3-3-3-3-3-3--3--|----6-----3--|
|------------------|-----------------------|-------------------|-6--6--3--3--|


  N.C.
  Gtr I
|-------------------|---------------------||
|-------------------|---------------------||
|-------------------|-----------7-(7)s10--||
|----------8-6------|-10-8-6--------------||
|-8h10p8p6-----10-8-|--------10-----------||
|-------------------|---------------------||
|
| Gtr II
|-------------------|---------------------||
|-------------------|---------------------||
|-------------------|--3--------4-(4)s=7--||
|----------5-3------|----6-5--3-----------||
|-5h=6p5p3------6-5-|---------------------||
|-------------------|---------------------||


   Bridge
    C5                        Bb5
    Gtrs I, II
||--------------------------|---------------------|
||o-------------------------|---------------------|
||--------------------------|---------------------|
||--10-10-10-10-(10)-10-10--|-8-8-8-8-(8)-8-8-(8)S|
||o-10-10-10-10-(10)-10-10--|-8-8-8-8-(8)-8-8-(8)S|
||--10-10-10-10-(10)-10-10--|-8-8-8-8-(8)-8-8-(8)S|


  Ab5                Bb5
|------------------|-------------------||
|------------------|------------------o||
|------------------|-------------------||
|-6-6-6-6-(6)-6-6--|-8-8-8-8-(8)-8-8---||
|-6-6-6-6-(6)-6-6--|-8-8-8-8-(8)-8-8--o||
|-6-6-6-6-(6)-6-6--|-8-8-8-8-(8)-8-8---||


  C5                        Bb5
  Gtr II
|-------------------------|---------------------|
|-/4-------------------4--|-3-------------3-----|
|-----------5-------------|-------3-------------|
|-------------------------|---------------------|
|-------------------------|---------------------|
|-------------------------|---------------------|
|
| Gtr III
|-------------------------|---------------------|
|-------------------------|---------------------|
|-------------------------|---------------------|
|-10-10-10-10-(10)-10-10--|-8-8-8-8-(8)-8-8-(8)S|
|-10-10-10-10-(10)-10-10--|-8-8-8-8-(8)-8-8-(8)S|
|-10-10-10-10-(10)-10-10--|-8-8-8-8-(8)-8-8-(8)S|


  Ab5                      Bb5
|------------------------|---------------------|
|-/4-------------6-(6)b8-|-(6)---4----3--------|
|--------5---------------|-----------------3---|
|------------------------|---------------------|
|------------------------|---------------------|
|------------------------|---------------------|
|
|------------------------|---------------------|
|------------------------|---------------------|
|------------------------|---------------------|
|--6-6-6-6-(6)-6-6-------|--8--8-8-8-(8)-8-8---|
|--6-6-6-6-(6)-6-6-------|--8--8-8-8-(8)-8-8---|
|--6-6-6-6-(6)-6-6-------|--8--8-8-8-(8)-8-8---|


  C5                        Bb5
|-------------------------|---------------------|
|-/4-------------------4--|-3-------------3-----|
|-----------5-------------|-------3-------------|
|-------------------------|---------------------|
|-------------------------|---------------------|
|-------------------------|---------------------|
|
|-------------------------|---------------------|
|-------------------------|---------------------|
|-------------------------|---------------------|
|-10-10-10-10-(10)-10-10--|-8-8-8-8-(8)-8-8-(8)S|
|-10-10-10-10-(10)-10-10--|-8-8-8-8-(8)-8-8-(8)S|
|-10-10-10-10-(10)-10-10--|-8-8-8-8-(8)-8-8-(8)S|


  Ab5                 Bb5
|-------------------|---------------/6---|
|----------------4--|-------3------------|
|--------5----------|-3------------------|
|-/6----------------|--------------------|
|-------------------|--------------------|
|-------------------|--------------------|
|
|-------------------|--------------------|
|-------------------|--------------------|
|-------------------|--------------------|
|--6-6-6-6-(6)-6-6--|-8-8-8-8-(8)-8--8---|
|--6-6-6-6-(6)-6-6--|-8-8-8-8-(8)-8--8---|
|--6-6-6-6-(6)-6-6--|-8-8-8-8-(8)-8--8---|


  $
  C5                        Bb5
  Gtr I
|-------------------------|-----------------------|
|-/8-------------------8--|-----------------------|
|-----------8-------------|-10-----7-------10-----|
|-------------------------|-----------------------|
|-------------------------|-----------------------|
|-------------------------|-----------------------|
|
| Gtr II
|-------------------------|-----------------------|
|-/4-------------------4--|--3--------------3-----|
|-----------5-------------|--------3--------------|
|-------------------------|-----------------------|
|-------------------------|-----------------------|
|-------------------------|-----------------------|
|
| Gtr III
|-------------------------|-----------------------|
|-------------------------|-----------------------|
|-------------------------|-----------------------|
|-10-10-10-10-(10)-10-10--|--8-8-8-8-(8)-8--8-(8)S|
|-10-10-10-10-(10)-10-10--|--8-8-8-8-(8)-8--8-(8)S|
|-10-10-10-10-(10)-10-10--|--8-8-8-8-(8)-8--8-(8)S|


  Ab5                       Bb5
|-------------------------|---------------------|
|-/8-------------9-(9)b11-|-(9)---8-------------|
|--------8----------------|-----------10----7---|
|-------------------------|---------------------|
|-------------------------|---------------------|
|-------------------------|---------------------|
|
|-------------------------|---------------------|
|-/4-------------6-(6)b8--|-(6)---4----3--------|
|--------5----------------|-----------------3---|
|-------------------------|---------------------|
|-------------------------|---------------------|
|-------------------------|---------------------|
|
|-------------------------|---------------------|
|-------------------------|---------------------|
|-------------------------|---------------------|
|--6-6-6-6-(6)-6-6--------|--8--8-8-8-(8)-8-8---|
|--6-6-6-6-(6)-6-6--------|--8--8-8-8-(8)-8-8---|
|--6-6-6-6-(6)-6-6--------|--8--8-8-8-(8)-8-8---|


  C5                        Bb5
|-------------------------|-----------------------|
|-/8-------------------8--|-----------------------|
|-----------8-------------|-10-----7-------10-----|
|-------------------------|-----------------------|
|-------------------------|-----------------------|
|-------------------------|-----------------------|
|
|-------------------------|-----------------------|
|-/4-------------------4--|--3--------------3-----|
|-----------5-------------|--------3--------------|
|-------------------------|-----------------------|
|-------------------------|-----------------------|
|-------------------------|-----------------------|
|
|-------------------------|-----------------------|
|-------------------------|-----------------------|
|-------------------------|-----------------------|
|-10-10-10-10-(10)-10-10--|--8-8-8-8-(8)-8--8-(8)S|
|-10-10-10-10-(10)-10-10--|--8-8-8-8-(8)-8--8-(8)S|
|-10-10-10-10-(10)-10-10--|--8-8-8-8-(8)-8--8-(8)S|


                               To Coda
  Ab5                  Bb5
|--------------------|----------------10---||
|-----------------8--|--------8------------||
|---------8----------|-10------------------||
|-/10----------------|---------------------||
|--------------------|---------------------||
|--------------------|---------------------||
|
|--------------------|-----------------6---||
|-----------------4--|--------3------------||
|---------5----------|--3------------------||
|--/6----------------|---------------------||
|--------------------|---------------------||
|--------------------|---------------------||
|
|--------------------|---------------------||
|--------------------|---------------------||
|--------------------|---------------------||
|---6-6-6-6-(6)-6-6--|--8-8-8-8-(8)-8--8---||
|---6-6-6-6-(6)-6-6--|--8-8-8-8-(8)-8--8---||
|---6-6-6-6-(6)-6-6--|--8-8-8-8-(8)-8--8---||


 Chorus
  C5
    ~~~~~~~~~~~~~~~~~~~~~~~~~~~~~~
|-/11----------------------|-(11)----------------------|
|--------------------------|---------------------------|
|--------------------------|---------------------------|
|--------------------------|---------------------------|
|--------------------------|---------------------------|
|--------------------------|---------------------------|
|
|   ~~~~~~~~~~~~~~~~~~~~~~~~~~~~~~
|--/8----------------------|--(8)----------------------|
|--------------------------|---------------------------|
|--------------------------|---------------------------|
|--------------------------|---------------------------|
|--------------------------|---------------------------|
|--------------------------|---------------------------|
|
|--------------------------|---------------------------|
|--------------------------|---------------------------|
|--------------------------|---------------------------|
|--10-10-10-10-10-10-10-10-|--10--10-10-10-10-10-10-10-|
|--10-10-10-10-10-10-10-10-|--10--10-10-10-10-10-10-10-|
|--10-10-10-10-10-10-10-10-|--10--10-10-10-10-10-10-10-|


  Bb5
|-----------------|------------------|
|-----------------|------------------|
|-----------------|------------------|
|-8-8-8-8-8-8-8-8-|-8-8-8-8-8-8-8-8--|
|-8-8-8-8-8-8-8-8-|-8-8-8-8-8-8-8-8--|
|-8-8-8-8-8-8-8-8-|-8-8-8-8-8-8-8-8--|
|
|-----------------|------------------|
|-----------------|------------------|
|-----------------|------------------|
|-8-8-8-8-8-8-8-8-|-8-8-8-8-8-8-8-8--|
|-8-8-8-8-8-8-8-8-|-8-8-8-8-8-8-8-8--|
|-8-8-8-8-8-8-8-8-|-8-8-8-8-8-8-8-8--|
|
|-----------------|------------------|
|-----------------|------------------|
|-----------------|------------------|
|-----------------|------------------|
|-----------------|------------------|
|-----------------|------------------|


  Eb5               Bb5
  Gtrs I, II
|-----------------|-----------------|
|-----------------|-----------------|
|-----------------|-----------------|
|-1-1-1-1-1-1-1-1-|-8-8-8-8-8-8-8-8-|
|-1-1-1-1-1-1-1-1-|-8-8-8-8-8-8-8-8-|
|-1-1-1-1-1-1-1-1-|-8-8-8-8-8-8-8-8-|


  C5
|-------------------------|--------------------------|
|-------------------------|--------------------------|
|-------------------------|--------------------------|
|-10-10-10-10-10-10-10-10-|-10-10-10-10-10-10-10-10--|
|-10-10-10-10-10-10-10-10-|-10-10-10-10-10-10-10-10--|
|-10-10-10-10-10-10-10-10-|-10-10-10-10-10-10-10-10--|


  C5
|-------------------------|-------------------------|
|-------------------------|-------------------------|
|-------------------------|-------------------------|
|-10-10-10-10-10-10-10-10-|-10-10-10-10-10-10-10-10-|
|-10-10-10-10-10-10-10-10-|-10-10-10-10-10-10-10-10-|
|-10-10-10-10-10-10-10-10-|-10-10-10-10-10-10-10-10-|


  Bb5
|-----------------|------------------|
|-----------------|------------------|
|-----------------|------------------|
|-8-8-8-8-8-8-8-8-|-8-8-8-8-8-8-8-8--|
|-8-8-8-8-8-8-8-8-|-8-8-8-8-8-8-8-8--|
|-8-8-8-8-8-8-8-8-|-8-8-8-8-8-8-8-8--|


  Eb5               Bb5
|-----------------|-----------------|
|-----------------|-----------------|
|-----------------|-----------------|
|-1-1-1-1-1-1-1-1-|-8-8-8-8-8-8-8-8-|
|-1-1-1-1-1-1-1-1-|-8-8-8-8-8-8-8-8-|
|-1-1-1-1-1-1-1-1-|-8-8-8-8-8-8-8-8-|


  C5
|-------------------------|--------------------------||
|-------------------------|--------------------------||
|-------------------------|--------------------------||
|-10-10-10-10-10-10-10-10-|-10-10-10-10-10-10-10-10--||
|-10-10-10-10-10-10-10-10-|-10-10-10-10-10-10-10-10--||
|-10-10-10-10-10-10-10-10-|-10-10-10-10-10-10-10-10--||


    C5
||--------------------------|-------------------------|
||o-------------------------|-------------------------|
||--------------------------|-------------------------|
||--10-10-10-10-10-10-10-10-|-10-10-10-10-10-10-10-10-|
||o-10-10-10-10-10-10-10-10-|-10-10-10-10-10-10-10-10-|
||--10-10-10-10-10-10-10-10-|-10-10-10-10-10-10-10-10-|


  Bb5
|-----------------|-----------------|
|-----------------|-----------------|
|-----------------|-----------------|
|-8-8-8-8-8-8-8-8-|-8-8-8-8-8-8-8-8-|
|-8-8-8-8-8-8-8-8-|-8-8-8-8-8-8-8-8-|
|-8-8-8-8-8-8-8-8-|-8-8-8-8-8-8-8-8-|


  1.
  Eb5               Bb5
|-----------------|-----------------|
|-----------------|-----------------|
|-----------------|-----------------|
|-1-1-1-1-1-1-1-1-|-8-8-8-8-8-8-8-8-|
|-1-1-1-1-1-1-1-1-|-8-8-8-8-8-8-8-8-|
|-1-1-1-1-1-1-1-1-|-8-8-8-8-8-8-8-8-|


  C5
|-----------------------|-----------------------------||
|-----------------------|----------------------------o||
|-----------------------|-----------------------------||
|-10--10-10-(10)-10-10--|-10-10-(10)-10-10-10-10-10---||
|-10--10-10-(10)-10-10--|-10-10-(10)-10-10-10-10-10--o||
|-10--10-10-(10)-10-10--|-10-10-(10)-10-10-10-10-10---||


  2.
  Eb5               Bb5
|-----------------|-----------------|
|-----------------|-----------------|
|-----------------|-----------------|
|-1-1-1-1-1-1-1-1-|-8-8-8-8-8-8-8-8-|
|-1-1-1-1-1-1-1-1-|-8-8-8-8-8-8-8-8-|
|-1-1-1-1-1-1-1-1-|-8-8-8-8-8-8-8-8-|


  C5
|-----------------------|----------------------------||
|-----------------------|----------------------------||
|-----------------------|----------------------------||
|-10--10-10-(10)-10-10--|-(10)-10-10-10-10-10-10-10--||
|-10--10-10-(10)-10-10--|-(10)-10-10-10-10-10-10-10--||
|-10--10-10-(10)-10-10--|-(10)-10-10-10-10-10-10-10--||


 Guitar Break
  C5                            Bb5
  Gtrs I, II
|-----------|-----------------|----------|--------|
|-----------|-----------------|----------|--------|
|-----------|-----------------|----------|--------|
|-10--------|-(10)------------|-8--------|-(8)----|
|-10--------|-(10)------------|-8--------|-(8)----|
|-10--------|-(10)------------|-8--------|-(8)----|
|
| Gtr III
|-----------|-----------------|----------|--------|
|-----------|-----------------|----------|--------|
|--5--------|--(5)--(5)S=8----|-7--------|-(7)----|
|--x--------|------------x----|-x--------|--------|
|--3--------|--(3)--(3)S=6----|-5--------|-(5)----|
|-----------|-----------------|----------|--------|


  F5                  G5   Ab5          Bb5
|----------|-------------|------------|-------------||
|----------|-------------|------------|-------------||
|----------|-------------|------------|-------------||
|-3--------|-(3)------5--|-6----------|--8----------||
|-3--------|-(3)------5--|-6----------|--8----------||
|-3--------|-(3)------5--|-6----------|--8----------||
|
|----------|-------------|------------|-------------||
|----------|-------------|------------|-------------||
|-5--------|-(5)------7--|-8------12--|-10----15----||
|-x--------|----------x--|-x-------x--|--x-----x----||
|-3--------|-(3)------5--|-6------10--|--8----13----||
|----------|-------------|------------|-------------||


 Interlude
  Faster Q=189
  C5                N.D5   Eb5D5 Eb5F5   G5  N.C.    Bb5 N.G/B   N.C.
|------------------------|-------------|-----------|----------------|
|------------------------|-------------|-----------|----------------|
|------------------------|-------------|-----------|----------------|
|-10-10-(10)--(10)\---0--|-1--0--1--3--|-5-5-------|-8-8----9--9----|
|-10-10-(10)--(10)\---0--|-1--0--1--3--|-5-5-------|-8-8---10-10----|
|-10-10-(10)--(10)\---0--|-1--0--1--3--|-5-5-------|-8-8----9--9----|
|
|------------------------|-------------|-----------|----------------|
|------------------------|-------------|-----------|----------------|
|-17----(17)\------------|-------------|-----------|----------------|
|--x---------------------|-------------|-----------|----------------|
|-15----(15)\------------|-------------|-----------|----------------|
|------------------------|-------------|-----------|----------------|


    C5               N.D5   Eb5D5 Eb5F5   G5  N.C.    Bb5 N.G/B   N.C.
    Gtrs I, II
                                                                     3x
||------------------------|-------------|-----------|----------------||
||o-----------------------|-------------|-----------|---------------o||
||------------------------|-------------|-----------|----------------||
||--10-10-(10)-(10)\---0--|-1--0--1--3--|-5-5-------|-8-8----9--9----||
||o-10-10-(10)-(10)\---0--|-1--0--1--3--|-5-5-------|-8-8---10-10---o||
||--10-10-(10)-(10)\---0--|-1--0--1--3--|-5-5-------|-8-8----9--9----||


 Breakdown
  D5                      Eb5   D5 Eb5D5
 2/2
  Gtrs I, II
|-----------------------|----------------|
|-----------------------|----------------|
|-----------------------|----------------|
|--0--------0--------0--|---1---0--1--0--|
|--0--------0--------0--|---1---0--1--0--|
|--0--------0--------0--|---1---0--1--0--|
|
| Gtr III
|-----------------------|----------------|
|-10-----------(10)-----|-(10)-----------|
|-12b13.5======(12)-----|-(12)-----------|
|-----------------------|----------------|
|-----------------------|----------------|
|-----------------------|----------------|


           PM--------------------------|
|------------------|---------------------|
|------------------|---------------------|
|------------------|---------------------|
|---0---0----------|---------------------|
|---0---0--0-0-0-0-|---0---0-0-0-0-0-0-0-|
|---0---0--0-0-0-0-|---0---0-0-0-0-0-0-0-|
|
|   ~~~~~~~~~~~~~~~~~~~~~~~
|------------------|---------------------|
|-(10)-------------|-(10)----------------|
|-(12)-------------|-(12)r---------------|
|------------------|---------------------|
|------------------|---------------------|
|------------------|---------------------|


  D5                      Eb5   D5 Eb5D5
|-----------------------|----------------|
|-----------------------|----------------|
|-----------------------|----------------|
|--0--------0--------0--|---1---0--1--0--|
|--0--------0--------0--|---1---0--1--0--|
|--0--------0--------0--|---1---0--1--0--|
|
|-----------------------|----------------|
|-10-----------(10)-----|-(10)-----------|
|-12b13.5======(12)-----|-(12)-----------|
|-----------------------|----------------|
|-----------------------|----------------|
|-----------------------|----------------|


                     F5          E5
           PM--------------------------|
|------------------|---------------------|
|------------------|---------------------|
|------------------|---------------------|
|---0---0----------|---------------------|
|---0---0--0-0-0-0-|---3---3-3-3-2-2-2-2-|
|---0---0--0-0-0-0-|---3---3-3-3-2-2-2-2-|
|
|   ~~~~~~~~~~~~~~~~~~~~~~~
|------------------|---------------------|
|-(10)-------------|-(10)----------------|
|-(12)-------------|-(12)r---------------|
|------------------|---------------------|
|------------------|---------------------|
|------------------|---------------------|


  D5                         Eb5   D5       Eb5 D5
  Gtrs I, II
|--------------------------|-----------------------|
|--------------------------|-----------------------|
|--------------------------|-----------------------|
|--0--------0----------0---|---1-----0-------1--0--|
|--0--------0----------0---|---1-----0-------1--0--|
|--0--------0----------0---|---1-----0-------1--0--|
|
| Gtr III
|--------------------------|-----------------------|
|-10-----------(10)--------|-(10)------------------|
|-12b13.5======(12)--------|-(12)------------------|
|--------------------------|-----------------------|
|--------------------------|-----------------------|
|--------------------------|-----------------------|
|
| Gtr V
|-12b13--------------(12)--|-(12)--(12)b13--12-----|
|--------------------------|-----------------------|
|--------------------------|-----------------------|
|--------------------------|-----------------------|
|--------------------------|-----------------------|
|--------------------------|-----------------------|


               PM---------------------------|
|-----------------------|---------------------|
|-----------------------|---------------------|
|-----------------------|---------------------|
|---0-----0-------------|---------------------|
|---0-----0----0--0-0-0-|---0---0-0-0-0-0-0-0-|
|---0-----0----0--0-0-0-|---0---0-0-0-0-0-0-0-|
|
|   ~~~~~~~~~~~~~~~~~~~~~~~~~~~~
|-----------------------|---------------------|
|-(10)------------------|-(10)----------------|
|-(12)------------------|-(12)r---------------|
|-----------------------|---------------------|
|-----------------------|---------------------|
|-----------------------|---------------------|
|
|--12b13-----(12)-------|-(12)----------------|
|-----------------------|---------------------|
|-----------------------|---------------------|
|-----------------------|---------------------|
|-----------------------|---------------------|
|-----------------------|---------------------|


  D5                      Eb5          D5        Eb5          D5
|-----------------------|--------------------------------------------|
|-----------------------|--------------------------------------------|
|-----------------------|--------------------------------------------|
|--0--------0--------0--|---1----------0-----------1----------0------|
|--0--------0--------0--|---1----------0-----------1----------0------|
|--0--------0--------0--|---1----------0-----------1----------0------|
|
|-----------------------|--------------------------------------------|
|-10-----------(10)-----|-(10)---------------------------------------|
|-12b13.5======(12)-----|-(12)---------------------------------------|
|-----------------------|--------------------------------------------|
|-----------------------|--------------------------------------------|
|-----------------------|--------------------------------------------|
|
|  ~~~~~~~~
|-15--------------------|-(15)b16-(15)---(15)b16-(15)-(15)b16---(15)-|
|-----------------------|--------------------------------------------|
|-----------------------|--------------------------------------------|
|-----------------------|--------------------------------------------|
|-----------------------|--------------------------------------------|
|-----------------------|--------------------------------------------|


                         F5          E5
               PM---------------------------|
|----------------------|----------------------||
|----------------------|----------------------||
|----------------------|----------------------||
|---0------0-----------|----------------------||
|---0------0---0-0-0-0-|---3---3-3-3--2-2-2-2-||
|---0------0---0-0-0-0-|---3---3-3-3--2-2-2-2-||
|
|   ~~~~~~~~~~~~~~~~~~~~~~~~~~~
|----------------------|----------------------||
|-(10)-----------------|-(10)-----------------||
|-(12)-----------------|-(12)r----------------||
|----------------------|----------------------||
|----------------------|----------------------||
|----------------------|----------------------||
|
|              ~~~~~~~~~~~~~~~~~~~~~~~~~
|-(15)b16-----15-------|--15---------15-------||
|----------------------|----------------------||
|----------------------|----------------------||
|----------------------|----------------------||
|----------------------|----------------------||
|----------------------|----------------------||


  D5                E5  F5  A5   Bb5          G/B
|-----------|------------------|------------|--------||
|-----------|------------------|------------|--------||
|-----------|------------------|------------|--------||
|--0--------|---0----2---3--7--|---8--------|---9----||
|--0--------|---0----2---3--7--|---8--------|--10----||
|--0--------|---0----2---3--7--|---8--------|---9----||
|
|-----------|------------------|------------|--------||
|-----------|------------------|------------|--------||
|-19--------|--19---17--14--7--|--15--------|--16----||
|--x--------|---x----x---x--x--|---x--------|---x----||
|-17--------|--17---15--12--5--|--13--------|--14----||
|-----------|------------------|------------|--------||
|
|-----------|------------------|------------|--------||
|-----------|------------------|------------|--------||
|-19--------|-(19)-------------|-/15--------|-/16----||
|-----------|------------------|------------|--------||
|-----------|------------------|------------|--------||
|-----------|------------------|------------|--------||


 Re-Intro
  Slower Q=100
  C5
 4/4
  Gtr III
   |                              |
   /                              /

  Gtr I
|----------------------1---1--|---3----3-1----------|
|--4-----------------4--------|------------4---3----|
|-------------3----------3----|------3--------------|
|-----------------------------|---------------------|
|-----------------------------|---------------------|
|-----------------------------|---------------------|
|
| Gtr II
|-----------------------------|---------------------|
|----------------------3---3--|---4----4-3----------|
|--5-----------------5--------|------------5---3----|
|-------------5----------5----|------5--------------|
|-----------------------------|---------------------|
|-----------------------------|---------------------|
|
| Gtr V
|                 ~~~~~~~~~~~~~~~~~~~
|-----------------------------|---------------------|
|-----------------------------|---------------------|
|-15b17==(15)---(15)----------|-(15)---------(15)r==|
|-----------------------------|---------------------|
|-----------------------------|---------------------|
|-----------------------------|---------------------|


  N.C.
|--------1s3-1------|------/6-4-3------|
|------4-------4-3--|----4--------6----|
|---5---------------|--5---------------|
|-------------------|------------------|
|-------------------|------------------|
|-------------------|------------------|
|
|-------------------|------/3----------|
|--------3s4-3------|---------6-4-3----|
|------5-------5-3--|----5-------------|
|---6---------------|--6---------------|
|-------------------|------------------|
|-------------------|------------------|
|
|   ~~~~~~~~~~~~~~~~~~~~~
|-------------------|------------------|
|-------------------|------------------|
|-(15)--------------|-15---------------|
|-------------------|------------------|
|-------------------|------------------|
|-------------------|------------------|


  N.C.
|-------1---1-|-3---3-1-----|-----1s3-1-----|-----/6-4-3---||
|-4---4-------|---------4-3-|---4-------4-3-|---4--------6-||
|---3-----3---|---3---------|-5-------------|-5------------||
|-------------|-------------|---------------|--------------||
|-------------|-------------|---------------|--------------||
|-------------|-------------|---------------|--------------||
|
|-------------|-------------|---------------|-----/3-------||
|-------3---3-|-4---4-3-----|-----3s4-3-----|--------6-4-3-||
|-5---5-------|---------5-3-|---5-------5-3-|---5----------||
|---5-----5---|---5---------|-6-------------|-6------------||
|-------------|-------------|---------------|--------------||
|-------------|-------------|---------------|--------------||


    C5
    Gtr I
||------------------1-----------1---|-3-----------3---1---------------|
||o-4-----------4-------------------|-----------------------4-----3---|
||--------3---------------3---------|-------3-------------------------|
||----------------------------------|---------------------------------|
||o---------------------------------|---------------------------------|
||----------------------------------|---------------------------------|
|
|   Gtr II
||----------------------------------|---------------------------------|
||o-----------------3-----------3---|-4-----------4---3---------------|
||--5-----------5-------------------|-----------------------5-----3---|
||--------5---------------5---------|-------5-------------------------|
||o---------------------------------|---------------------------------|
||----------------------------------|---------------------------------|
|
|   Gtr III
|   PM--------------------------------------------------------------|
||----------------------------------|---------------------------------|
||o---------------------------------|---------------------------------|
||----------------------------------|---------------------------------|
||--5-5-5-5-5-5-5-5-5-5-5-5-5-5-5-5-|-5-5-5-5-5-5-5-5-5-5-5-5-5-5-5-5-|
||o-3-3-3-3-3-3-3-3-3-3-3-3-3-3-3-3-|-3-3-3-3-3-3-3-3-3-3-3-3-3-3-3-3-|
||----------------------------------|---------------------------------|


  Ab5                               F5               G5
|-------------1s3-1---------------|-------------/6---4-----3-----------||
|-------4---------------4-----3---|-------4----------------------6----o||
|-5-------------------------------|-5----------------------------------||
|---------------------------------|------------------------------------||
|---------------------------------|-----------------------------------o||
|---------------------------------|------------------------------------||
|
|---------------------------------|-------------/3---------------------||
|-------------3s4-3---------------|------------------6-----4-----3----o||
|-------5---------------5-----3---|-------5----------------------------||
|-6-------------------------------|-6----------------------------------||
|---------------------------------|-----------------------------------o||
|---------------------------------|------------------------------------||
|
| PM---------------------------------------------------------------|
|---------------------------------|------------------------------------||
|---------------------------------|-----------------------------------o||
|---------------------------------|------------------------------------||
|---------------------------------|------------------------------------||
|-6-6-6-6-6-6-6-6-6-6-6-6-6-6-6-6-|-3-3-3-3-3-3--3-3-5-5-5-5-5-5-5-5--o||
|-6-6-6-6-6-6-6-6-6-6-6-6-6-6-6-6-|-3-3-3-3-3-3--3-3-5-5-5-5-5-5-5-5---||


  a Tempo Q=185
  C5                                      N.C.
  ~~~~~~~~~~~~~~~             ~~~
|----------|---------------|------------|-----||
|-8--------|-(8)-------(8)s|==4---------|-----||
|----------|---------------|------------|-----||
|----------|---------------|------------|-----||
|----------|---------------|------------|-----||
|----------|---------------|------------|-----||
|
| ~~~~~~~~~~~~~~~             ~~~
|----------|---------------|------------|-----||
|-4--------|-(4)-------(4)s|==1---------|-----||
|----------|---------------|------------|-----||
|----------|---------------|------------|-----||
|----------|---------------|------------|-----||
|----------|---------------|------------|-----||
|
|----------|---------------|------------|-----||
|----------|---------------|------------|-----||
|-5--------|-(5)-----------|-(5)--------|-----||
|-5--------|-(5)-----------|-(5)--------|-----||
|-3--------|-(3)-----------|-(3)--------|-----||
|----------|---------------|------------|-----||


   Chorus
    C5
    Gtrs I, II
||--------------------------|-------------------------|
||o-------------------------|-------------------------|
||--------------------------|-------------------------|
||--10-10-10-10-10-10-10-10-|-10-10-10-10-10-10-10-10-|
||o-10-10-10-10-10-10-10-10-|-10-10-10-10-10-10-10-10-|
||--10-10-10-10-10-10-10-10-|-10-10-10-10-10-10-10-10-|


  Bb5
|-----------------|-----------------|
|-----------------|-----------------|
|-----------------|-----------------|
|-8-8-8-8-8-8-8-8-|-8-8-8-8-8-8-8-8-|
|-8-8-8-8-8-8-8-8-|-8-8-8-8-8-8-8-8-|
|-8-8-8-8-8-8-8-8-|-8-8-8-8-8-8-8-8-|


  Eb5               Bb5
|-----------------|-----------------|
|-----------------|-----------------|
|-----------------|-----------------|
|-1-1-1-1-1-1-1-1-|-8-8-8-8-8-8-8-8-|
|-1-1-1-1-1-1-1-1-|-8-8-8-8-8-8-8-8-|
|-1-1-1-1-1-1-1-1-|-8-8-8-8-8-8-8-8-|


                                     D.S. al Coda
  C5
|-------------------------|---------------------------||
|-------------------------|--------------------------o||
|-------------------------|---------------------------||
|-10-10-10-10-10-10-10-10-|-10-10-10-10-10-10-10-10---||
|-10-10-10-10-10-10-10-10-|-10-10-10-10-10-10-10-10--o||
|-10-10-10-10-10-10-10-10-|-10-10-10-10-10-10-10-10---||


  &
  C5                        Bb5
  Gtr I
|-------------------------|-----------------------|
|-/8-------------------8--|-----------------------|
|-----------8-------------|-10-----7-------10-----|
|-------------------------|-----------------------|
|-------------------------|-----------------------|
|-------------------------|-----------------------|
|
| Gtr II
|-------------------------|-----------------------|
|-/4-------------------4--|--3--------------3-----|
|-----------5-------------|--------3--------------|
|-------------------------|-----------------------|
|-------------------------|-----------------------|
|-------------------------|-----------------------|
|
| Gtr III
|-------------------------|-----------------------|
|-------------------------|-----------------------|
|-------------------------|-----------------------|
|-10-10-10-10-(10)-10-10--|--8-8-8-8-(8)-8--8-(8)S|
|-10-10-10-10-(10)-10-10--|--8-8-8-8-(8)-8--8-(8)S|
|-10-10-10-10-(10)-10-10--|--8-8-8-8-(8)-8--8-(8)S|


  Ab5                       Bb5
|-------------------------|---------------------|
|-/8-------------9-(9)b11-|-(9)---8-------------|
|--------8----------------|-----------10----7---|
|-------------------------|---------------------|
|-------------------------|---------------------|
|-------------------------|---------------------|
|
|-------------------------|---------------------|
|-/4-------------6-(6)b8--|-(6)---4----3--------|
|--------5----------------|-----------------3---|
|-------------------------|---------------------|
|-------------------------|---------------------|
|-------------------------|---------------------|
|
|-------------------------|---------------------|
|-------------------------|---------------------|
|-------------------------|---------------------|
|--6-6-6-6-(6)-6-6--------|--8--8-8-8-(8)-8-8---|
|--6-6-6-6-(6)-6-6--------|--8--8-8-8-(8)-8-8---|
|--6-6-6-6-(6)-6-6--------|--8--8-8-8-(8)-8-8---|


  C5                        Bb5
|-------------------------|---------------------|
|-/4-------------------4--|-3-------------3-----|
|-----------5-------------|-------3-------------|
|-------------------------|---------------------|
|-------------------------|---------------------|
|-------------------------|---------------------|
|
|-------------------------|---------------------|
|-/4-------------------4--|-3-------------3-----|
|-----------5-------------|-------3-------------|
|-------------------------|---------------------|
|-------------------------|---------------------|
|-------------------------|---------------------|
|
|-------------------------|---------------------|
|-------------------------|---------------------|
|-------------------------|---------------------|
|-10-10-10-10-(10)-10-10--|-8-8-8-8-(8)-8-8-(8)S|
|-10-10-10-10-(10)-10-10--|-8-8-8-8-(8)-8-8-(8)S|
|-10-10-10-10-(10)-10-10--|-8-8-8-8-(8)-8-8-(8)S|


  Ab5                      Bb5
|------------------------|----------8-10-----8-10--||
|-------------8-----8--9-|-11--9-11-------11-------||
|--8-7--8-10-----10------|-------------------------||
|------------------------|-------------------------||
|------------------------|-------------------------||
|------------------------|-------------------------||
|
|------------------------|-------------------------||
|------------------------|--8-----8-9-11-----9-11--||
|----------7--8---7-8-10-|----10----------12-------||
|-10-8-10----------------|-------------------------||
|------------------------|-------------------------||
|------------------------|-------------------------||
|
|------------------------|-------------------------||
|------------------------|-------------------------||
|------------------------|-------------------------||
|--6-6--6--6-(6)--6-6----|--8--8--8-8-(8)--8-8-----||
|--6-6--6--6-(6)--6-6----|--8--8--8-8-(8)--8-8-----||
|--6-6--6--6-(6)--6-6----|--8--8--8-8-(8)--8-8-----||


 Chorus
  C5
   ~~~~~~~~~~~~~~~~~~~~~~~~~~~~~~
|-11----------------------|-(11)----------------(11)\----|
|-------------------------|------------------------------|
|-------------------------|------------------------------|
|-------------------------|------------------------------|
|-------------------------|------------------------------|
|-------------------------|------------------------------|
|
|  ~~~~~~~~~~~~~~~~~~~~~~~~~~~~~~
|--8----------------------|--(8)-----------------(8)\----|
|-------------------------|------------------------------|
|-------------------------|------------------------------|
|-------------------------|------------------------------|
|-------------------------|------------------------------|
|-------------------------|------------------------------|
|
|-------------------------|------------------------------|
|-------------------------|------------------------------|
|-------------------------|------------------------------|
|-10-10-10-10-10-10-10-10-|--10--10-10-10-10-10--10---10-|
|-10-10-10-10-10-10-10-10-|--10--10-10-10-10-10--10---10-|
|-10-10-10-10-10-10-10-10-|--10--10-10-10-10-10--10---10-|


  Bb5
|-----------------|------------------|
|-----------------|------------------|
|-----------------|------------------|
|-----------------|------------------|
|-----------------|------------------|
|-----------------|------------------|
|
|-----------------|------------------|
|-----------------|------------------|
|-----------------|------------------|
|-----------------|------------------|
|-----------------|------------------|
|-----------------|------------------|
|
|-----------------|------------------|
|-----------------|------------------|
|-----------------|------------------|
|-8-8-8-8-8-8-8-8-|-8-8-8-8-8-8-8-8--|
|-8-8-8-8-8-8-8-8-|-8-8-8-8-8-8-8-8--|
|-8-8-8-8-8-8-8-8-|-8-8-8-8-8-8-8-8--|


  Ab5               Bb5
  Gtrs I, II
|-----------------|-----------------|
|-----------------|-----------------|
|-----------------|-----------------|
|-1-1-1-1-1-1-1-1-|-8-8-8-8-8-8-8-8-|
|-1-1-1-1-1-1-1-1-|-8-8-8-8-8-8-8-8-|
|-1-1-1-1-1-1-1-1-|-8-8-8-8-8-8-8-8-|


  C5
|-------------------------|--------------------------|
|-------------------------|--------------------------|
|-------------------------|--------------------------|
|-10-10-10-10-10-10-10-10-|-10-10-10-10-10-10-10-10--|
|-10-10-10-10-10-10-10-10-|-10-10-10-10-10-10-10-10--|
|-10-10-10-10-10-10-10-10-|-10-10-10-10-10-10-10-10--|


  C5
|-------------------------|-------------------------|
|-------------------------|-------------------------|
|-------------------------|-------------------------|
|-10-10-10-10-10-10-10-10-|-10-10-10-10-10-10-10-10-|
|-10-10-10-10-10-10-10-10-|-10-10-10-10-10-10-10-10-|
|-10-10-10-10-10-10-10-10-|-10-10-10-10-10-10-10-10-|


  Bb5
|-----------------|------------------|
|-----------------|------------------|
|-----------------|------------------|
|-8-8-8-8-8-8-8-8-|-8-8-8-8-8-8-8-8--|
|-8-8-8-8-8-8-8-8-|-8-8-8-8-8-8-8-8--|
|-8-8-8-8-8-8-8-8-|-8-8-8-8-8-8-8-8--|


  Eb5               Bb5
|-----------------|-----------------|
|-----------------|-----------------|
|-----------------|-----------------|
|-1-1-1-1-1-1-1-1-|-8-8-8-8-8-8-8-8-|
|-1-1-1-1-1-1-1-1-|-8-8-8-8-8-8-8-8-|
|-1-1-1-1-1-1-1-1-|-8-8-8-8-8-8-8-8-|


  C5
|-------------------------|--------------------------||
|-------------------------|--------------------------||
|-------------------------|--------------------------||
|-10-10-10-10-10-10-10-10-|-10-10-10-10-10-10-10-10--||
|-10-10-10-10-10-10-10-10-|-10-10-10-10-10-10-10-10--||
|-10-10-10-10-10-10-10-10-|-10-10-10-10-10-10-10-10--||


    C5
||--------------------------|-------------------------|
||o-------------------------|-------------------------|
||--------------------------|-------------------------|
||--10-10-10-10-10-10-10-10-|-10-10-10-10-10-10-10-10-|
||o-10-10-10-10-10-10-10-10-|-10-10-10-10-10-10-10-10-|
||--10-10-10-10-10-10-10-10-|-10-10-10-10-10-10-10-10-|


  Bb5
|-----------------|-----------------|
|-----------------|-----------------|
|-----------------|-----------------|
|-8-8-8-8-8-8-8-8-|-8-8-8-8-8-8-8-8-|
|-8-8-8-8-8-8-8-8-|-8-8-8-8-8-8-8-8-|
|-8-8-8-8-8-8-8-8-|-8-8-8-8-8-8-8-8-|


  Eb5               Bb5
|-----------------|-----------------|
|-----------------|-----------------|
|-----------------|-----------------|
|-1-1-1-1-1-1-1-1-|-8-8-8-8-8-8-8-8-|
|-1-1-1-1-1-1-1-1-|-8-8-8-8-8-8-8-8-|
|-1-1-1-1-1-1-1-1-|-8-8-8-8-8-8-8-8-|


  C5
|-------------------------|---------------------------||
|-------------------------|--------------------------o||
|-------------------------|---------------------------||
|-10-10-10-10-10-10-10-10-|-10-10-10-10-10-10-10-10---||
|-10-10-10-10-10-10-10-10-|-10-10-10-10-10-10-10-10--o||
|-10-10-10-10-10-10-10-10-|-10-10-10-10-10-10-10-10---||


 Guitar Solo
  C5
  Gtrs I, II
       PM----------------------------------------|
|------------------------|--------------------------|
|------------------------|--------------------------|
|------------------------|--------------------------|
|-10---------------------|--------------------------|
|-10--10-10-10-10-10-10--|-10--10-10-10-10-10-10-10-|
|-10--10-10-10-10-10-10--|-10--10-10-10-10-10-10-10-|
|
| Gtr III
|         ~~~~~~~~~~~~~~~~~~~~~
|-/8---------------------|------------------------8-|
|---------8----------(8)-|-(8)----------------------|
|------------------------|------------0--8--7--8----|
|------------------------|--------------------------|
|------------------------|--------------------------|
|------------------------|--------------------------|


  Bb5
        PM-------------------------------------|
|-----------------------|--------------------------|
|-----------------------|--------------------------|
|-----------------------|--------------------------|
|-8---------------------|--------------------------|
|-8-----8--8---8--8-8-8-|---8--8-8-8---8--8--8--8--|
|-8-----8--8---8--8-8-8-|---8--8-8-8---8--8--8--8--|
|
|              ~~~~~~~~~~~~~~~~
|-8s10------------------|-------------------11-13--|
|------11---------------|----------------11--------|
|---------10-(10)-------|-(10)-------/10-----------|
|-----------------------|--------------------------|
|-----------------------|--------------------------|
|-----------------------|--------------------------|


  Eb5                             Bb5
           PM--------------|           PM----------------|
|----------------------------|------------------------------|
|----------------------------|------------------------------|
|----------------------------|------------------------------|
|--1-------------------------|-----8------------------------|
|--1-------1---1---1--1--1-1-|-----8---8--8---8--8-----8--8-|
|--1-------1---1---1--1--1-1-|-----8---8--8---8--8-----8--8-|
|
|-13b15--(13)p11-(11)--------|------------------------------|
|-----------------------13---|-13h15--13-11-(11)---11s13----|
|----------------------------|---------------------------12-|
|----------------------------|------------------------------|
|----------------------------|------------------------------|
|----------------------------|------------------------------|


  C5
         PM---------------------------------------------------|
|-------------------------------|----------------------------------|
|-------------------------------|----------------------------------|
|-------------------------------|----------------------------------|
|--10---------------------------|----------------------------------|
|--10---10-10--10--10---10---10-|-10-----10----10-10-10-10-10-10---|
|--10---10-10--10--10---10---10-|-10-----10----10-10-10-10-10-10---|
|
|   ~~~~                                        ~~
|---------------------8---------|----------------------------------|
|------------------------8------|----------------------------------|
|-(12)--------(12)---------8--7-|-(7)-10--7------------------------|
|-------------------------------|-----------10--8--------8--9-10---|
|-------------------------------|----------------------------------|
|-------------------------------|----------------------------------|


  C5
       PM----------------------------------------|
|-----------------------|---------------------------|
|-----------------------|---------------------------|
|-----------------------|---------------------------|
|-10--------------------|---------------------------|
|-10--10-10-10-10-10-10-|-10--10-10--10-10-10-10-10-|
|-10--10-10-10-10-10-10-|-10--10-10--10-10-10-10-10-|
|
|--8--------------------|-------------------------8-|
|---------8-------------|---------------------------|
|------------------8----|-(8)--7-(7)--0--8--7--8----|
|-----------------------|---------------------------|
|-----------------------|---------------------------|
|-----------------------|---------------------------|


  Bb5
        PM--------------------------------------------|
|-----------------------|-----------------------------------|
|-----------------------|-----------------------------------|
|-----------------------|-----------------------------------|
|-8---------------------|-----------------------------------|
|-8-----8--8---8--8-8-8-|---8--8-8-8--8----8-----8----8-----|
|-8-----8--8---8--8-8-8-|---8--8-8-8--8----8-----8----8-----|
|
|              ~~~~~~~~~~~~~~~~
|-8s10------------------|-----------------------10-11---13--|
|------11---------------|---------------11---13-------------|
|---------10-(10)-------|-(10)-------10---------------------|
|-----------------------|-----------------------------------|
|-----------------------|-----------------------------------|
|-----------------------|-----------------------------------|


  Eb5                     Bb5
       PM-------------|         PM-------------|
|-----------------------|-------------------------|
|-----------------------|-------------------------|
|-----------------------|-------------------------|
|--1--------------------|---8---------------------|
|--1---1--1---1--1--1-1-|---8---8--8---8--8--8--8-|
|--1---1--1---1--1--1-1-|---8---8--8---8--8--8--8-|
|
|-15--13----------------|-/18--16-15-(15)---------|
|--------16-(16)---13---|-------------------16-13-|
|-----------------------|-------------------------|
|-----------------------|-------------------------|
|-----------------------|-------------------------|
|-----------------------|-------------------------|


  C5
         PM---|
|-----------------------------------|-------------------------------------------||
|-----------------------------------|-------------------------------------------||
|-----------------------------------|-------------------------------------------||
|--10-------------------10----------|--10------10---10-----10-10-10--10-----10--||
|--10---10-10-10-10-10--10----------|--10------10---10-----10-10-10--10-----10--||
|--10---10-10-10-10-10--10----------|--10------10---10-----10-10-10--10-----10--||
|
|   ~~~~
|-----------------------------------|-------------------------------------------||
|-(13)-----------------(13)b15-(13)-|-(13)b15-(13)-(13)b16----------(13)p11-----||
|-----------------------------------|---------------------------------------12--||
|-----------------------------------|-------------------------------------------||
|-----------------------------------|-------------------------------------------||
|-----------------------------------|-------------------------------------------||


 Guitar Solo/Outro
  C5
|--------------------------------------------------|
|--------------------------------------------------|
|--------------------------------------------------|
|-10------10---10----10----10----10----10----10----|
|-10------10---10----10----10----10----10----10----|
|-10------10---10----10----10----10----10----10----|
|
|--------------------------------------------------|
|-----------------------------16-18-16----------16-|
|-15b17==(15)-(15)r--17----17----------17----17----|
|-----------------------17----------------17-------|
|--------------------------------------------------|
|--------------------------------------------------|


|-------------------------------------------|
|-------------------------------------------|
|-------------------------------------------|
|-10----10----10----10----10----10----10-10-|
|-10----10----10----10----10----10----10-10-|
|-10----10----10----10----10----10----10-10-|
|
|-------------------------------------------|
|-20-16-------------------------------16----|
|-------15-------------15-------------------|
|----------17-------17----17-15-------------|
|-------------15-18-------------18-15-------|
|-------------------------------------------|


  Bb5
|-----------------------------------|----------------------------------------|
|-----------------------------------|----------------------------------------|
|-----------------------------------|----------------------------------------|
|-8---8---8---8----8---8---8----8---|--8----8-----8-----8-----8-----8----8-8-|
|-8---8---8---8----8---8---8----8---|--8----8-----8-----8-----8-----8----8-8-|
|-8---8---8---8----8---8---8----8---|--8----8-----8-----8-----8-----8----8-8-|
|
|-----------------------------------|----------------------------------------|
|--------------------------8-9-11-9-|---------------15-18-15-16-15-----------|
|-8-7-8-7-0-0-7-8-10-8-0-0----------|-10-0----15-17----------------15-0------|
|-----------------------------------|------17---------------------------17---|
|-----------------------------------|----------------------------------------|
|-----------------------------------|----------------------------------------|


  Eb5
|------------------------------------------------|
|------------------------------------------------|
|------------------------------------------------|
|--1-----1-----1-----1-----1-----1----1-----1----|
|--1-----1-----1-----1-----1-----1----1-----1----|
|--1-----1-----1-----1-----1-----1----1-----1----|
|
|-18-16-15---------------------------------------|
|----------18-16-15-18-16-15---------------------|
|----------------------------17-15-0-17-15-------|
|------------------------------------------18-17-|
|------------------------------------------------|
|------------------------------------------------|


  Bb5
|--------------------------------------------------|
|--------------------------------------------------|
|--------------------------------------------------|
|--8-----8-----8-----8-----8-----8-----8-----8-----|
|--8-----8-----8-----8-----8-----8-----8-----8-----|
|--8-----8-----8-----8-----8-----8-----8-----8-----|
|
|--------------------------------------------------|
|--------------------------------------------------|
|-------------------------19-17-15-----------------|
|-15----15-------------------------18-17-15--------|
|----18----18-17-15-17-18-------------------18-17--|
|--------------------------------------------------|


  C5
|--------------------------------|----------------------------|
|--------------------------------|----------------------------|
|--------------------------------|----------------------------|
|-10-10--10----10-10-10----10-10-|-10-10----10-10-10-10-10-10-|
|-10-10--10----10-10-10----10-10-|-10-10----10-10-10-10-10-10-|
|-10-10--10----10-10-10----10-10-|-10-10----10-10-10-10-10-10-|
|
|                                                  ~~
|--------------------------------|----------------------------|
|--------------------------------|-------------15s16----------|
|-----------------------------15-|-------------------------17-|
|--------------------------------|-17----18-------------------|
|-15----(15)\-/15-17----18-------|----------------------------|
|--------------------------------|----------------------------|


  C5
|-------------------------------------------------|
|-------------------------------------------------|
|-------------------------------------------------|
|-10----10----10----10----10----10----10----10----|
|-10----10----10----10----10----10----10----10----|
|-10----10----10----10----10----10----10----10----|
|
|-15-20-15-20-15----------15-20-15-20-15----------|
|-------------------------------------------------|
|----------------17-17-17----------------17-17-17-|
|-------------------------------------------------|
|-------------------------------------------------|
|-------------------------------------------------|


|--------------------------------------------------|
|--------------------------------------------------|
|--------------------------------------------------|
|-10----10----10----10----10----10----10----10-----|
|-10----10----10----10----10----10----10----10-----|
|-10----10----10----10----10----10----10----10-----|
|
|-15-20-15-20-15----------15-20-15-20-15-----------|
|--------------------------------------------------|
|----------------17-17-17----------------17-17-17--|
|--------------------------------------------------|
|--------------------------------------------------|
|--------------------------------------------------|


  Bb5
|-------------------------------------------------|
|-------------------------------------------------|
|-------------------------------------------------|
|--8-----8-----8-----8-----8-----8-----8-----8----|
|--8-----8-----8-----8-----8-----8-----8-----8----|
|--8-----8-----8-----8-----8-----8-----8-----8----|
|
|-22-22-------------22-22-------------22-22-------|
|-------------------------------------------------|
|-------19-------19-------19-------19-------19----|
|----------20-20-------------20-20-------------20-|
|-------------------------------------------------|
|-------------------------------------------------|


|--------------------------------------------------|
|--------------------------------------------------|
|--------------------------------------------------|
|--8-----8-----8-----8-----8-----8-----8-----8-----|
|--8-----8-----8-----8-----8-----8-----8-----8-----|
|--8-----8-----8-----8-----8-----8-----8-----8-----|
|
|-------22-22-------------22-22-------22-22--------|
|--------------------------------------------------|
|----19-------19-------19-------19----------19-----|
|-20-------------20-20-------------20----------20--|
|--------------------------------------------------|
|--------------------------------------------------|


  Eb5
|-------------------------------------|
|-------------------------------------|
|-------------------------------------|
|--1----------------------------------|
|--1----------------------------------|
|--1----------------------------------|
|
|-21b23----------------------------15-|
|-------------------------15-16-15----|
|----------------------15-------------|
|----------------15-17----------------|
|----------17-18----------------------|
|-------------------------------------|


  Bb5
|-------------------------------------------------|
|-------------------------------------------------|
|-------------------------------------------------|
|--8----------------------------------------------|
|--8----------------------------------------------|
|--8----------------------------------------------|
|
|----------15-18-15-------------------------------|
|-16-15-------------16-15------------------15-16--|
|-------17----------------------0-14-15-17--------|
|-------------------------15-17-------------------|
|-------------------------------------------------|
|-------------------------------------------------|


  C5
|-----------------|---------*|
|-----------------|---------*|
|-----------------|---------*|
|-10--------------|-(10)----*|
|-10--------------|-(10)----*|
|-10--------------|-(10)----*|
|
|         ~~~~~~~~~~~~~~~
|-18h20-(20)------|-(20)----*|
|-----------------|---------*|
|-----------------|---------*|
|-----------------|---------*|
|-----------------|---------*|
|-----------------|---------*|


8. Radiant Eclipse - Check Back For Updates

9. I WON'T SEE YOU TONIGHT PART 1


Gtr I (D A D G B E) - 'Guitar 1'
Gtr II (D A D G B E) - 'Guitar 2'
Gtr III (D A D G B E) - 'Guitar 3 (Overdub)'
Gtr IV (D A D G B E) - 'Piano (Left Hand)'
Gtr V (D A D G B E) - 'Piano (Right Hand)'
Gtr VI (D A D G B E) - 'Clean Guitar'

 Intro
  Slowly Q=63
  (G5)
 4/4
  Gtr IV
|-------------------------------------------------------|
|-------------------------------------------------------|
|-------------------------------------------------------|
|------5----------5-----------------5--------------5----|
|---5---------5-----------5------5-----5-------5------5-|
|-5-------5-----------5-------5------------5------------|
|
| Gtr V
|------------------------10-(10)------------------------|
|--------10-(10)-11-(11)--------------10-(10)-11-(11)---|
|-----12---------------------------12-------------------|
|-------------------------------------------------------|
|-------------------------------------------------------|
|-------------------------------------------------------|


  (F5)
|-------------------------------------------|
|-------------------------------------------|
|-------------------------------------------|
|-------3----------3---3------3-------3-----|
|----3---------3------------3------3----3---|
|--3-------3---------3----3------3--------3-|
|
|-------------------------------------------|
|-10---------------------------------10-----|
|------10-10-(10)-10-----10-----12----------|
|-------------------------------------------|
|-------------------------------------------|
|-------------------------------------------|


  (Eb)
|----------------------------------------------|
|----------------------------------------------|
|----------------------------------------------|
|------1---------1-------1-------1---------1---|
|----1--------1-------1-------1----------1-----|
|--1------1---------1------1---------1-------1-|
|
|--8-----10-(10)-------------------------------|
|-10-----11-(11)---11---11------10-(10)-11-----|
|------------------12---12---12----------------|
|----------------------------------------------|
|----------------------------------------------|
|----------------------------------------------|


  (D5)
|-------------------------------------------------|
|-------------------------------------------------|
|-------------------------------------------------|
|---------0----------0-----0-----------0----------|
|----0-------------0-----0---0-----0-------0---0--|
|--0---------0---------0--------0------------0----|
|
|--8---10---10--8-10------------------------------|
|-10---11---11-10-11----------------------10------|
|------------------------------11-12-(12)---------|
|-------------------------------------------------|
|-------------------------------------------------|
|-------------------------------------------------|


  (G5)                               (F5)
 2/4                                4/4
|----------------------------------|----------------------------------------|
|----------------------------------|----------------------------------------|
|----------------------------------|----------------------------------------|
|-----5-(5)-------(5)--------------|--------3------3------3------3------3---|
|---5------------------------------|------3------3-----3------3-------3-----|
|-5--------------------------------|---3------3------3------3------3------3-|
|
|-----------------17--(17)-(17)-18-|-(18)-------13-------13-----15---17-----|
|-----------10-11-15---11---10--15-|-(15)-------10-------10-----11---13-----|
|-------12-------------------------|----------------------------------------|
|----------------------------------|----------------------------------------|
|----------------------------------|----------------------------------------|
|----------------------------------|----------------------------------------|


  (Eb)
  Gtr IV
|-------------------------------------------|
|-------------------------------------------|
|-------------------------------------------|
|------1------1--------1--------1-----------|
|----1------1------1---------1--------1-(1)-|
|--1------1------1--------1--------1--------|
|
| Gtr V
|-17-----18-----15---(15)---15-13-11--------|
|-13-----15-----11---(11)------------11-----|
|-------------------------------------------|
|-------------------------------------------|
|-------------------------------------------|
|-------------------------------------------|
|
| Gtr I
|-------------------------------------------|
|-------------------------------------------|
|-------------------------------------------|
|-------------------------------------------|
|-------------------------------------------|
|-------------------------------------------|


  H=H                           Slightly Faster Q=67
  (D5)
 2/4
|-------------------------------|-------------||
|-------------------------------|-------------||
|-------------------------------|-------------||
|-----0-(0)------(0)------------|--(0)--------||
|---0---------------------------|-------------||
|-0-----------------------------|-------------||
|
|--------------9-10--11-10-9-10-|-(10)--------||
|-------------------------------|-------------||
|-------11--12------------------|-------------||
|-------------------------------|-------------||
|-------------------------------|-------------||
|-------------------------------|-------------||
|
|-------------------------------|--------(11)-||
|-------------------------------|-------------||
|-------------------------------|-------------||
|-------------------------------|-------------||
|-------------------------------|-------------||
|-------------------------------|-------------||


 Guitar Solo
  G5
 4/4
  Gtrs I, II
|--------------------------------------------|
|--------------------------------------------|
|--------------------------------------------|
|-5----5-5-5-5-5-5-5-5-5-5-5-5-5--5------5---|
|-5----5-5-5-5-5-5-5-5-5-5-5-5-5--5------5---|
|-5----5-5-5-5-5-5-5-5-5-5-5-5-5--5------5---|
|
| Gtr III
|--------------------------------------------|
|-6b8============================(6)r(6)p==3-|
|--------------------------------------------|
|--------------------------------------------|
|--------------------------------------------|
|--------------------------------------------|


  Eb5
|------------------------------------------------|
|------------------------------------------------|
|------------------------------------------------|
|-1--1-----1---1-----1--1--1-1--1--1-1-1-1-1-1-1-|
|-1--1-----1---1-----1--1--1-1--1--1-1-1-1-1-1-1-|
|-1--1-----1---1-----1--1--1-1--1--1-1-1-1-1-1-1-|
|
|-5-(5)b6-(5)-(5)b6-(5)--------------------------|
|-----------------------3-/6---(6)-------------3-|
|------------------------------------------------|
|------------------------------------------------|
|------------------------------------------------|
|------------------------------------------------|


  F5
|------------------------------------------------|
|------------------------------------------------|
|------------------------------------------------|
|-3--3-----3---3-----3--3--3-3--3--3-3-3-3-3-3-3-|
|-3--3-----3---3-----3--3--3-3--3--3-3-3-3-3-3-3-|
|-3--3-----3---3-----3--3--3-3--3--3-3-3-3-3-3-3-|
|
|-5-(5)b6-(5)-(5)b6-(5)--------------------------|
|-----------------------3-/6---(6)---------------|
|------------------------------------------------|
|------------------------------------------------|
|------------------------------------------------|
|------------------------------------------------|


  D5
|--------------------------------------------|
|--------------------------------------------|
|--------------------------------------------|
|-0----0-0-0--0---0---0-0--0--0-0-0--0-0-0-0-|
|-0----0-0-0--0---0---0-0--0--0-0-0--0-0-0-0-|
|-0----0-0-0--0---0---0-0--0--0-0-0--0-0-0-0-|
|
|--------------------------------------------|
|-4b7========(4)r-4-3------------------------|
|---------------------5---(5)-------/7---5h7-|
|--------------------------------------------|
|--------------------------------------------|
|--------------------------------------------|


  Eb5
|----------------------------------|
|----------------------------------|
|----------------------------------|
|--1-1-1-1-1-1-1-1-1-1-1-1-1-1-1-1-|
|--1-1-1-1-1-1-1-1-1-1-1-1-1-1-1-1-|
|--1-1-1-1-1-1-1-1-1-1-1-1-1-1-1-1-|
|
|----------------------------------|
|----------------------------------|
|-\3---------------------------3h5-|
|----------------------------------|
|----------------------------------|
|----------------------------------|


  Bb5              F5
|----------------------------------------------|
|----------------------------------------------|
|----------------------------------------------|
|-8-8-8-8-8-8--8-8-3--3-----3---3-----3--3-3-3-|
|-8-8-8-8-8-8--8-8-3--3-----3---3-----3--3-3-3-|
|-8-8-8-8-8-8--8-8-3--3-----3---3-----3--3-3-3-|
|
|-------------/6-5---(5)b6-(5)-(5)b6-(5)-3---3-|
|-6----------------------------------------6---|
|----------------------------------------------|
|----------------------------------------------|
|----------------------------------------------|
|----------------------------------------------|


  G5
|---------------------------------------------|
|---------------------------------------------|
|---------------------------------------------|
|--5--5-5-5-5-5-5-5--5--5--5---5--5-5---5---5-|
|--5--5-5-5-5-5-5-5--5--5--5---5--5-5---5---5-|
|--5--5-5-5-5-5-5-5--5--5--5---5--5-5---5---5-|
|
|-(3)---------------(3)---(3)\---/3---5---6---|
|---------------------------------------------|
|---------------------------------------------|
|---------------------------------------------|
|---------------------------------------------|
|---------------------------------------------|


  Eb5
|-------------------------------------|
|-------------------------------------|
|-------------------------------------|
|--1-1-1-1-1-1-1-1-1-1-1-1--1--1-1-1--|
|--1-1-1-1-1-1-1-1-1-1-1-1--1--1-1-1--|
|--1-1-1-1-1-1-1-1-1-1-1-1--1--1-1-1--|
|
|-/8-----------------------(8)s6-6s5--|
|-------------------------------------|
|-------------------------------------|
|-------------------------------------|
|-------------------------------------|
|-------------------------------------|


  F5
|-------------------------------------------------|
|-------------------------------------------------|
|-------------------------------------------------|
|-3--3-----3---3-----3--3-3---3--3--3-3-3-3-3-3-3-|
|-3--3-----3---3-----3--3-3---3--3--3-3-3-3-3-3-3-|
|-3--3-----3---3-----3--3-3---3--3--3-3-3-3-3-3-3-|
|
|-5-(5)b6-(5)-(5)b6-(5)---------------------------|
|-----------------------3-4b6---(4)---------------|
|-------------------------------------------------|
|-------------------------------------------------|
|-------------------------------------------------|
|-------------------------------------------------|


  D5                    Eb5         F5
|-----------------------------------------||
|-----------------------------------------||
|-----------------------------------------||
|-0---0-0-0-0-0-0-0-0---1-1-1-1-----3-3-3-||
|-0---0-0-0-0-0-0-0-0---1-1-1-1-----3-3-3-||
|-0---0-0-0-0-0-0-0-0---1-1-1-1-----3-3-3-||
|
|-----------------------------------------||
|-4b7---------------6b8-------8b10========||
|-----------------------------------------||
|-----------------------------------------||
|-----------------------------------------||
|-----------------------------------------||


 Pre-Verse
  Slower Q=65
  G5
  Gtrs I, II   Gtr I
|----------------------10-13-17-13----------|
|------------------6-8-------------15----15-|
|--------------0-3--------------------15----|
|-5-------(5)\------------------------------|
|-5-------(5)\------------------------------|
|-5-------(5)\------------------------------|
|
| Gtr III
|          ~~~~~~~~~~~~~~~~~~~~~~~~~~~~~~~~~~
|-------------------------------------------|
|-8r======(8)-------------------------------|
|-------------------------------------------|
|-------------------------------------------|
|-------------------------------------------|
|-------------------------------------------|
|
| Gtr VI
|-6--------5---------3-----------5----------|
|---3----------3--------3-----------3-----3s|
|-----3----------3---------3-----------3----|
|-------5----------5----------5-----------5-|
|-------------------------------------------|
|-------------------------------------------|


  N.C.
   ~~~~~~~~~~~~~~
|--------------------18----17----15----13----15----|
|----------------/15----15----13----13----13----13-|
|-14--------(14)-----------------------------------|
|--------------------------------------------------|
|--------------------------------------------------|
|--------------------------------------------------|
|
|  >
|~~~~~
|--------------------------------------------------|
|-(8)----------------------------------------------|
|--------------------------------------------------|
|--------------------------------------------------|
|--------------------------------------------------|
|--------------------------------------------------|
|
|--8----------5-------------------------5----------|
|--6--6------------6--------8--------8-----8-------|
|-------5-------------5--------5--------------5----|
|---------7--------------7--------7--------------7-|
|--------------------------------------------------|
|--------------------------------------------------|


  N.C.
  Gtr I
   ~~~~~~~~~~~~~
|-------------------13----15----18----17----15----|
|-------------------------------------------------|
|-15-------(15)-/15----15----15----15----15----15-|
|-------------------------------------------------|
|-------------------------------------------------|
|-------------------------------------------------|
|
| Gtr VI
|--6---------5-------------3-----------5----------|
|----4------------4-----------4-------------------|
|------3-------------3-----------3-----------0----|
|--------5--------------5-----------5-----5-----5-|
|-------------------------------------------------|
|-------------------------------------------------|


                                                    Gmadd2
   ~~~~~~~~~~~~~                                     ~~
|-14-------(14)-----14----11----------------------|-----------------||
|---------------/10----10----10-11----10----------|-----------------||
|----------------------------------11-------11----|-----------------||
|----------------------------------------12-------|-----------------||
|----------------------------------------------12-|-13-------(13)\--||
|-------------------------------------------------|-----------------||
|
|--5---------2-------------3-----------8----------|-^6--------------||
|----3------------3-----------3-----------7-------|-^3--------------||
|------2-------------2-----------2-----------5----|-^3--------------||
|--------4--------------4-----------4-----------7-|-^5--------------||
|-------------------------------------------------|-----------------||
|-------------------------------------------------|-----------------||


   Verse
    $
    N.C.
    Gtr VI
||--6-------5-------3-------5-------|-8-------5---------------5-------|
||o---3-------3-------3-------3---3s|=6-6-------6-----8-----8---8-----|
||------3-------3-------3-------3---|-----5-------5-----5---------5---|
||--------5-------5-------5-------5-|-------7-------7-----7---------7-|
||o---------------------------------|---------------------------------|
||----------------------------------|---------------------------------|


                                                           To Coda
  N.C.
|-6-------5-------3-------5-------|-5-------2-------3-------8--------||
|---4-------4-------4-------------|---3-------3-------3-------7-----o||
|-----3-------3-------3-------0---|-----2-------2-------2-------5----||
|-------5-------5-------5---5---5-|-------4-------4-------4-------7--||
|---------------------------------|---------------------------------o||
|---------------------------------|----------------------------------||


 Chorus
  G5                        Eb5
  Gtrs I, II
|-------------------------|-------------------------|
|-------------------------|-------------------------|
|-------------------------|-------------------------|
|-5-5-5-5-5-5-5-5-5-5-5-5-|-1-1-1-1-1-1-1-1-1-1-1-1-|
|-5-5-5-5-5-5-5-5-5-5-5-5-|-1-1-1-1-1-1-1-1-1-1-1-1-|
|-5-5-5-5-5-5-5-5-5-5-5-5-|-1-1-1-1-1-1-1-1-1-1-1-1-|


                     D.S. al Coda
  Bb5                       F5   Gb5
|-------------------------|-----------||
|-------------------------|-----------||
|-------------------------|-----------||
|-8-8-8-8-8-8-8-8-8-8-8-8-|-3----4----||
|-8-8-8-8-8-8-8-8-8-8-8-8-|-3----4----||
|-8-8-8-8-8-8-8-8-8-8-8-8-|-3----4----||


   Chorus
    &
    G5                        Eb5
||--------------------------|-------------------------|
||o-------------------------|-------------------------|
||--------------------------|-------------------------|
||--5-5-5-5-5-5-5-5-5-5-5-5-|-1-1-1-1-1-1-1-1-1-1-1-1-|
||o-5-5-5-5-5-5-5-5-5-5-5-5-|-1-1-1-1-1-1-1-1-1-1-1-1-|
||--5-5-5-5-5-5-5-5-5-5-5-5-|-1-1-1-1-1-1-1-1-1-1-1-1-|


  Bb5                       F5          Gb5
|-------------------------|--------------------------||
|-------------------------|-------------------------o||
|-------------------------|--------------------------||
|-8-8-8-8-8-8-8-8-8-8-8-8-|-3-3-3-3-3-3-4-4-4-4-4-4--||
|-8-8-8-8-8-8-8-8-8-8-8-8-|-3-3-3-3-3-3-4-4-4-4-4-4-o||
|-8-8-8-8-8-8-8-8-8-8-8-8-|-3-3-3-3-3-3-4-4-4-4-4-4--||


 Guitar Solo
  G5
  Gtrs I, II
|--------------------------------------------------------------|
|--------------------------------------------------------------|
|--------------------------------------------------------------|
|--5-----5-5-5---5-------5-----5----5-5-5-5-5-5-5----5-------5-|
|--5-----5-5-5---5-------5-----5----5-5-5-5-5-5-5----5-------5-|
|--5-----5-5-5---5-------5-----5----5-5-5-5-5-5-5----5-------5-|
|
| Gtr III
|-13b15========(13)r(13)p==10-13b15---------------15---15b17---|
|--------------------------------------------------------------|
|--------------------------------------------------------------|
|--------------------------------------------------------------|
|--------------------------------------------------------------|
|--------------------------------------------------------------|


  Eb5
|---------------------------------------------------------|
|---------------------------------------------------------|
|---------------------------------------------------------|
|--1-----1-1-1---1-------1-----1-1-1-1-1-1-1-1---1--1-----|
|--1-----1-1-1---1-------1-----1-1-1-1-1-1-1-1---1--1-----|
|--1-----1-1-1---1-------1-----1-1-1-1-1-1-1-1---1--1-----|
|
|                              ~~
|-17b18========(17)r(17)------15---------------(15)-------|
|--------------------------15-------------------------15--|
|---------------------------------------------------------|
|---------------------------------------------------------|
|---------------------------------------------------------|
|---------------------------------------------------------|


  F5
|----------------------------------------------------------|
|----------------------------------------------------------|
|----------------------------------------------------------|
|--3---3-------3----3-------3---3---3-3---3--3-3-3-3-3-3-3-|
|--3---3-------3----3-------3---3---3-3---3--3-3-3-3-3-3-3-|
|--3---3-------3----3-------3---3---3-3---3--3-3-3-3-3-3-3-|
|
|-17-(17)b18-(17)-(17)b18-(17)-----------------------------|
|------------------------------15-/18---(18)---------------|
|----------------------------------------------------------|
|----------------------------------------------------------|
|----------------------------------------------------------|
|----------------------------------------------------------|


  D5
|------------------------------------------------------|
|------------------------------------------------------|
|------------------------------------------------------|
|--0-----0-0-0--0---0-----0-0---0--0-0---0--0--0--0--0-|
|--0-----0-0-0--0---0-----0-0---0--0-0---0--0--0--0--0-|
|--0-----0-0-0--0---0-----0-0---0--0-0---0--0--0--0--0-|
|
|------------------------------------------17----17h18-|
|-16b19========16r-15-14-15---(15)-----/15----15-------|
|------------------------------------------------------|
|------------------------------------------------------|
|------------------------------------------------------|
|------------------------------------------------------|


  Eb5
|-------------------------------------------------|
|-------------------------------------------------|
|-------------------------------------------------|
|--1-1-1-1-1-1-1-1---1--1---1---1---1-1----1----1-|
|--1-1-1-1-1-1-1-1---1--1---1---1---1-1----1----1-|
|--1-1-1-1-1-1-1-1---1--1---1---1---1-1----1----1-|
|
|  ~~~~~~~~~~~~~~~~~~~~~
|-15---------------(15)---(15)\---/15---17---18---|
|-------------------------------------------------|
|-------------------------------------------------|
|-------------------------------------------------|
|-------------------------------------------------|
|-------------------------------------------------|


  Bb5                                F5
|-------------------------------------------------------------------|
|-------------------------------------------------------------------|
|-------------------------------------------------------------------|
|--8-----8---8----8---8--8--8--8-------3----3---3--3---3---3--3--3--|
|--8-----8---8----8---8--8--8--8-------3----3---3--3---3---3--3--3--|
|--8-----8---8----8---8--8--8--8-------3----3---3--3---3---3--3--3--|
|
|-20b22====(20)r(20)-18-20-15-15b17==(15)r(15)-13---------13----15--|
|-------------------------------------------------15-(15)----15-----|
|-------------------------------------------------------------------|
|-------------------------------------------------------------------|
|-------------------------------------------------------------------|
|-------------------------------------------------------------------|


  G5
|-----------------------------------------------------|
|-----------------------------------------------------|
|-----------------------------------------------------|
|---5--5-5-5---5--5---5--5-----5--5--5--5--5--5--5--5-|
|---5--5-5-5---5--5---5--5-----5--5--5--5--5--5--5--5-|
|---5--5-5-5---5--5---5--5-----5--5--5--5--5--5--5--5-|
|
|   ~~~~~~~~~~~~~~
|-(15)-------(15)---(15)------18-17----18-17----18----|
|--------------------------15-------15-------15----15-|
|-----------------------------------------------------|
|-----------------------------------------------------|
|-----------------------------------------------------|
|-----------------------------------------------------|


  Eb5
|------------------------------------------------------------|
|------------------------------------------------------------|
|------------------------------------------------------------|
|--1-----1-1-1---1--1---1-------1-----1--1--1--1--1--1--1--1-|
|--1-----1-1-1---1--1---1-------1-----1--1--1--1--1--1--1--1-|
|--1-----1-1-1---1--1---1-------1-----1--1--1--1--1--1--1--1-|
|
|  ~~~~~~~~~~~~~~~~~
|------------------------------------18-17----18-17----18----|
|-18b20========(18)---(18)r(18)---15-------15-------15----15-|
|------------------------------------------------------------|
|------------------------------------------------------------|
|------------------------------------------------------------|
|------------------------------------------------------------|


  F5
|------------------------------------------------------------|
|------------------------------------------------------------|
|------------------------------------------------------------|
|--3-----3-3-3---3--3---3-------3-----3--3--3--3--3--3--3--3-|
|--3-----3-3-3---3--3---3-------3-----3--3--3--3--3--3--3--3-|
|--3-----3-3-3---3--3---3-------3-----3--3--3--3--3--3--3--3-|
|
|  ~~~~~~~~~~~~~~~~~
|------------------------------------18-17-------------------|
|-16b18========(16)---(16)r(16)---15-------15-18-15----------|
|---------------------------------------------------15-------|
|------------------------------------------------------19-17-|
|------------------------------------------------------------|
|------------------------------------------------------------|


  D5                                 Eb5                 F5
|--------------------------------------------------------------------------||
|--------------------------------------------------------------------------||
|--------------------------------------------------------------------------||
|--0-0-0-0--0---0----0--------0---0---1----1--------1--1---3---3--3--------||
|--0-0-0-0--0---0----0--------0---0---1----1--------1--1---3---3--3--------||
|--0-0-0-0--0---0----0--------0---0---1----1--------1--1---3---3--3--------||
|
|  ~~
|--------------------------------------------------------------------------||
|------------------------------------18-------18--(18)---------------------||
|----------14-----15---17b19====(17)----17---(17)-(17)---(17)r17-15----15--||
|-16----------------------------------------------------------------17-----||
|--------0----0------0-----------------------------------------------------||
|--------------------------------------------------------------------------||


 Chorus
  G5                                    F5
|-------------------------------------|---------------------------------|
|-------------------------------------|---------------------------------|
|-------------------------------------|---------------------------------|
|--5----5-5-5-5-5-5-5-5-5-5-5-5-5-5-5-|-3-3-3-3-3-3-3-3-3-3-3-3-3-3-3-3-|
|--5----5-5-5-5-5-5-5-5-5-5-5-5-5-5-5-|-3-3-3-3-3-3-3-3-3-3-3-3-3-3-3-3-|
|--5----5-5-5-5-5-5-5-5-5-5-5-5-5-5-5-|-3-3-3-3-3-3-3-3-3-3-3-3-3-3-3-3-|
|
|  >
|-------------------------------------|---------------------------------|
|-18b20-------------------------------|---------------------------------|
|-------------------------------------|---------------------------------|
|-------------------------------------|---------------------------------|
|-------------------------------------|---------------------------------|
|-------------------------------------|---------------------------------|


  Eb5                               D5                Eb5     F5
  Gtrs I, II
|---------------------------------|---------------------------------|
|---------------------------------|---------------------------------|
|---------------------------------|---------------------------------|
|-1-1-1-1-1-1-1-1-1-1-1-1-1-1-1-1-|-0-0-0-0-0-0-0-0-0-1-1-1-1-3-3-3-|
|-1-1-1-1-1-1-1-1-1-1-1-1-1-1-1-1-|-0-0-0-0-0-0-0-0-0-1-1-1-1-3-3-3-|
|-1-1-1-1-1-1-1-1-1-1-1-1-1-1-1-1-|-0-0-0-0-0-0-0-0-0-1-1-1-1-3-3-3-|


  G5                                F5
|---------------------------------|---------------------------------|
|---------------------------------|---------------------------------|
|---------------------------------|---------------------------------|
|-5-5-5-5-5-5-5-5-5-5-5-5-5-5-5-5-|-3-3-3-3-3-3-3-3-3-3-3-3-3-3-3-3-|
|-5-5-5-5-5-5-5-5-5-5-5-5-5-5-5-5-|-3-3-3-3-3-3-3-3-3-3-3-3-3-3-3-3-|
|-5-5-5-5-5-5-5-5-5-5-5-5-5-5-5-5-|-3-3-3-3-3-3-3-3-3-3-3-3-3-3-3-3-|


  Eb5                               D5                Eb5     F5
|---------------------------------|---------------------------------||
|---------------------------------|---------------------------------||
|---------------------------------|---------------------------------||
|-1-1-1-1-1-1-1-1-1-1-1-1-1-1-1-1-|-0-0-0-0-0-0-0-0-0-1-1-1-1-3-3-3-||
|-1-1-1-1-1-1-1-1-1-1-1-1-1-1-1-1-|-0-0-0-0-0-0-0-0-0-1-1-1-1-3-3-3-||
|-1-1-1-1-1-1-1-1-1-1-1-1-1-1-1-1-|-0-0-0-0-0-0-0-0-0-1-1-1-1-3-3-3-||


 Guitar Solo
  G5
  Gtrs I, II
|-------------------------------------|
|-------------------------------------|
|-------------------------------------|
|-5-5-5-5-5-5-5-5-5-5-5-5-5-5---5---5-|
|-5-5-5-5-5-5-5-5-5-5-5-5-5-5---5---5-|
|-5-5-5-5-5-5-5-5-5-5-5-5-5-5---5---5-|
|
| Gtr III
| ~
|-----------------------------5---6---|
|-8-----------------------8-----------|
|-------------------------------------|
|-------------------------------------|
|-------------------------------------|
|-------------------------------------|


  Eb5
|---------------------------------------------|
|---------------------------------------------|
|---------------------------------------------|
|-1---1-1--------1---1--1-1-1-1-1-1-1-1-1-1-1-|
|-1---1-1--------1---1--1-1-1-1-1-1-1-1-1-1-1-|
|-1---1-1--------1---1--1-1-1-1-1-1-1-1-1-1-1-|
|
|                    ~~~
|-6b8---6-(6)b8r(6)-(6)-----------------------|
|---------------------------------------------|
|---------------------------------------------|
|---------------------------------------------|
|---------------------------------------------|
|---------------------------------------------|


  F5
|----------------------------------|
|----------------------------------|
|----------------------------------|
|--3-3-3-3-3-3-3-3-3-3-3-3-3-3-3-3-|
|--3-3-3-3-3-3-3-3-3-3-3-3-3-3-3-3-|
|--3-3-3-3-3-3-3-3-3-3-3-3-3-3-3-3-|
|
|          ~
|-/6-5-----------------------------|
|------6---------------------------|
|--------5-------------------------|
|----------7-----------------------|
|----------------------------------|
|----------------------------------|


  D5
|--------------------------------------------|
|--------------------------------------------|
|--------------------------------------------|
|-0---0-0-0-0----0-0-0-0----0-0-0-0----0-0-0-|
|-0---0-0-0-0----0-0-0-0----0-0-0-0----0-0-0-|
|-0---0-0-0-0----0-0-0-0----0-0-0-0----0-0-0-|
|
|----------------------8b10------------------|
|-4b7-------8b10------------------8b10-------|
|--------------------------------------------|
|--------------------------------------------|
|--------------------------------------------|
|--------------------------------------------|


  Eb5
|-------------------------------------------|
|-------------------------------------------|
|-------------------------------------------|
|-1---1-1-1---1-1-1-1-1-1-1--1-1-1---1----1-|
|-1---1-1-1---1-1-1-1-1-1-1--1-1-1---1----1-|
|-1---1-1-1---1-1-1-1-1-1-1--1-1-1---1----1-|
|
|             ~
|-6b8-----6p5-6----------------6---8---10---|
|---------------------------/6--------------|
|-------------------------------------------|
|-------------------------------------------|
|-------------------------------------------|
|-------------------------------------------|


  Bb5                    F5
|------------------------------------------------|
|------------------------------------------------|
|------------------------------------------------|
|--8-8-8-8---8---8--8--8---3--3-3-3---3--3--3--3-|
|--8-8-8-8---8---8--8--8---3--3-3-3---3--3--3--3-|
|--8-8-8-8---8---8--8--8---3--3-3-3---3--3--3--3-|
|
|  ~~                      ~~~~
|-10-------(10)\---15-13-(13)-------/18-17----17-|
|------------------------------------------15----|
|------------------------------------------------|
|------------------------------------------------|
|------------------------------------------------|
|------------------------------------------------|


  G5
|-------------------------------------------------|
|-------------------------------------------------|
|-------------------------------------------------|
|---5-----5-5-5-5-5-5-5-5-5-5-5--5-5---5-------5--|
|---5-----5-5-5-5-5-5-5-5-5-5-5--5-5---5-------5--|
|---5-----5-5-5-5-5-5-5-5-5-5-5--5-5---5-------5--|
|
|-(17)b18-----------------------17---(17)b18-(17)-|
|-------------------------------------------------|
|-------------------------------------------------|
|-------------------------------------------------|
|-------------------------------------------------|
|-------------------------------------------------|


  Eb5
|----------------------------------|
|----------------------------------|
|----------------------------------|
|--1-1-1-1-1-1-1-1-1-1-1-1-1-1-1-1-|
|--1-1-1-1-1-1-1-1-1-1-1-1-1-1-1-1-|
|--1-1-1-1-1-1-1-1-1-1-1-1-1-1-1-1-|
|
|  ~~
|-20-------------------------------|
|----------------------------------|
|----------------------------------|
|----------------------------------|
|----------------------------------|
|----------------------------------|


  F5
|--------------------------------------|
|--------------------------------------|
|--------------------------------------|
|--3--3--3--3--3-3-3-3-3-3-3-3-3-3-3-3-|
|--3--3--3--3--3-3-3-3-3-3-3-3-3-3-3-3-|
|--3--3--3--3--3-3-3-3-3-3-3-3-3-3-3-3-|
|
|              ~~
|-18-17--------------------------------|
|-------18-----------------------------|
|----------17--------------------------|
|-------------19-----------------------|
|--------------------------------------|
|--------------------------------------|


  D5                                     Eb5             F5
|---------------------------------------------------------------------||
|---------------------------------------------------------------------||
|---------------------------------------------------------------------||
|--0---0-------0----0-------0--0-0-0---0-1----1----1---1-3----3----3--||
|--0---0-------0----0-------0--0-0-0---0-1----1----1---1-3----3----3--||
|--0---0-------0----0-------0--0-0-0---0-1----1----1---1-3----3----3--||
|
|---------------------------------------------------------------------||
|----------------------------------------------------/18---16---15----||
|------------------------------------/17---15---14--------------------||
|-16-(16)b17-(16)-(16)b17-(16)----------------------------------------||
|---------------------------------------------------------------------||
|---------------------------------------------------------------------||


   Interlude
    G5                                  F5
    Gtr I
||------------------------------------|-----------------------------------|
||o-----------------------------------|-----------------------------------|
||------------------------------------|-----------------------------------|
||--5-5-5-5-5-5-5-5-5--5-5-5--5-5-5-5-|-3-3-3-3-3-3-3-3-3--3-3-3--3-3-3-3-|
||o-5-5-5-5-5-5-5-5-5--5-5-5--5-5-5-5-|-3-3-3-3-3-3-3-3-3--3-3-3--3-3-3-3-|
||--5-5-5-5-5-5-5-5-5--5-5-5--5-5-5-5-|-3-3-3-3-3-3-3-3-3--3-3-3--3-3-3-3-|
|
|   Gtr II
||------------------------------------|-----------------------------------|
||o-----------------------------------|-----------------------------------|
||------------------------------------|-----------------------------------|
||--7-8-7-8-5---------/8-7-8-10-8-7-8-|-7-8-7-8-----------/8-7-8-10-8-7-8-|
||o-----------------------------------|---------8-------------------------|
||------------------------------------|-----------------------------------|
|
|   Gtr III
||------------------------------------|-----------------------------------|
||o-----------------------------------|-----------------------------------|
||--5-7-5-7-----------/7-5-7--8-7-5-7-|-5-7-5-7-----------/7-5-7--8-7-5-7-|
||----------8-------------------------|---------7-------------------------|
||o-----------------------------------|-----------------------------------|
||------------------------------------|-----------------------------------|


  Eb5                                 D5                Eb5       F5
|-----------------------------------|-------------------------------------||
|-----------------------------------|------------------------------------o||
|-----------------------------------|-------------------------------------||
|-1-1-1-1-1-1-1-1-1--1-1-1--1-1-1-1-|-0-0-0-0-0-0-0-0-0--1-1-1--1--3-3-3--||
|-1-1-1-1-1-1-1-1-1--1-1-1--1-1-1-1-|-0-0-0-0-0-0-0-0-0--1-1-1--1--3-3-3-o||
|-1-1-1-1-1-1-1-1-1--1-1-1--1-1-1-1-|-0-0-0-0-0-0-0-0-0--1-1-1--1--3-3-3--||
|
|-----------------------------------|-------------------------------------||
|-----------------------------------|------------------------------------o||
|-----------------------------------|-------------------------------------||
|-7-8-7-8-5---------/8-7-8-10-8-7-8-|-7-8-7-8-----------------------------||
|-----------------------------------|---------9-------9s10-----10s12-----o||
|-----------------------------------|-------------------------------------||
|
|-----------------------------------|-------------------------------------||
|-----------------------------------|------------------------------------o||
|-5-7-5-7-----------/7-5-7--8-7-5-7-|-5-7-5-7-----------------------------||
|---------8-------------------------|---------7-------7s=8------8s10------||
|-----------------------------------|------------------------------------o||
|-----------------------------------|-------------------------------------||


 Guitar Break
  G5
 6/8
  Gtr I
   |                              |
   /                              /

  Gtrs II, III
|-----------------------------|--------------------------------|
|-----------------------------|--------------------------------|
|-----------------------------|--------------------------------|
|-10-----------12-------------|-(12)---------------------------|
|-12-----------13-------------|-(13)---------------------------|
|-----------------------------|--------------------------------|
|
| Gtr IV
|-----------------------------|--------------------------------|
|-----------------------------|--------------------------------|
|-----------------------------|--------------------------------|
|------5-----5-------5------5-|--------5------5-------5------5-|
|----5-----5------5-------5---|------5------5------5-------5---|
|--5-----5------5------5------|---5-------5------5------5------|
|
| Gtr V
|-----------------------------|--11------10--------------------|
|-------------------10---11---|----------------------10---11---|
|--------------12-------------|-----------------12-------------|
|-----------------------------|--------------------------------|
|-----------------------------|--------------------------------|
|-----------------------------|--------------------------------|


    |                                |
    /                                /

    >
|--------------------------------|---------------------------------|
|--------------------------------|---------------------------------|
|--------------------------------|---------------------------------|
|-(12)---------------------------|-(12)----------------------------|
|-(13)---------------------------|-(13)----------------------------|
|--------------------------------|---------------------------------|
|
|--------------------------------|---------------------------------|
|--------------------------------|---------------------------------|
|--------------------------------|---------------------------------|
|--------5------5-------5------5-|--------5------5-------5------5--|
|------5------5------5-------5---|------5------5------5-------5----|
|---5-------5------5------5------|---5-------5------5------5-------|
|
|--11------10--------------------|--11------10---------------------|
|----------------------10---11---|----------------------10---11----|
|-----------------12-------------|-----------------12--------------|
|--------------------------------|---------------------------------|
|--------------------------------|---------------------------------|
|--------------------------------|---------------------------------|


  (G5)                           (D5)
  Gtr IV
|------------------------------|-----------------------------|
|------------------------------|-----------------------------|
|------------------------------|-----------------------------|
|------5------5-------5------5-|------0-----0-------0------0-|
|----5------5------5-------5---|----0-----0------0-------0---|
|--5------5------5------5------|--0-----0------0------0------|
|
| Gtr V
|-11-----10--------------------|-----------------------------|
|--------------------10--------|------------------------10---|
|---------------12--------12---|-11-----------11---12--------|
|------------------------------|-----------------------------|
|------------------------------|-----------------------------|
|------------------------------|-----------------------------|


  (Eb)
|-------------------------------|
|-------------------------------|
|-------------------------------|
|------1-------1-------1------1-|
|----1------1-------1-------1---|
|--1------1-------1------1------|
|
|-------------------------------|
|-13-----11---10-11---10--------|
|--------------------------12---|
|-------------------------------|
|-------------------------------|
|-------------------------------|


  (G5)
|------------------------------|
|------------------------------|
|------------------------------|
|------5------5-------5------5-|
|----5------5------5-------5---|
|--5------5------5------5------|
|
|-11-----10--------------------|
|--------------------10---11---|
|---------------12-------------|
|------------------------------|
|------------------------------|
|------------------------------|


                                 (D5)
|------------------------------|-----------------------------|
|------------------------------|-----------------------------|
|------------------------------|-----------------------------|
|------5------5-------5------5-|------0-----0-------0------0-|
|----5------5------5-------5---|----0-----0------0-------0---|
|--5------5------5------5------|--0-----0------0------0------|
|
|-11-----10--------------------|-----------------------------|
|--------------------10--------|------------------------10---|
|---------------12--------12---|-11-----------11---12--------|
|------------------------------|-----------------------------|
|------------------------------|-----------------------------|
|------------------------------|-----------------------------|


  (Eb)
|-------------------------------|-------------------------------|
|-------------------------------|-------------------------------|
|-------------------------------|-------------------------------|
|------1-------1-------1------1-|------1-------1-------1------1-|
|----1------1-------1-------1---|----1------1-------1-------1---|
|--1------1-------1------1------|--1------1-------1------1------|
|
|-------------------------------|-------------------------------|
|-13-----11---10-11---10--------|-13-----11---10-11---10--------|
|--------------------------12---|--------------------------12---|
|-------------------------------|-------------------------------|
|-------------------------------|-------------------------------|
|-------------------------------|-------------------------------|


  (G5)                         (F5)
|----------------------------|-----------------------------|
|----------------------------|-----------------------------|
|----------------------------|-----------------------------|
|------5-----5------5------5-|------3-----3-------3------3-|
|----5-----5------5------5---|----3-----3------3-------3---|
|--5-----5------5------5-----|--3-----3------3------3------|
|
|----------------------------|-----------------------------|
|-11-----------10-----11-----|-13-----------11---10---13---|
|-12-----------12-----12-----|-12-----------12---12---12---|
|----------------------------|-----------------------------|
|----------------------------|-----------------------------|
|----------------------------|-----------------------------|


  (Eb)                          (D5)
|-----------------------------|--------------------------------|
|-----------------------------|--------------------------------|
|-----------------------------|--------------------------------|
|------1-----1-------1------1-|------0-----0-------0------0----|
|----1-----1------1-------1---|----0-----0------0-------0------|
|--1-----1------1------1------|--0-----0------0------0---------|
|
|-----------------------------|--------------------------------|
|-11-----------11---10---11---|-13-----------10---11---13------|
|-12-----------12-------------|-12-----------12---12---12------|
|-----------------------------|--------------------------------|
|-----------------------------|--------------------------------|
|-----------------------------|--------------------------------|


  (G5)                         (F5)
|----------------------------|-----------------------------|
|----------------------------|-----------------------------|
|----------------------------|-----------------------------|
|------5-----5------5------5-|------3-----3-------3------3-|
|----5-----5------5------5---|----3-----3------3-------3---|
|--5-----5------5------5-----|--3-----3------3------3------|
|
|-10-------------------------|-----------------------------|
|--------------10-----11-----|-13-----------11---10---13---|
|-12-----------12-----12-----|-12-----------12---12---12---|
|----------------------------|-----------------------------|
|----------------------------|-----------------------------|
|----------------------------|-----------------------------|


  (Eb)                          (D5)
|-----------------------------|--------------------------------|
|-----------------------------|--------------------------------|
|-----------------------------|--------------------------------|
|------1-----1-------1------1-|------0-----0-------0------0----|
|----1-----1------1-------1---|----0-----0------0-------0------|
|--1-----1------1------1------|--0-----0------0------0---------|
|
|-----------------------------|--------------------------------|
|-11-----------11---10---11---|-13-----------10---11---13------|
|-12-----------12---12---12---|-12-----------12---12---12------|
|-----------------------------|--------------------------------|
|-----------------------------|--------------------------------|
|-----------------------------|--------------------------------|


    (G5)                         (F5)
    Gtr IV
||-----------------------------|-----------------------------|
||o----------------------------|-----------------------------|
||-----------------------------|-----------------------------|
||-------5-----5------5------5-|------3-----3-------3------3-|
||o----5-----5------5------5---|----3-----3------3-------3---|
||---5-----5------5------5-----|--3-----3------3------3------|
|
|   Gtr V
||--10-------------------------|-----------------------------|
||o--------------10-----11-----|-13-----------11---10---13---|
||--12-----------12-----12-----|-12-----------12---12---12---|
||-----------------------------|-----------------------------|
||o----------------------------|-----------------------------|
||-----------------------------|-----------------------------|
|
|   Gtr I
|    PM-------------------------------------------------------
||-----------------------------|-----------------------------|
||o----------------------------|-----------------------------|
||-----------------------------|-----------------------------|
||-----------------------------|-----------------------------|
||o--5-5-5-5-5-5--5-5-5--5-5-5-|--5-5-5-5-5-5--5-5--5-5--5-5-|
||---5-5-5-5-5-5--5-5-5--5-5-5-|--3-3-3-3-3-3--3-3--3-3--3-3-|


  (Eb)                          (D5)
|-----------------------------|--------------------------------||
|-----------------------------|-------------------------------o||
|-----------------------------|--------------------------------||
|------1-----1-------1------1-|------0-----0-------0------0----||
|----1-----1------1-------1---|----0-----0------0-------0-----o||
|--1-----1------1------1------|--0-----0------0------0---------||
|
|-----------------------------|--------------------------------||
|-11-----------11---10---11---|-13-----------10---11---13-----o||
|-12-----------12---12---12---|-12-----------12---12---12------||
|-----------------------------|--------------------------------||
|-----------------------------|-------------------------------o||
|-----------------------------|--------------------------------||
|
|---------------------------------------------------------|
|-----------------------------|--------------------------------||
|-----------------------------|-------------------------------o||
|-----------------------------|--------------------------------||
|-----------------------------|--------------------------------||
|--5-5-5-5-5-5--5-5--5-5--5-5-|--5-5-5-5-5-5--5-5--5-5--5-5---o||
|--1-1-1-1-1-1--1-1--1-1--1-1-|--0-0-0-0-0-0--0-0--0-0--0-0----||


   Breakdown
    G5            F5              Eb5           F5
   4/4
    Gtrs I, II
||------------------------------|--------------------------------||
||o-----------------------------|-------------------------------o||
||------------------------------|--------------------------------||
||---5-5-5--5-5-5--3-3-3--3-3-3-|--1-1-1--1-1-1--3-3-3--3-3-3-3--||
||o--5-5-5--5-5-5--3-3-3--3-3-3-|--1-1-1--1-1-1--3-3-3--3-3-3-3-o||
||---5-5-5--5-5-5--3-3-3--3-3-3-|--1-1-1--1-1-1--3-3-3--3-3-3-3--||
|
|   Gtr V
||--10--------------------------|--------------------------------||
||o---------------10-----11-----|-13------------10-----11-------o||
||---------12-------------------|--------12----------------------||
||------------------------------|--------------------------------||
||o-----------------------------|-------------------------------o||
||------------------------------|--------------------------------||


  G5           F5            Eb5         F5
|--------------------------|---------------------------|
|--------------------------|---------------------------|
|--------------------------|---------------------------|
|--5-5-5-5-5-5-3-3-3-3-3-3-|-1-1-1-1-1-1-3-3-3-3-3-3-3-|
|--5-5-5-5-5-5-3-3-3-3-3-3-|-1-1-1-1-1-1-3-3-3-3-3-3-3-|
|--5-5-5-5-5-5-3-3-3-3-3-3-|-1-1-1-1-1-1-3-3-3-3-3-3-3-|
|
|-10-----------------------|---------------------------|
|--------------------------|---------------------------|
|--------------------------|---------------------------|
|--------------------------|---------------------------|
|--------------------------|---------------------------|
|--------------------------|---------------------------|


    G5          F5            Eb5         F5
    Gtrs I, II
                                                         3x
||--------------------------|----------------------------||
||o-------------------------|---------------------------o||
||--------------------------|----------------------------||
||--5-5-5-5-5-5-3-3-3-3-3-3-|-1-1-1-1-1-1-3-3-3-3-3-3-3--||
||o-5-5-5-5-5-5-3-3-3-3-3-3-|-1-1-1-1-1-1-3-3-3-3-3-3-3-o||
||--5-5-5-5-5-5-3-3-3-3-3-3-|-1-1-1-1-1-1-3-3-3-3-3-3-3--||


   Outro
    G5                                Bb5
    Gtrs I, II
||----------------------------------|--------------------------------------|
||o---------------------------------|--------------------------------------|
||----------------------------------|--------------------------------------|
||--5-5-5-5-5-5-5-5-5-5-5-5-5-5-5-5-|--8-8-8-8-8-8-8-8--8--8-8-8--8--8-8-8-|
||o-5-5-5-5-5-5-5-5-5-5-5-5-5-5-5-5-|--8-8-8-8-8-8-8-8--8--8-8-8--8--8-8-8-|
||--5-5-5-5-5-5-5-5-5-5-5-5-5-5-5-5-|--8-8-8-8-8-8-8-8--8--8-8-8--8--8-8-8-|
|
|   Gtrs IV, V
||----------------------------------|--------------------------------------|
||o-----------------6---------------|--------------6---(6)-----------4-----|
||----------7-------7-------7-------|--8-----------7---(7)-----7-(7)-5-----|
||----------8---------------8-------|-10-----------8---(8)---8-8-(8)-------|
||o---------------------------------|------------------------8-------------|
||----------------------------------|--------------------------------------|


  F5                                    Eb5
                                                                           6x
|-------------------------------------|------------------------------------||
|-------------------------------------|-----------------------------------o||
|-------------------------------------|------------------------------------||
|-3-3-3-3-3-3-3-3--3--3-3-3--3--3-3-3-|-1-1-1-1-1-1-1-1--1--1-1-1-1-1-1-1--||
|-3-3-3-3-3-3-3-3--3--3-3-3--3--3-3-3-|-1-1-1-1-1-1-1-1--1--1-1-1-1-1-1-1-o||
|-3-3-3-3-3-3-3-3--3--3-3-3--3--3-3-3-|-1-1-1-1-1-1-1-1--1--1-1-1-1-1-1-1--||
|
|                                                                          6x
|-------------------------------------|------------------------------------||
|-------------------------------------|-----------------------------------o||
|-5---------------(5)-----5-(5)-7-----|-3----------------------------------||
|-7---------------(7)---7-7-(7)-8-----|-5---------------(5)----------------||
|-----------------------8-------------|-----------------------------------o||
|-------------------------------------|------------------------------------||


10. I WON'T SEE YOU TONIGHT PART 2


Gtr I (D A D G B E) - 'Guitar 1 '
Gtr II (D A D G B E) - 'Guitar 2'
Gtr III (D A D G B E) - 'Guitar 3'

 Intro
  Fast Rock Q=210
  D5
 4/4
  Gtr I
   PM---------------------------------------------
|-----------------------|------------------------|
|-----------------------|------------------------|
|-----------------------|------------------------|
|-----------------------|------------------------|
|--0-0-0-0-0----0-0-0-0-|---0---------0-0-0-0-0--|
|--0-0-0-0-0----0-0-0-0-|---0---------0-0-0-0-0--|
|
| Gtr II
|                                 \7
|-19--------------------|-(19)--(19)-------------|
|-15--------------------|-(15)--(15)-------------|
|-----------------------|------------------------|
|-----------------------|------------------------|
|-----------------------|------------------------|
|-----------------------|------------------------|


 -----------------------------------------------|
|-----------------------|-------------------------|
|-----------------------|-------------------------|
|-----------------------|-------------------------|
|-----------------------|-------------------------|
|--0-0-0-0-0----0-0-0-0-|---0---------0-0-0-0-0---|
|--0-0-0-0-0----0-0-0-0-|---0---------0-0-0-0-0---|
|
|                                 \7
|-16--------------------|-(16)--(16)--------------|
|-15--------------------|-(15)--(15)--------------|
|-----------------------|-------------------------|
|-----------------------|-------------------------|
|-----------------------|-------------------------|
|-----------------------|-------------------------|


  D5
   PM---------------------------------------------
|-----------------------|------------------------|
|-----------------------|------------------------|
|-----------------------|------------------------|
|-----------------------|------------------------|
|--0-0-0-0-0----0-0-0-0-|---0---------0-0-0-0-0--|
|--0-0-0-0-0----0-0-0-0-|---0---------0-0-0-0-0--|
|
|                                 \7
|-20--------------------|-(20)--(20)-------------|
|-18--------------------|-(18)--(18)-------------|
|-----------------------|------------------------|
|-----------------------|------------------------|
|-----------------------|------------------------|
|-----------------------|------------------------|


 ----------------------------------------------------|
|------------------------------|---------------------------||
|------------------------------|---------------------------||
|------------------------------|---------------------------||
|------------------------------|---------------------------||
|--0-0-0-0-0----------0--0-0-0-|---0---------0-0-0-0-0-----||
|--0-0-0-0-0----------0--0-0-0-|---0---------0-0-0-0-0-----||
|
|                                        \7
|-19----------19-----20--------|-(20)--(20)----------------||
|-18---------(18)---(18)-------|-(18)--(18)----------------||
|------------------------------|---------------------------||
|------------------------------|---------------------------||
|------------------------------|---------------------------||
|------------------------------|---------------------------||


   Verse
    D5
    Gtrs I, II
    PM--------------------------------------
||-----------------------|-----------------|
||o----------------------|-----------------|
||-----------------------|-----------------|
||-----------------------|-----------------|
||o-0-0-0-0-0----0-0-0-0-|-0----0-0-0-0-0--|
||--0-0-0-0-0----0-0-0-0-|-0----0-0-0-0-0--|


 -------------------------------------|
|----------------------|--------------------||
|----------------------|-------------------o||
|----------------------|--------------------||
|----------------------|--------------------||
|-0-0-0-0-0----0-0-0-0-|-0----0-0-0-0-0----o||
|-0-0-0-0-0----0-0-0-0-|-0----0-0-0-0-0-----||


   Bridge
    Eb5             Bb5       A5        D5              F5        G5
    Gtr I
||----------------|-------------------|---------------|-----------------------||
||o---------------|-------------------|---------------|----------------------o||
||----------------|-------------------|---------------|-----------------------||
||--1----------1S=|==8--------7-------|-0---0------0--|--3--------5---(5)\----||
||o-1----------1S=|==8--------7-------|-0---0------0--|--3--------5---(5)\---o||
||--1----------1S=|==8--------7-------|-0---0------0--|--3--------5---(5)\----||
|
|   Gtr II
||----------------|-----------5-------|---------------|-----------5-----------||
||o-5-6-5-6-------|-----6-5-6---6-5-6-|-5-6-5-6-------|-----6-5-6---6--5---6-o||
||----------7-----|-(7)---------------|---------7-----|-(7)-------------------||
||----------------|-------------------|---------------|-----------------------||
||o---------------|-------------------|---------------|----------------------o||
||----------------|-------------------|---------------|-----------------------||
|
|   Gtr III
||----------------|-------------------|---------------|-----------------------||
||o---------------|-----------6-------|---------------|-----------6----------o||
||--6-7-6-7-------|-----7-6-7---7-6-7-|-6-7-6-7-------|-----7-6-7---7--6---7--||
||----------8-----|-(8)---------------|---------8-----|-(8)-------------------||
||o---------------|-------------------|---------------|----------------------o||
||----------------|-------------------|---------------|-----------------------||


   Verse
    D5
    Gtrs I, II
    PM--------------------------------------
||-----------------------|-----------------|
||o----------------------|-----------------|
||-----------------------|-----------------|
||-----------------------|-----------------|
||o-0-0-0-0-0----0-0-0-0-|-0----0-0-0-0-0--|
||--0-0-0-0-0----0-0-0-0-|-0----0-0-0-0-0--|


 -------------------------------------|
                                            4x
|----------------------|--------------------||
|----------------------|-------------------o||
|----------------------|--------------------||
|----------------------|--------------------||
|-0-0-0-0-0----0-0-0-0-|-0----0-0-0-0-0----o||
|-0-0-0-0-0----0-0-0-0-|-0----0-0-0-0-0-----||


 Bridge
  Slower Q=139
  D5        D5/AD5                D5/A
  Gtr I
  PM------|     PM--------------|
|-----------10------|-------------10--10--|
|-----------10------|-------------10--10--|
|-------------------|---------------------|
|-------------------|---------------------|
|-0-0-(0)-0-----0-0-|-(0)-0-(0)-0---------|
|-0-0-(0)-0-----0-0-|-(0)-0-(0)-0---------|


  D5        D5/AD5                D5/A
  Gtrs I, II
  PM------|     PM--------------|
|-----------10------|-------------10--10---|
|-----------10------|-------------10--10---|
|-------------------|----------------------|
|-------------------|----------------------|
|-0-0-(0)-0-----0-0-|-(0)-0-(0)-0----------|
|-0-0-(0)-0-----0-0-|-(0)-0-(0)-0----------|


    $
    D5              D5/D5                                D5/D5  D5/D5
    PM------------|    PM------------------------------|    PM|    PM|
||------------------10-----------|-----------------------10-----10-------||
||o-----------------10-----------|-----------------------10-----10------o||
||-------------------------------|---------------------------------------||
||-------------------------------|---------------------------------------||
||o-0-0-0-(0)-0-0-0----0-0-0-0-0-|-(0)-0-0-0-(0)-0-(0)-0----0-0----0-0--o||
||--0-0-0-(0)-0-0-0----0-0-0-0-0-|-(0)-0-0-0-(0)-0-(0)-0----0-0----0-0---||


 Breakdown
  N.C.
|-------------------------------------|--------------------------------------|
|-------------------------------------|--------------------------------------|
|-------------------------------------|--------------------------------------|
|-------------------------------------|--------------------------------------|
|-------------------------------------|--------------------------------------|
|-0-12-0-11-0-0-10-0-9-8-7-0-5b6-(5)/-|-0-12-0-11-0-0-10-0-9-8-7-0-5b6-(5)/--|


  N.C.
|-------------------------------------|
|-------------------------------------|
|-------------------------------------|
|-------------------------------------|
|-------------------------------------|
|-0-12-0-11-0-0-10-0-9-8-7-0-5b6-(5)/-|


                                         To Coda
                                      D5   Ab5
|-----------------------------------|----------------||
|-----------------------------------|----------------||
|-----------------------------------|----------------||
|-----------------------------------|-0----/6---(6)\-||
|-----------------------------------|-0----/6---(6)\-||
|-0-12-0-11-0-0-10-0-5b6.5--(5)-(5)-|-0----/6---(6)\-||


   Interlude
    D5        N.C.     D5      N.C.    D5      N.C.   D5    N.C. D5
    Gtr I
      PM|   PM         PM|   PM        PM|   PM       PM--|      PM|
||------------------|---------------|---------------|----------------|
||o-----------------|---------------|---------------|----------------|
||------------------|---------------|---------------|----------------|
||--0-----0----8--7-|------0---7--6-|------0---5--3-|-------3--2-----|
||o-0-0-0-0-0-------|--0-0-0-0------|--0-0-0-0------|-0-0-0------0-0-|
||--0-0-0-0-0-------|--0-0-0-0------|--0-0-0-0------|-0-0-0------0-0-|
|
|   Gtr II
|     PM|   PM         PM|   PM        PM|   PM       PM--|      PM|
||------------------|---------------|---------------|----------------|
||o-----------------|---------------|---------------|----------------|
||------------------|---------------|---------------|----------------|
||--0-----0---------|------0--------|------0--------|----------------|
||o-0-0-0-0-0-10--8-|--0-0-0-0-8--7-|--0-0-0-0-7--5-|-0-0-0-5--4-0-0-|
||--0-0-0-0-0-------|--0-0-0-0------|--0-0-0-0------|-0-0-0------0-0-|


  1.                                2.
  Eb5      F5GbG5  D5   Ab5          Eb5
                   PM
|----------------|----------------||--------------||
|----------------|---------------o||--------------||
|----------------|----------------||--------------||
|-1--1-1-1-3-4-5-|------6---(6)\--||-1-------(1)/-||
|-1--1-1-1-3-4-5-|-0----6---(6)\-o||-1-------(1)/-||
|-1--1-1-1-3-4-5-|-0----6---(6)\--||-1-------(1)/-||
|
|                  PM
|----------------|----------------||--------------||
|----------------|---------------o||--------------||
|----------------|----------------||--------------||
|-1--------------|------6---(6)\--||-1-------(1)/-||
|-1--------------|-0----6---(6)\-o||-1-------(1)/-||
|-1--------------|-0----6---(6)\--||-1-------(1)/-||


    N.C.    D5      N.C.    Eb5  G5    Ab5   EbF5
    Gtrs I, II
    PM----|   PM|   PM----|
||----------------------------|-------------------|
||o---------------------------|-------------------|
||----------------------------|-------------------|
||----------7-----7---------8-|--5-(5)-6-(6)-1-3--|
||o---------5-----5-2-3-4-5-6-|--5-(5)-6-(6)-1-3--|
||--0-0-0-0---0-0-------------|--5-(5)-6-(6)-1-3--|


  N.C.    D5      N.C.    Eb5        F5    G5    A5
  PM----|   PM|   PM----|
                                                    4x
|---------------------------|-----------------------||
|---------------------------|----------------------o||
|---------------------------|-----------------------||
|---------7-----7---------8-|--1-(1)-3-(3)-5-(5)-7--||
|---------5-----5-2-3-4-5-6-|--1-(1)-3-(3)-5-(5)-7-o||
|-0-0-0-0---0-0-------------|--1-(1)-3-(3)-5-(5)-7--||


   Breakdown
    D5   Db5  C5 B5BbA5      Ab5 G5F5
                                      ~~~
||---------------------|------------------|
||o--------------------|------------------|
||---------------------|------------------|
||---------------------|------------------|
||o---12-11---10-9-8-7-|---7-6---5-3-(3)--|
||--0-12-11-0-10-9-8-7-|-0-7-6-0-5-3-(3)--|


  D5   Db5  C5 B5BbA5      Ab5 G5F5
                                    ~~~
|--------------------|-------------------||
|--------------------|------------------o||
|--------------------|-------------------||
|--------------------|-------------------||
|---12-11---10-9-8-7-|---7-6---5-3-(3)--o||
|-0-12-11-0-10-9-8-7-|-0-7-6-0-5-3-(3)---||


 Bridge
  D5
 7/4
  Gtrs I, II
  PM----------------------------------------------------------------------|
|-------------------------------------|--------------------------------------|
|-------------------------------------|--------------------------------------|
|-------------------------------------|--------------------------------------|
|-------------------------------------|--------------------------------------|
|-0-0--0-0---0-0-0-0-(0)-0-0-0-0-0----|-0-0--0-0---0-0-0-0-(0)-0-0-0-0-0-----|
|-0-0--0-0---0-0-0-0-(0)-0-0-0-0-0----|-0-0--0-0---0-0-0-0-(0)-0-0-0-0-0-----|


  D5
  Gtrs I, II
  PM-----------------------------------
|-------------------------------------|
|-------------------------------------|
|-------------------------------------|
|-------------------------------------|
|-0-0--0-0---0-0-0-0-(0)-0-0-0-0-0----|
|-0-0--0-0---0-0-0-0-(0)-0-0-0-0-0----|
|
| Gtr III
|-------------------------------------|
|-------------------------------------|
|-------------------------------------|
|-------------------------------------|
|-------------------------------------|
|-------------------------------------|


 ---------------------------------------------|
|-----------------------------------------------------------||
|-----------------------------------------------------------||
|-----------------------------------------------------------||
|-----------------------------------------------------------||
|-0-0--0-0---0-0-0-0-(0)--0--0--0--0--0---------------------||
|-0-0--0-0---0-0-0-0-(0)--0--0--0--0--0---------------------||
|
|-----------------------------------------------------------||
|------------------------16-13-------------------13----13---||
|------------------------------14-12----12-13-14----14------||
|------------------------------------16---------------------||
|-----------------------------------------------------------||
|-----------------------------------------------------------||


 Guitar Solo
  D5
   PM---------------------------------------------------------
|------------------------------------------------------------|
|------------------------------------------------------------|
|------------------------------------------------------------|
|------------------------------------------------------------|
|--0-0--0-0---0-0-0-0-(0)-0-0-0-0-0--------------------------|
|--0-0--0-0---0-0-0-0-(0)-0-0-0-0-0--------------------------|
|
|  ~~
|------------------------------------------------------------|
|-16---------------------------------13-------------------13-|
|---------------------------------------14-12----12-13-14----|
|---------------------------------------------16-------------|
|------------------------------------------------------------|
|------------------------------------------------------------|


 -------------------------------------------------|
|----------------------------------------------------------|
|----------------------------------------------------------|
|----------------------------------------------------------|
|----------------------------------------------------------|
|--0----0----0--0---0-0-0-0-(0)-0-0-0--0-0-----------------|
|--0----0----0--0---0-0-0-0-(0)-0-0-0--0-0-----------------|
|
|-14b15----(14)--------------------------------------17----|
|-------------------------------------13-------13-16----16-|
|------------------------------------------14--------------|
|----------------------------------------------------------|
|----------------------------------------------------------|
|----------------------------------------------------------|


  D5
   PM--------------------------------------------------
|-----------------------------------------------------|
|-----------------------------------------------------|
|-----------------------------------------------------|
|-----------------------------------------------------|
|--0-0----0-----0-------0-0------0-0-(0)-0-0-0-0-0----|
|--0-0----0-----0-------0-0------0-0-(0)-0-0-0-0-0----|
|
|-16----(16)b18----(16)-----(16)----------------------|
|-----------------------------------------------------|
|-----------------------------------------------------|
|-----------------------------------------------------|
|-----------------------------------------------------|
|-----------------------------------------------------|


 --------------------------------------------------------------------------|
|--------------------------------------------------------------------------------------||
|--------------------------------------------------------------------------------------||
|--------------------------------------------------------------------------------------||
|--------------------------------------------------------------------------------------||
|--0--0--------0--0--------------0--0-----0-----0-(0)--0--0--0--0--0-------------------||
|--0--0--------0--0--------------0--0-----0-----0-(0)--0--0--0--0--0-------------------||
|
|--------------------------------------------------------------------------------------||
|-16----------15-16-15-----------------------------------------------------------------||
|----15-14-15-------------15----------17----------15-----------17----------15----------||
|----------------------16----16-15-16----16-15-16-----16-15-16----16-15-16----16-15-16-||
|--------------------------------------------------------------------------------------||
|--------------------------------------------------------------------------------------||


  D5        Ab5             G5          D5                N.C.
 4/4
    PM---|                               PM---------|
|--------------------------------------------------------------------------------|
|--------------------------------------------------------------------------------|
|--------------------------------------------------------------------------------|
|-0----------6-(6)-----------5---------------------------------------------------|
|-0-0--0--0--6-(6)-----------5-----------0-----0-----0---------------------------|
|-0-0--0--0--6-(6)-----------5-----------0-----0-----0-----4b4.5----(4)----------|
|
|-----------17-20--18------------------------------------------------------------|
|-----16-15-----------20---------------------------------------------------------|
|------------------------19----------19-20-19------------------------------------|
|---------------------------20-19-20----------19-20-17----17---------------------|
|------------------------------------------------------20--------20-18--17-18-17-|
|--------------------------------------------------------------------------------|


                 D5                                  Eb5         D5          F5          D5
                  PM---------|                                    PM---|                  PM---|
|-------------------------------------------------------------------------------------------------------|
|-------------------------------------------------------------------------------------------------------|
|-------------------------------------------------------------------------------------------------------|
|-----------------------------------0-----------------1-----------------------3-------------------------|
|-----------------0-----0-----0-----0-----------------1-----------0-----0-----3-----------0-----0-------|
|-(4)b5-----------0-----0-----0-----0-----------------1-----------0-----0-----3-----------0-----0-------|
|
|-------------------------------------------------------------------------------------------------------|
|-------------------------------------------------------------------------------------------------------|
|-------------------------------------------------------------------------------------------------------|
|-------------------------------------------------------------------------17----------17-19-20-19-17----|
|-------17-18-17-20-18-17----17-------------------15-------------17-19-20----20-19-20-------------------|
|-20----------------------20----20-19-17-15-17-19----19-17-19-20----------------------------------------|


  D5                            Ab5                G5          D5                N.C.
               PM---------|                                     PM---------|
|-------------------------------------------------------------------------------------------------------|
|-------------------------------------------------------------------------------------------------------|
|-------------------------------------------------------------------------------------------------------|
|--0-----------------------------6----(6)-----------5---------------------------------------------------|
|--0-----------0-----0-----0-----6----(6)-----------5-----------0-----0-----0---------------------------|
|--0-----------0-----0-----0-----6----(6)-----------5-----------0-----0-----0-----4b4.5----(4)----------|
|
|-------------------------------------------------------------------------------------------------------|
|----------18-------------------------------------------------------------------------------------------|
|-19-20-19----19-20-19-17----------17-19--20-19-17----17------------------------------------------------|
|-------------------------20-19-17-----------------20----20-19-17----17----------17-----19-----17-19-20-|
|-----------------------------------------------------------------20----20-19-20-----------20-----------|
|-------------------------------------------------------------------------------------------------------|


                 D5                                  Eb5   D5          F5          D5
                  PM---------|                              PM---|                  PM---|
|-----------------------------------------------------------------------------------------------|
|-----------------------------------------------------------------------------------------------|
|-----------------------------------------------------------------------------------------------|
|-----------------------------------0-----------------1-----------------3-----------------------|
|-----------------0-----0-----0-----0-----------------1-----0-----0-----3-----------0-----0-----|
|-(4)b5-----------0-----0-----0-----0-----------------1-----0-----0-----3-----------0-----0-----|
|
|----------------------------------18-20-18----17-20-23-23----------23-23-23-23-23----------23--|
|-------------------------18-20-22----------22-------------22-23-22----------------22-23-22-----|
|-17----19-20----17-19-20-----------------------------------------------------------------------|
|-------------20--------------------------------------------------------------------------------|
|-----------------------------------------------------------------------------------------------|
|-----------------------------------------------------------------------------------------------|


  D5                      Ab5                G5       D5                N.C.
         PM---------|                                  PM---------|
|----------------------------------------------------------------------------------------------|
|----------------------------------------------------------------------------------------------|
|----------------------------------------------------------------------------------------------|
|--0-----------------------6----(6)-----------5------------------------------------------------|
|--0-----0-----0-----0-----6----(6)-----------5--------0-----0-----0---------------------------|
|--0-----0-----0-----0-----6----(6)-----------5--------0-----0-----0-----4b4.5----(4)----------|
|
|-23-23----------23-23-23-23-23-----------23-17-20-18------------------------------------------|
|-------22-23-22----------------22--23-22-------------20---------------------------------------|
|--------------------------------------------------------19----------19-20-----19--------------|
|-----------------------------------------------------------20-19-20--------------19--20-17----|
|-------------------------------------------------------------------------------------------20-|
|----------------------------------------------------------------------------------------------|


                 D5                                  Eb5         D5          F5          D5
                  PM---------|                                    PM---|                  PM---|
|------------------------------------------------------------------------------------------------------|
|------------------------------------------------------------------------------------------------------|
|------------------------------------------------------------------------------------------------------|
|-----------------------------------0-----------------1-----------------------3------------------------|
|-----------------0-----0-----0-----0-----------------1-----------0-----0-----3-----------0-----0------|
|-(4)b5-----------0-----0-----0-----0-----------------1-----------0-----0-----3-----------0-----0------|
|
|------------------------------------------------------------------------------------------------------|
|------------------------------------------------------------------------------------------------------|
|------------------------------------------------------------------------------------------------------|
|-17----------------------------------------------------------------------------------------17-19-20---|
|-------20-18-17-18-17----17-18-17-20-18-17----17-------------------15-------------17-19-20------------|
|----------------------20-------------------20----20-19-17-15-17-19----19-17-19-20---------------------|


  D5                            Ab5                G5          D5                N.C.
               PM---------|                                     PM---------|
|-------------------------------------------------------------------------------------------------------|
|-------------------------------------------------------------------------------------------------------|
|-------------------------------------------------------------------------------------------------------|
|--0-----------------------------6----(6)-----------5---------------------------------------------------|
|--0-----------0-----0-----0-----6----(6)-----------5-----------0-----0-----0---------------------------|
|--0-----------0-----0-----0-----6----(6)-----------5-----------0-----0-----0-----4b4.5----(4)----------|
|
|-------------------------------18-20-18----------------------------------------------------------------|
|----------------------18-20-22-----------22-20---------------------------------------------------------|
|-17-19-20----17-19-20--------------------------19----------19-20-19------------------------------------|
|----------20--------------------------------------20-19-20----------19-20-17----17-----19-17-----------|
|-----------------------------------------------------------------------------20---------------20-19-20-|
|-------------------------------------------------------------------------------------------------------|


                 D5                                  Eb5         D5          F5          D5
                  PM---------|                                    PM---|                  PM---|
|-------------------------------------------------------------------------------------------------------||
|-------------------------------------------------------------------------------------------------------||
|-------------------------------------------------------------------------------------------------------||
|-----------------------------------0-----------------1-----------------------3-------------------------||
|-----------------0-----0-----0-----0-----------------1-----------0-----0-----3-----------0-----0-------||
|-(4)b5-----------0-----0-----0-----0-----------------1-----------0-----0-----3-----------0-----0-------||
|
|----------------------------------------------------------------------------------------------18-------||
|-------------------------------------------------------------------------------------18----18----20----||
|-17----19-17----------------------------17-19-17----------17-19-17----17-19-20-19-17----20-------------||
|-------------20-19-20-17-19-17-------------------20-19-20----------20----------------------------------||
|-------------------------------20-19-20----------------------------------------------------------------||
|-------------------------------------------------------------------------------------------------------||


 Chorus
  G5
|-------------------------|-----------------------|
|-------------------------|-----------------------|
|-------------------------|-----------------------|
|--5-----5-5-5---5--5-5-5-|---5--5-5-5-5-5-5---5--|
|--5-----5-5-5---5--5-5-5-|---5--5-5-5-5-5-5---5--|
|--5-----5-5-5---5--5-5-5-|---5--5-5-5-5-5-5---5--|
|
|-------------------------|-----------------------|
|-18b20========(18)-------|-(18)-------------(18)r|
|-------------------------|-----------------------|
|-------------------------|-----------------------|
|-------------------------|-----------------------|
|-------------------------|-----------------------|


  Eb5                                   D5
|--------------------|---------------------|
|--------------------|---------------------|
|--------------------|---------------------|
|---1--1-1-1-1-1-1-1-|---1--1-1-1-1-1-1----|
|---1--1-1-1-1-1-1-1-|---1--1-1-1-1-1-1-0--|
|---1--1-1-1-1-1-1-1-|---1--1-1-1-1-1-1-0--|
|
|--------------------|---------------------|
|-(18)---------------|-(18)----------------|
|--------------------|---------------------|
|--------------------|---------------------|
|--------------------|---------------------|
|--------------------|---------------------|


  Bb5                                       F5                Gb5
|--------------------|--------------------|-----------------|------------------|
|--------------------|--------------------|-----------------|------------------|
|--------------------|--------------------|-----------------|------------------|
|---8--8-8-8-8-8-8-8-|---8--8-8-8-8-8-8-8-|-3-3-3-3-3-3-3-3-|-4-4-4-4-4-4-4-4--|
|---8--8-8-8-8-8-8-8-|---8--8-8-8-8-8-8-8-|-3-3-3-3-3-3-3-3-|-4-4-4-4-4-4-4-4--|
|---8--8-8-8-8-8-8-8-|---8--8-8-8-8-8-8-8-|-3-3-3-3-3-3-3-3-|-4-4-4-4-4-4-4-4--|
|
|   >
|--------------------|--------------------|-----------------|------------------|
|-(18)---------------|-(18)---------------|-----------------|------------------|
|--------------------|--------------------|-----------------|------------------|
|--------------------|--------------------|-----------------|------------------|
|--------------------|--------------------|-----------------|------------------|
|--------------------|--------------------|-----------------|------------------|


  G5                                  Eb5                             D5
  Gtrs I, II
|-----------------|-----------------|-----------------|------------------|
|-----------------|-----------------|-----------------|------------------|
|-----------------|-----------------|-----------------|------------------|
|-5-5-5-5-5-5-5-5-|-5-5-5-5-5-5-5-5-|-1-1-1-1-1-1-1-1-|-1-1-1-1-1-1-1----|
|-5-5-5-5-5-5-5-5-|-5-5-5-5-5-5-5-5-|-1-1-1-1-1-1-1-1-|-1-1-1-1-1-1-1-0--|
|-5-5-5-5-5-5-5-5-|-5-5-5-5-5-5-5-5-|-1-1-1-1-1-1-1-1-|-1-1-1-1-1-1-1-0--|


  Bb5                                 F5                Gb5
|-----------------|-----------------|-----------------|------------------||
|-----------------|-----------------|-----------------|------------------||
|-----------------|-----------------|-----------------|------------------||
|-8-8-8-8-8-8-8-8-|-8-8-8-8-8-8-8-8-|-3-3-3-3-3-3-3-3-|-4-4-4-4-4-4-4-4--||
|-8-8-8-8-8-8-8-8-|-8-8-8-8-8-8-8-8-|-3-3-3-3-3-3-3-3-|-4-4-4-4-4-4-4-4--||
|-8-8-8-8-8-8-8-8-|-8-8-8-8-8-8-8-8-|-3-3-3-3-3-3-3-3-|-4-4-4-4-4-4-4-4--||


   Bridge
                                                         D.S. al Coda
    D5              D5/D5                                D5/D5  D5/D5
    PM------------|    PM------------------------------|    PM|    PM|
||------------------10-----------|-----------------------10-----10-------||
||o-----------------10-----------|-----------------------10-----10------o||
||-------------------------------|---------------------------------------||
||-------------------------------|---------------------------------------||
||o-0-0-0-(0)-0-0-0----0-0-0-0-0-|-(0)-0-0-0-(0)-0-(0)-0----0-0----0-0--o||
||--0-0-0-(0)-0-0-0----0-0-0-0-0-|-(0)-0-0-0-(0)-0-(0)-0----0-0----0-0---||


   Interlude
    &
    D5        N.C.     D5      N.C.    D5      N.C.   D5    N.C. D5
    Gtr I
      PM|   PM         PM|   PM        PM|   PM       PM--|      PM|
||------------------|---------------|---------------|----------------|
||o-----------------|---------------|---------------|----------------|
||------------------|---------------|---------------|----------------|
||--0-----0----8--7-|------0---7--6-|------0---5--3-|-------3--2-----|
||o-0-0-0-0-0-------|--0-0-0-0------|--0-0-0-0------|-0-0-0------0-0-|
||--0-0-0-0-0-------|--0-0-0-0------|--0-0-0-0------|-0-0-0------0-0-|
|
|   Gtr II
|     PM|   PM         PM|   PM        PM|   PM       PM--|      PM|
||------------------|---------------|---------------|----------------|
||o-----------------|---------------|---------------|----------------|
||------------------|---------------|---------------|----------------|
||--0-----0---------|------0--------|------0--------|----------------|
||o-0-0-0-0-0-10--8-|--0-0-0-0-8--7-|--0-0-0-0-7--5-|-0-0-0-5--4-0-0-|
||--0-0-0-0-0-------|--0-0-0-0------|--0-0-0-0------|-0-0-0------0-0-|


  Eb5            D5   Ab5
                 PM
|--------------|---------------|
|--------------|---------------|
|--------------|---------------|
|-1-------(1)/-|------6---(6)\-|
|-1-------(1)/-|-0----6---(6)\-|
|-1-------(1)/-|-0----6---(6)\-|
|
|                PM
|--------------|---------------|
|--------------|---------------|
|--------------|---------------|
|-1-------(1)/-|------6---(6)\-|
|-1-------(1)/-|-0----6---(6)\-|
|-1-------(1)/-|-0----6---(6)\-|


  D5        N.C.     D5      N.C.    D5      N.C.   D5    N.C. D5
    PM|   PM         PM|   PM        PM|   PM       PM--|      PM|
|-----------------|---------------|---------------|-----------------|
|-----------------|---------------|---------------|-----------------|
|-----------------|---------------|---------------|-----------------|
|-0-----0----8--7-|------0---7--6-|------0---5--3-|-------3--2------|
|-0-0-0-0-0-------|--0-0-0-0------|--0-0-0-0------|-0-0-0------0-0--|
|-0-0-0-0-0-------|--0-0-0-0------|--0-0-0-0------|-0-0-0------0-0--|
|
|   PM|   PM         PM|   PM        PM|   PM       PM--|      PM|
|-----------------|---------------|---------------|-----------------|
|-----------------|---------------|---------------|-----------------|
|-----------------|---------------|---------------|-----------------|
|-0-----0---------|------0--------|------0--------|-----------------|
|-0-0-0-0-0-10--8-|--0-0-0-0-8--7-|--0-0-0-0-7--5-|-0-0-0-5--4-0-0--|
|-0-0-0-0-0-------|--0-0-0-0------|--0-0-0-0------|-0-0-0------0-0--|


  1.
  Eb5      F5GbG5  D5   Ab5
|----------------|-----------------||
|----------------|----------------o||
|----------------|-----------------||
|-1--1-1-1-3-4-5-|-0----/6---(6)\--||
|-1--1-1-1-3-4-5-|-0----/6---(6)\-o||
|-1--1-1-1-3-4-5-|-0----/6---(6)\--||
|
|----------------|-----------------||
|----------------|----------------o||
|----------------|-----------------||
|-1--------------|-0----/6---(6)\--||
|-1--------------|-0----/6---(6)\-o||
|-1--------------|-0----/6---(6)\--||


  2.
  Eb5
  Gtrs I, II
|----------|--------||
|----------|--------||
|----------|--------||
|-1--------|-(1)----||
|-1--------|-(1)----||
|-1--------|-(1)----||


 Outro
  a Tempo Q=210
  D5
  PM--------------------------------------
|----------------------|-----------------|
|----------------------|-----------------|
|----------------------|-----------------|
|----------------------|-----------------|
|-0-0-0-0-0----0-0-0-0-|-0----0-0-0-0-0--|
|-0-0-0-0-0----0-0-0-0-|-0----0-0-0-0-0--|


 ---------------------------------------|
|----------------------|--------------------|
|----------------------|--------------------|
|----------------------|--------------------|
|----------------------|--------------------|
|-0-0-0-0-0----0-0-0-0-|-0----0-0-0-0-0-----|
|-0-0-0-0-0----0-0-0-0-|-0----0-0-0-0-0-----|


  D5
  PM-----------------------------------------------------------------|
|----------------------|-----------------|----------------------|----------*|
|----------------------|-----------------|----------------------|----------*|
|----------------------|-----------------|----------------------|----------*|
|----------------------|-----------------|----------------------|----------*|
|-0-0-0-0-0----0-0-0-0-|-0----0-0-0-0-0--|-0-0-0-0-0----0-0-0-0-|-0--------*|
|-0-0-0-0-0----0-0-0-0-|-0----0-0-0-0-0--|-0-0-0-0-0----0-0-0-0-|-0--------*|


11. CLAIRVOYANT DISEASE


Gtr I (D A D G B E) - 'Zacky (Left Ear)'
Gtr II (D A D G B E) - 'Syn (Right Ear)'
Gtr III (D A D G B E) - 'Clean Guitar 1 '
Gtr IV (D A D G B E) - 'Clean Guitar 2'
Gtr V (D A D G B E) - 'Neutral Metal Guitar 1'
Gtr VI (D A D G B E) - 'Neutral Metal Guitar 2'

 Intro
  Slowly Q=69
  N.C.
 4/4
  Gtr I
|---------------------------|---------------|
|---------------------------|---------------|
|---------------------------|---------------|
|-7---5-7--/8-7-5-(5)-7-(7)S|=3----2--3-(3)S|
|---------------------------|---------------|
|---------------------------|---------------|
|
| Gtr II
|---------------------------|---------------|
|---------------------------|---------------|
|---------------------------|---------------|
|---------------------------|---------------|
|-8---7-8-/10-8-7-(7)-8-(8)S|=5----4--5-(5)S|
|---------------------------|---------------|


|---------------------------|-------------------||
|---------------------------|-------------------||
|---------------------------|-------------------||
|-7---5-7--/8-7-5-(5)-7-(7)S|=3---(3)S5---(5)\--||
|---------------------------|-------------------||
|---------------------------|-------------------||
|
|---------------------------|-------------------||
|---------------------------|-------------------||
|---------------------------|-------------------||
|---------------------------|-------------------||
|-8---7-8-/10-8-7-(7)-8-(8)S|=5---(5)S7---(7)\--||
|---------------------------|-------------------||


   Verse
    (Dmadd2)
    Gtr III
||---------0---------0------5--------0--(0)-----0-|
||o-----------6--(6)--------------6---------------|
||------2--------------2--------------------2-----|
||---0-------------------0-----0--------------0---|
||o-----------------------------------------------|
||------------------------------------------------|
|
|   Gtr IV
||--------12---------------------12---------------|
||o-----------------------------------------------|
||-----14----14-(14)----------14----14-(14)-------|
||--12---------------------12---------------------|
||o-----------------------------------------------|
||------------------------------------------------|


  (Bbmaj7add4)
                                           3x
|----------0--(0)-------5-----0------------||
|-------3---------3--------------3--------o||
|----3--------------3----------------0-----||
|--------------------------3---------------||
|-1-------------------1-------------------o||
|------------------------------------------||
|
|                                          3x
|------10--------------------10------------||
|-----------------------------------------o||
|---10----10-(10)---------10----10-(10)----||
|-8---------------------8------------------||
|-----------------------------------------o||
|------------------------------------------||


  (Dmadd2)
|--------0---------0------5--------0--(0)-----0-|
|-----------6--(6)--------------6---------------|
|-----2--------------2--------------------2-----|
|--0-------------------0-----0--------------0---|
|-----------------------------------------------|
|-----------------------------------------------|
|
|-------12---------------------12---------------|
|-----------------------------------------------|
|----14----14-(14)----------14----14-(14)-------|
|-12---------------------12---------------------|
|-----------------------------------------------|
|-----------------------------------------------|


  (Bbmaj7add4)          Bbadd4
|----------0--(0)-------^-0----||
|-------3---------3-----^-3----||
|----3--------------3---^-3----||
|------------------------------||
|-1-------------------1--------||
|------------------------------||
|
|------10---------------^10----||
|-----------------------^-8----||
|---10----10-(10)-------^10----||
|-8---------------------^-8----||
|------------------------------||
|------------------------------||


   Chorus
    $                                              To Coda
    D5         Em7D5         F6/D D5   BbD5  BbD5   AbD5  A5
    Gtrs I, II
     ~~~~~~~~~~~~~~~~~~~~~~~~~~~~~~~~~~~~~~~~~~~~~
||------------------------------|-----------------------------||
||o-15------------15------------|-15-----------15------------o||
||------------------------------|-----------------------------||
||------------------------------|-----------------------------||
||o-----------------------------|----------------------------o||
||------------------------------|-----------------------------||
|
|   Gtr V
|    PM|   PM|     PM|   PM|       PM|   PM|    PM|   PM|
||------------------------------|-----------------------------||
||o-----------------------------|----------------------------o||
||------------------------------|-----------------------------||
||-------0-----5\------0-----7\-|------3-----2----------------||
||o--0-0-0-0-0-7\--0-0-0-0-0-8\-|--0-0-1-0-0-1--0-0-7-0-0-7\-o||
||---0-0-0-0-0-0---0-0-0-0-0-0--|--0-0---0-0----0-0-6-0-0-7\--||


    D5                  Em7/D D5                 F6/D
    Gtr I
||--------------15b17---(15)--------15b17-(15)---(15)\-|
||o-------15-13---------------15-----------------------|
||----/14------------------------14--------------------|
||-----------------------------------------------------|
||o----------------------------------------------------|
||-----------------------------------------------------|
|
|   Gtr II
||--------------15b17---(15)--------15b17-(15)---(15)\-|
||o-------15-13---------------15-----------------------|
||----/14------------------------14--------------------|
||-----------------------------------------------------|
||o----------------------------------------------------|
||-----------------------------------------------------|
|
|   Gtr V
|   PM|          PM---|        PM|          PM-|
||-----------------------------------------------------|
||o----------------------------------------------------|
||-----------------------------------------------------|
||---------0--------------5\---------0-------------7\--|
||o-0---0--0-----0----0---7\---0--0--0------0--0---8\--|
||--0---0--0-----0----0---0----0--0--0------0--0---0---|


  D5    Bb5     D5    Bbb5    D5    Ab6     D5    A5
    ~~~           ~~~           ~~~           ~~~
|------------------------------------------------------------||
|-/15-----(15)\-/14-----(14)\-/13-----(13)\-/14------(14)\--o||
|------------------------------------------------------------||
|------------------------------------------------------------||
|-----------------------------------------------------------o||
|------------------------------------------------------------||
|
|   ~~~           ~~~           ~~~           ~~~
|------------------------------------------------------------||
|-----------------------------------------------------------o||
|-/15-----(15)\-/14-----(14)\-/13-----(13)\-/14------(14)\---||
|------------------------------------------------------------||
|-----------------------------------------------------------o||
|------------------------------------------------------------||
|
|   PM|           PM|           PM|           PM|
|------------------------------------------------------------||
|-----------------------------------------------------------o||
|------------------------------------------------------------||
|-------3-------------2--------------------------------------||
|---0-0-1---------0-0-1---------0-0-7---------0-0-7\--------o||
|---0-0-----------0-0-----------0-0-6---------0-0-7\---------||


   Verse
    N.C.
    Gtr II
||------------------------------------------|
||o-----------------------------------------|
||------------------------------------------|
||---------2--3--(3)-2h3-/5-----3--2--(2)-3-|
||o-----0-----------------------------------|
||---0--------------------------------------|
|
|   Gtr IV
||--------12-------------------12-----------|
||o-----------------------------------------|
||-----14----14-(14)--------14----14-(14)---|
||--12-------------------12-----------------|
||o-----------------------------------------|
||------------------------------------------|


                    ~
                                      3x
|-------------------------------------||
|------------------------------------o||
|-------3--5--(5)-5s7-----------------||
|----3--------------------------------||
|-1----------------------------------o||
|-------------------------------------||
|
|                                     3x
|------10----------------10-----------||
|------------------------------------o||
|---10----10-(10)-----10----10-(10)---||
|-8-----------------8-----------------||
|------------------------------------o||
|-------------------------------------||


                                                  D.S. al Coda
  N.C.                                                        Bb6add2
                                                                ~~~
|-----------------------------------------|--------------------------||
|-----------------------------------------|--------------------------||
|-----------------------------------------|-------3--5--(5)-5s==7----||
|--------2--3--(3)-2h3-/5-----3--2--(2)-3-|----3---------------------||
|-----0-----------------------------------|-1------------------------||
|--0--------------------------------------|--------------------------||
|
|-------12-------------------12-----------|------10-----------^10----||
|-----------------------------------------|-------------------^-8----||
|----14----14-(14)--------14----14-(14)---|---10----10-(10)---^10----||
|-12-------------------12-----------------|-8-----------------^-8----||
|-----------------------------------------|--------------------------||
|-----------------------------------------|--------------------------||


    &
    D5                  Em7/D D5                 F6/D
    Gtr I
||--------------15b17---(15)--------15b17-(15)---(15)\-|
||o-------15------------------15-----------------------|
||----/14----14------------------14--------------------|
||-----------------------------------------------------|
||o----------------------------------------------------|
||-----------------------------------------------------|
|
|   Gtr II
||--------------15b17---(15)--------15b17-(15)---(15)\-|
||o-------15------------------15-----------------------|
||----/14----14------------------14--------------------|
||-----------------------------------------------------|
||o----------------------------------------------------|
||-----------------------------------------------------|
|
|   Gtr V
|   PM|          PM---|        PM|          PM-|
||-----------------------------------------------------|
||o----------------------------------------------------|
||-----------------------------------------------------|
||---------0--------------5\---------0-------------7\--|
||o-0---0--0-----0----0---7\---0--0--0------0--0---8\--|
||--0---0--0-----0----0---0----0--0--0------0--0---0---|


  D5    Bb5     D5    Bbb5    D5    Ab6     D5    A5
    ~~~           ~~~           ~~~           ~~~
|------------------------------------------------------------||
|-/15-----(15)\-/14-----(14)\-/13-----(13)\-/14------(14)\--o||
|------------------------------------------------------------||
|------------------------------------------------------------||
|-----------------------------------------------------------o||
|------------------------------------------------------------||
|
|   ~~~           ~~~           ~~~           ~~~
|------------------------------------------------------------||
|-----------------------------------------------------------o||
|-/15-----(15)\-/14-----(14)\-/13-----(13)\-/14------(14)\---||
|------------------------------------------------------------||
|-----------------------------------------------------------o||
|------------------------------------------------------------||
|
|   PM|           PM|           PM|           PM|
|------------------------------------------------------------||
|-----------------------------------------------------------o||
|------------------------------------------------------------||
|-------3-------------2--------------------------------------||
|---0-0-1---------0-0-1---------0-0-7---------0-0-7\--------o||
|---0-0-----------0-0-----------0-0-6---------0-0-7\---------||


 Interlude
  Faster Q=142
  D5                      Bb5
  Gtrs I, II
                               PM--------|
|-----------------------|------------------|
|-----------------------|------------------|
|-----------------------|------------------|
|--0-----0-(0)--0---0-0-|-8----------------|
|--0-----0-(0)--0---0-0-|-8----8-8-8-8-8-8-|
|--0-----0-(0)--0---0-0-|-8----8-8-8-8-8-8-|
|
| Gtr V
|-----------------------|------------------|
|--------5--6p5h6p5-----|----/10---8---5---|
|-/7---7------------7---|------------------|
|----7----------------7-|-8----------------|
|-----------------------|------------------|
|-----------------------|------------------|


  D5                      Bb5
                               PM--------|
|-----------------------|------------------|
|-----------------------|------------------|
|-----------------------|------------------|
|--0-----0-(0)--0---0-0-|-8----------------|
|--0-----0-(0)--0---0-0-|-8----8-8-8-8-8-8-|
|--0-----0-(0)--0---0-0-|-8----8-8-8-8-8-8-|
|
|-----------------------|------------------|
|--------5--6p5h6p5-----|----/10---8---5---|
|-/7---7------------7---|----------------7-|
|----7----------------7-|-8----------------|
|-----------------------|------------------|
|-----------------------|------------------|


  C/E           D5E5  F5                  G5    D5E6    G6
|-------------------|-------------------|------------------|
|-------------------|-------------------|------------------|
|-------------------|-------------------|------------------|
|-2-2---2-(2)-2-0-2-|-3-3---3-(3)-3-3-3-|-5-5-5---2-(2)S5--|
|-3-3---3-(3)-3-0-2-|-3-3---3-(3)-3-3-3-|-5-5-5-0-4-(4)S7--|
|-2-2---2-(2)-2-0-2-|-3-3---3-(3)-3-3-3-|-5-5-5-0-2-(2)S5--|
|
|-6-5---------------|-5-----------------|------------------|
|-----8-6--5----6-8-|---8-6-5-------5-6-|-8-6-5---5-(5)S8--|
|-------------5-----|----------7--------|-------7----------|
|-------------------|-------------------|------------------|
|-------------------|-------------------|------------------|
|-------------------|-------------------|------------------|


  D5                      Bb5
                               PM--------------------|
|-----------------------|------------------------------|
|-----------------------|------------------------------|
|-----------------------|------------------------------|
|--0-----0-(0)--0---0-0-|-8----------------------------|
|--0-----0-(0)--0---0-0-|-8----8-8-8-8-8-8-8-8-8-8-8-8-|
|--0-----0-(0)--0---0-0-|-8----8-8-8-8-8-8-8-8-8-8-8-8-|
|
|-----------------------|------------------------------|
|--------5--6p5h6p5-----|----/10-------8-------5-------|
|-/7---7------------7---|------------------------------|
|----7----------------7-|-8----------------------------|
|-----------------------|------------------------------|
|-----------------------|------------------------------|


  D5                     Bb5
                              PM--------------------|
|----------------------|---------------------------------|
|----------------------|---------------------------------|
|----------------------|---------------------------------|
|--0----0-(0)--0---0-0-|-8-------------------------------|
|--0----0-(0)--0---0-0-|-8----8-8-8-8-8-8-8-8-8-8-8-8----|
|--0----0-(0)--0---0-0-|-8----8-8-8-8-8-8-8-8-8-8-8-8----|
|
|----------------------|---------------------------------|
|-------5--6p5h6p5-----|----/10-------8-------5----------|
|-/7--7------------7---|--------------------------7------|
|--------------------7-|-8-------------------------------|
|----------------------|---------------------------------|
|----------------------|---------------------------------|


  C/E           D5E5  F5                  G5    D5E6    G6
|-------------------|-------------------|------------------|
|-------------------|-------------------|------------------|
|-------------------|-------------------|------------------|
|-2-2---2-(2)-2-0-2-|-3-3---3-(3)-3-3-3-|-5-5-5---2-(2)S5--|
|-3-3---3-(3)-3-0-2-|-3-3---3-(3)-3-3-3-|-5-5-5-0-4-(4)S7--|
|-2-2---2-(2)-2-0-2-|-3-3---3-(3)-3-3-3-|-5-5-5-0-2-(2)S5--|
|
|-6-5---------------|-5-----------------|------------------|
|-----8-6--5----6-8-|---8-6-5-------5-6-|-8-6-5---5-(5)S8--|
|-------------5-----|----------7--------|-------7----------|
|-------------------|-------------------|------------------|
|-------------------|-------------------|------------------|
|-------------------|-------------------|------------------|


  D5 N.C.     D5        Dm
      PM--------------|
|-------------------|-----------------||
|-------------------|-----------------||
|-------------------|-----------------||
|-0-----------------|---3-3-3-3-3-3-3-||
|-0-----------0-0-0-|-0-5-5-5-5-5-5-5-||
|-0---0---0-0-0-0-0-|-0---------------||
|
|-------------------|-----------------||
|-6--(6)\-----------|-----------------||
|-------------------|-----------------||
|-------------------|-----------------||
|-------------------|-----------------||
|-------------------|-----------------||


 Guitar Solo
  Bb5
  Gtr VI
|-------------------------|--------------------------|
|-------------------------|--------------------------|
|-------------------------|--------------------------|
|--8--8--8--8--8--8--8--8-|--8---8--8--8--8--8--8--8-|
|--8--8--8--8--8--8--8--8-|--8---8--8--8--8--8--8--8-|
|--8--8--8--8--8--8--8--8-|--8---8--8--8--8--8--8--8-|
|
| Gtrs I, II
|-------------------------|--------------------------|
|-------------------------|--------------------------|
|-15-15-15-15-15-15-15-15-|-15--15-15-15-15s14-14s12-|
|--x--x--x--x--x--x--x--x-|--x---x--x--x--x-----x----|
|-13-13-13-13-13-13-13-13-|-13--13-13-13-13s12-12s10-|
|-------------------------|--------------------------|
|
| Gtr V
|  ~~~~~~~~~~~~~~~~~~~~~~~~~~~~~
|-/6----------------------|-(6)----------/6--5-------|
|-------------------------|---------------------8--6-|
|-------------------------|--------------------------|
|-------------------------|--------------------------|
|-------------------------|--------------------------|
|-------------------------|--------------------------|


  C5
|-----------------------------|-----------------------------|
|-----------------------------|-----------------------------|
|-----------------------------|-----------------------------|
|-10-10-10-10-10-10-10---10---|-10-10-10-10-10--10-10-10----|
|-10-10-10-10-10-10-10---10---|-10-10-10-10-10--10-10-10----|
|-10-10-10-10-10-10-10---10---|-10-10-10-10-10--10-10-10----|
|
|-----------------------------|-----------------------------|
|-----------------------------|-----------------------------|
|-12-12-12-12-12-12-12---12---|-12-12-12-12-12--12-12-12S===|
|--x--x--x--x--x--x--x----x---|--x--x--x--x--x---x--x--xS===|
|-10-10-10-10-10-10-10---10---|-10-10-10-10-10--10-10-10S===|
|-----------------------------|-----------------------------|
|
|  ~~                            ~~~~~~~~~~~~~~~
|-----------------------------|-----------------------------|
|--5-----------------5h6p===5-|------------------------6----|
|-----------------------------|--5----------(5)--5--7-------|
|-----------------------------|-----------------------------|
|-----------------------------|-----------------------------|
|-----------------------------|-----------------------------|


  F5                       D5   C/E
|-----------------------------|---------------------|
|-----------------------------|---------------------|
|-----------------------------|---------------------|
|--3-----3--3---3--3--3--3----|--2--2--2--2-2-2-2-2-|
|--3-----3--3---3--3--3--3--0-|--3--3--3--3-3-3-3-3-|
|--3-----3--3---3--3--3--3--0-|--2--2--2--2-2-2-2-2-|
|
|-----------------------------|---------------------|
|-----------------------------|---------------------|
|-14----14-14--14-14-14-14-12-|-12-12-12--9-9-9-9-9-|
|--x-----x--x---x--x--x--x--x-|--x--x--x--x-x-x-x-x-|
|-12----12-12--12-12-12-12-10-|-10-10-10--7-7-7-7-7-|
|-----------------------------|---------------------|
|
|           ~~~
|-----------------------------|---------------------|
|--8b10----(8)----------------|--5-------/6---5-----|
|-----------------------------|-------------------5-|
|-----------------------------|---------------------|
|-----------------------------|---------------------|
|-----------------------------|---------------------|


  D5
|-------------------------|--------------------------|
|-------------------------|--------------------------|
|-------------------------|--------------------------|
|--0--0--0--0--0--0--0--0-|--0---0--0--0--0--0--0--0-|
|--0--0--0--0--0--0--0--0-|--0---0--0--0--0--0--0--0-|
|--0--0--0--0--0--0--0--0-|--0---0--0--0--0--0--0--0-|
|
|-------------------------|--------------------------|
|-------------------------|--------------------------|
|-10-10-10-10-10-10-10-10-|-10--10-10-10-10-10-10-10-|
|--x--x--x--x--x--x--x--x-|--x---x--x--x--x--x--x--x-|
|--8--8--8--8--8--8--8--8-|--8---8--8--8--8--8--8--8-|
|-------------------------|--------------------------|
|
|  ~~~~~~~~~~~~~~~~~~~~~~~~~~~~~
|-------------------------|--------------------------|
|-------------------------|--------------------------|
|-/7----------------------|-(7)--------7--7--5--5----|
|-------------------------|------------------------8-|
|-------------------------|--------------------------|
|-------------------------|--------------------------|


  Bb5
|-----------------|-------------------------|
|-----------------|-------------------------|
|-----------------|-------------------------|
|-8-8-8-8-8-8-8-8-|--8--8--8---8--8-8---8-8-|
|-8-8-8-8-8-8-8-8-|--8--8--8---8--8-8---8-8-|
|-8-8-8-8-8-8-8-8-|--8--8--8---8--8-8---8-8-|
|
|-----------------|-------------------------|
|-----------------|-------------------------|
|-7-7-7-7-7-7-7-7-|--7--7--7---7--7-7---7-7-|
|-x-x-x-x-x-x-x-x-|--x--x--x---x--x-x---x-x-|
|-5-5-5-5-5-5-5-5-|--5--5--5---5--5-5---5-5-|
|-----------------|-------------------------|
|
| ~~~~~~~~~~~~~~~~~~~~~~
|-----------------|-------------------------|
|-----------------|-------------------------|
|-----------------|-------------------5---7-|
|-8---------------|-(8)---(8)\---/8---------|
|-----------------|-------------------------|
|-----------------|-------------------------|


  C5
|---------------------------|---------------------------|
|---------------------------|---------------------------|
|---------------------------|---------------------------|
|-10-10-10-10-10---10-10-10-|-10-10-10-10-10--10-10-10--|
|-10-10-10-10-10---10-10-10-|-10-10-10-10-10--10-10-10--|
|-10-10-10-10-10---10-10-10-|-10-10-10-10-10--10-10-10--|
|
|---------------------------|---------------------------|
|---------------------------|---------------------------|
|--9--9--9--9--9----9--9--9-|--9--9--9--9--9---9--9--9--|
|--x--x--x--x--x----x--x--x-|--x--x--x--x--x---x--x--x--|
|--7--7--7--7--7----7--7--7-|--7--7--7--7--7---7--7--7--|
|---------------------------|---------------------------|
|
|  ~~                                      ~~~
|---------------------------|------------------------5S=|
|-------------------------6-|--5--6--8--5-(5)-----------|
|--5----------(5)\----------|---------------------------|
|---------------------------|---------------------------|
|---------------------------|---------------------------|
|---------------------------|---------------------------|


  F5                           C/E
|----------------------------|-------------------------------|
|----------------------------|-------------------------------|
|----------------------------|-------------------------------|
|--3--3--3--3--3---3--3--3---|--2--2--2--2---2---2--2--2-----|
|--3--3--3--3--3---3--3--3---|--3--3--3--3---3---3--3--3-----|
|--3--3--3--3--3---3--3--3---|--2--2--2--2---2---2--2--2-----|
|
|----------------------------|-------------------------------|
|----------------------------|-------------------------------|
|-10-10-10-10-10--10-10-10---|--9--9--9--9---9---9--9--9-----|
|--x--x--x--x--x---x--x--x---|--x--x--x--x---x---x--x--x-----|
|--8--8--8--8--8---8--8--8---|--7--7--7--7---7---7--7--7-----|
|----------------------------|-------------------------------|
|
|--8--6--5-------------------|-13-12-10----------------------|
|-----------8-(8)--6--8-(8)\-|----------10-(10)-13-10-13b15==|
|----------------------------|-------------------------------|
|----------------------------|-------------------------------|
|----------------------------|-------------------------------|
|----------------------------|-------------------------------|


  D5
|---------------------------|----------------------------------||
|---------------------------|----------------------------------||
|---------------------------|----------------------------------||
|---0---0--0--0--0--0--0--0-|---0---0--0---0---0------0---0--0-||
|---0---0--0--0--0--0--0--0-|---0---0--0---0---0------0---0--0-||
|---0---0--0--0--0--0--0--0-|---0---0--0---0---0------0---0--0-||
|
|---------------------------|----------------------------------||
|---------------------------|----------------------------------||
|--10--10-10-10-10-10-10-10-|--10--10-10--10--10-----10--10-10-||
|---x---x--x--x--x--x--x--x-|---x---x--x---x---x------x---x--x-||
|---8---8--8--8--8--8--8--8-|---8---8--8---8---8------8---8--8-||
|---------------------------|----------------------------------||
|
|---------------------------|----------------------------------||
|-(13)----------------------|-(13)----13r(13)-13b15r(13)-13----||
|---------------------------|----------------------------------||
|---------------------------|----------------------------------||
|---------------------------|----------------------------------||
|---------------------------|----------------------------------||


 Verse
  Bb5
|-------------------------|---------------------------|
|-------------------------|---------------------------|
|-------------------------|---------------------------|
|--8--8--8--8--8--8--8--8-|---8---8--8--8--8--8--8--8-|
|--8--8--8--8--8--8--8--8-|---8---8--8--8--8--8--8--8-|
|--8--8--8--8--8--8--8--8-|---8---8--8--8--8--8--8--8-|
|
|-------------------------|---------------------------|
|-------------------------|---------------------------|
|-15-15-15-15-15-15-15-15-|--15--15-15-15-15s14-14s12-|
|--x--x--x--x--x--x--x--x-|---x---x--x--x--x-----x----|
|-13-13-13-13-13-13-13-13-|--13--13-13-13-13s12-12s10-|
|-------------------------|---------------------------|
|
|                             >
|  ~~~~~~~~~~~~~~~~~~~~~~~~~~~~~~
|-------------------------|---------------------------|
|-11----------------------|-(11)----------------------|
|-------------------------|---------------------------|
|-------------------------|---------------------------|
|-------------------------|---------------------------|
|-------------------------|---------------------------|


  C5
|-------------------------|--------------------------|
|-------------------------|--------------------------|
|-------------------------|--------------------------|
|-10-10-10-10-10-10-10-10-|-10-10-10-10-10-10-10-10--|
|-10-10-10-10-10-10-10-10-|-10-10-10-10-10-10-10-10--|
|-10-10-10-10-10-10-10-10-|-10-10-10-10-10-10-10-10--|
|
|-------------------------|--------------------------|
|-------------------------|--------------------------|
|-12-12-12-12-12-12-12-12-|-12-12-12-12-12-12-12-12S=|
|--x--x--x--x--x--x--x--x-|--x--x--x--x--x--x--x--xS=|
|-10-10-10-10-10-10-10-10-|-10-10-10-10-10-10-10-10S=|
|-------------------------|--------------------------|
|
|-------------------------|--------------------------|
|-------------------------|--------------------------|
|-------------------------|--------------------------|
|-------------------------|--------------------------|
|-------------------------|--------------------------|
|-------------------------|--------------------------|


  F5                        C/E
  Gtr VI
|-------------------------|--------------------|
|-------------------------|--------------------|
|-------------------------|--------------------|
|--3--3--3--3--3--3--3--3-|--2--2--2-2-2-2-2-2-|
|--3--3--3--3--3--3--3--3-|--3--3--3-3-3-3-3-3-|
|--3--3--3--3--3--3--3--3-|--2--2--2-2-2-2-2-2-|
|
| Gtrs I, II
|-------------------------|--------------------|
|-------------------------|--------------------|
|-14-14-14-14-14-14-14-12-|-12-12-12-9-9-9-9-9-|
|--x--x--x--x--x--x--x--x-|--x--x--x-x-x-x-x-x-|
|-12-12-12-12-12-12-12-10-|-10-10-10-7-7-7-7-7-|
|-------------------------|--------------------|


  D5
|-------------------------|-------------------------|
|-------------------------|-------------------------|
|-------------------------|-------------------------|
|--0--0--0--0--0--0--0--0-|--0--0--0--0--0--0--0--0-|
|--0--0--0--0--0--0--0--0-|--0--0--0--0--0--0--0--0-|
|--0--0--0--0--0--0--0--0-|--0--0--0--0--0--0--0--0-|
|
|-------------------------|-------------------------|
|-------------------------|-------------------------|
|-10-10-10-10-10-10-10-10-|-10-10-10-10-10-10-10-10-|
|--x--x--x--x--x--x--x--x-|--x--x--x--x--x--x--x--x-|
|--8--8--8--8--8--8--8--8-|--8--8--8--8--8--8--8--8-|
|-------------------------|-------------------------|


  Bb5
|-----------------|-----------------|
|-----------------|-----------------|
|-----------------|-----------------|
|-8-8-8-8-8-8-8-8-|-8-8-8-8-8-8-8-8-|
|-8-8-8-8-8-8-8-8-|-8-8-8-8-8-8-8-8-|
|-8-8-8-8-8-8-8-8-|-8-8-8-8-8-8-8-8-|
|
|-----------------|-----------------|
|-----------------|-----------------|
|-7-7-7-7-7-7-7-7-|-7-7-7-7-7-7-7-7-|
|-x-x-x-x-x-x-x-x-|-x-x-x-x-x-x-x-x-|
|-5-5-5-5-5-5-5-5-|-5-5-5-5-5-5-5-5-|
|-----------------|-----------------|


  C5
|-------------------------|-------------------------|
|-------------------------|-------------------------|
|-------------------------|-------------------------|
|-10-10-10-10-10-10-10-10-|-10-10-10-10-10-10-10-10-|
|-10-10-10-10-10-10-10-10-|-10-10-10-10-10-10-10-10-|
|-10-10-10-10-10-10-10-10-|-10-10-10-10-10-10-10-10-|
|
|-------------------------|-------------------------|
|-------------------------|-------------------------|
|--9--9--9--9--9--9--9--9-|--9--9--9--9--9--9--9--9-|
|--x--x--x--x--x--x--x--x-|--x--x--x--x--x--x--x--x-|
|--7--7--7--7--7--7--7--7-|--7--7--7--7--7--7--7--7-|
|-------------------------|-------------------------|


  D5                        C/E
|-------------------------|-----------------|
|-------------------------|-----------------|
|-------------------------|-----------------|
|-12-12-12-12-12-12-12-12-|-2-2-2-2-2-2-2-2-|
|-12-12-12-12-12-12-12-12-|-3-3-3-3-3-3-3-3-|
|-12-12-12-12-12-12-12-12-|-2-2-2-2-2-2-2-2-|
|
|-------------------------|-----------------|
|-------------------------|-----------------|
|-10-10-10-10-10-10-10-10-|-9-9-9-9-9-9-9-9-|
|--x--x--x--x--x--x--x--x-|-x-x-x-x-x-x-x-x-|
|--8--8--8--8--8--8--8--8-|-7-7-7-7-7-7-7-7-|
|-------------------------|-----------------|


  F5
|-------------------------|-------------------------|
|-------------------------|-------------------------|
|-------------------------|-------------------------|
|--3--3--3--3--3--3--3--3-|--3--3--3--3--3--3--3--3-|
|--3--3--3--3--3--3--3--3-|--3--3--3--3--3--3--3--3-|
|--3--3--3--3--3--3--3--3-|--3--3--3--3--3--3--3--3-|
|
|-------------------------|-------------------------|
|-------------------------|-------------------------|
|-10-10-10-10-10-10-10-10-|-10-10-10-10-10-10-10-10-|
|--x--x--x--x--x--x--x--x-|--x--x--x--x--x--x--x--x-|
|--8--8--8--8--8--8--8--8-|--8--8--8--8--8--8--8--8-|
|-------------------------|-------------------------|


  G5
|-------------------------|-------------------------|
|-------------------------|-------------------------|
|-------------------------|-------------------------|
|--5--5--5--5--5--5--5--5-|--5--5--5--5--5--5--5--5-|
|--5--5--5--5--5--5--5--5-|--5--5--5--5--5--5--5--5-|
|--5--5--5--5--5--5--5--5-|--5--5--5--5--5--5--5--5-|
|
|-------------------------|-------------------------|
|-------------------------|-------------------------|
|-15-15-15-15-15-15-15-15-|-15-15-15-15-15s14-14s12-|
|--x--x--x--x--x--x--x--x-|--x--x--x--x--x-----x----|
|-13-13-13-13-13-13-13-13-|-13-13-13-13-13s12-12s10-|
|-------------------------|-------------------------|


  C5
|-------------------------|--------------------------|
|-------------------------|--------------------------|
|-------------------------|--------------------------|
|-10-10-10-10-10-10-10-10-|-10-10-10-10-10-10-10-10--|
|-10-10-10-10-10-10-10-10-|-10-10-10-10-10-10-10-10--|
|-10-10-10-10-10-10-10-10-|-10-10-10-10-10-10-10-10--|
|
|-------------------------|--------------------------|
|-------------------------|--------------------------|
|-12-12-12-12-12-12-12-12-|-12-12-12-12-12-12-12-12S=|
|--x--x--x--x--x--x--x--x-|--x--x--x--x--x--x--x--xS=|
|-10-10-10-10-10-10-10-10-|-10-10-10-10-10-10-10-10S=|
|-------------------------|--------------------------|


  D5                        C/E
|-------------------------|--------------------|
|-------------------------|--------------------|
|-------------------------|--------------------|
|-12-12-12-12-12-12-12-12-|--2--2--2-2-2-2-2-2-|
|-12-12-12-12-12-12-12-12-|--3--3--3-3-3-3-3-3-|
|-12-12-12-12-12-12-12-12-|--2--2--2-2-2-2-2-2-|
|
|-------------------------|--------------------|
|-------------------------|--------------------|
|-14-14-14-14-14-14-14-12-|-12-12-12-9-9-9-9-9-|
|--x--x--x--x--x--x--x--x-|--x--x--x-x-x-x-x-x-|
|-12-12-12-12-12-12-12-10-|-10-10-10-7-7-7-7-7-|
|-------------------------|--------------------|


  F5
      PM-----------------------------------------|
|-------------------------|-------------------------||
|-------------------------|-------------------------||
|-------------------------|-------------------------||
|--3----------------------|-------------------------||
|--3--3--3--3--3--3--3--3-|--3--3--3--3--3--3--3--3-||
|--3--3--3--3--3--3--3--3-|--3--3--3--3--3--3--3--3-||
|
|-------------------------|-------------------------||
|-------------------------|-------------------------||
|-10-10-10-10-10-10-10-10-|-10-10-10-10-10-10-10-10-||
|--x--x--x--x--x--x--x--x-|--x--x--x--x--x--x--x--x-||
|--8--8--8--8--8--8--8--8-|--8--8--8--8--8--8--8--8-||
|-------------------------|-------------------------||


   Chorus
    a Tempo Q=69
    D5          Em7D5                    F6/D
    Gtr I
      ~~~~~~~~~~~~~~~~~~~~~~~~~~~~~~~~~~~~~~~
||------------------------------------------|
||o-/15------------15b18====(15)-(15)r------|
||------------------------------------------|
||------------------------------------------|
||o-----------------------------------------|
||------------------------------------------|
|
|   Gtr II
|     ~~~~~~~~~~~~~~~~~~~~~~~~~~~~~~~~~~~~~~~
||------------------------------------------|
||o-/15------------15b18====(15)-(15)r------|
||------------------------------------------|
||------------------------------------------|
||o-----------------------------------------|
||------------------------------------------|
|
|   Gtr V
|     PM|   PM|     PM----|        PM--|
||------------------------------------------|
||o-----------------------------------------|
||------------------------------------------|
||--------0-----5\------------0----------7\-|
||o---0-0-0-0-0-7\--0-----0---0----0---0-8\-|
||----0-0-0-0-0-0---0-----0---0----0---0-0--|


  D5    BbD5  BbD5      AbD5     A5
 ~~~~~~~~~~~~~~~~~~~~~~~~~~~~~~
|------------------------------------||
|-/11-------------------------------o||
|---------------12b14-----(12)-------||
|------------------------------------||
|-----------------------------------o||
|------------------------------------||
|
|~~~~~~~~~~~~~~~~~~~~~~~~~~~~~~
|------------------------------------||
|-/11-------------------------------o||
|---------------12b14-----(12)-------||
|------------------------------------||
|-----------------------------------o||
|------------------------------------||
|
|   PM|   PM|    PM---|     PM-|
|------------------------------------||
|-----------------------------------o||
|------------------------------------||
|-------3-----2----------------------||
|---0-0-1-0-0-1--0----0-7---0--0-7\-o||
|---0-0---0-0----0----0-6---0--0-7\--||


    D5                  Em7/D D5                 F6/D
||--------------15b17---(15)--------15b17-(15)---(15)\-|
||o-------15------------------15-----------------------|
||----/14----14------------------14--------------------|
||-----------------------------------------------------|
||o----------------------------------------------------|
||-----------------------------------------------------|
|
||--------------15b17---(15)--------15b17-(15)---(15)\-|
||o-------15------------------15-----------------------|
||----/14----14------------------14--------------------|
||-----------------------------------------------------|
||o----------------------------------------------------|
||-----------------------------------------------------|
|
|   PM|          PM---|        PM|          PM-|
||-----------------------------------------------------|
||o----------------------------------------------------|
||-----------------------------------------------------|
||---------0--------------5\---------0-------------7\--|
||o-0---0--0-----0----0---7\---0--0--0------0--0---8\--|
||--0---0--0-----0----0---0----0--0--0------0--0---0---|


  D5    Bb5     D5    Bbb5    D5    Ab6     D5    A5
    ~~~           ~~~           ~~~           ~~~
|------------------------------------------------------------||
|-/15-----(15)\-/14-----(14)\-/13-----(13)\-/14------(14)\--o||
|------------------------------------------------------------||
|------------------------------------------------------------||
|-----------------------------------------------------------o||
|------------------------------------------------------------||
|
|   ~~~           ~~~           ~~~           ~~~
|------------------------------------------------------------||
|-----------------------------------------------------------o||
|-/15-----(15)\-/14-----(14)\-/13-----(13)\-/14------(14)\---||
|------------------------------------------------------------||
|-----------------------------------------------------------o||
|------------------------------------------------------------||
|
|   PM|           PM|           PM|           PM|
|------------------------------------------------------------||
|-----------------------------------------------------------o||
|------------------------------------------------------------||
|-------3-------------2--------------------------------------||
|---0-0-1---------0-0-1---------0-0-7---------0-0-7\--------o||
|---0-0-----------0-0-----------0-0-6---------0-0-7\---------||


 Breakdown
  D5
  Gtrs I, II
|---------------------------|---------------------------|
|---------------------------|---------------------------|
|-9----------10S======7-----|-9----------10S======7-----|
|-x-----------xS======x-----|-x-----------xS======x-----|
|-7-----------8S======5-----|-7-----------8S======5-----|
|---------------------------|---------------------------|
|
| Gtr V
| PM----|     PM----|         PM----|     PM----|
|---------------------------|---------------------------|
|---------------------------|---------------------------|
|---------------------------|---------------------------|
|---------0-----------0-0---|---------0-----------0-0---|
|-0-0-0-0-0---0-0-0-0-0-0---|-0-0-0-0-0---0-0-0-0-0-0---|
|-0-0-0-0-0---0-0-0-0-0-0---|-0-0-0-0-0---0-0-0-0-0-0---|


  D5
|---------------------------|
|---------------------------|
|-9----------10S======7-----|
|-x-----------xS======x-----|
|-7-----------8S======5-----|
|---------------------------|
|
| PM----|     PM----|
|---------------------------|
|---------------------------|
|---------------------------|
|---------0-----------0-0---|
|-0-0-0-0-0---0-0-0-0-0-0---|
|-0-0-0-0-0---0-0-0-0-0-0---|


|-12-------------13----10---------(10)---(10)-------||
|-15b17----------16b18-13b15======(13)r==(13)-------||
|---------------------------------------------------||
|---------------------------------------------------||
|---------------------------------------------------||
|---------------------------------------------------||
|
|  PM-------|                 PM|      PM---------|
|---------------------------------------------------||
|---------------------------------------------------||
|---------------------------------------------------||
|-------------0-------------------------------------||
|--0----0-0-0-0---------------0-0------0---0--0-0-0-||
|--0----0-0-0-0---------------0-0------0---0--0-0-0-||


 Outro
  D5         (Dmadd2)
  Gtr V
              >
|----------|---------------------------------------|
|----------|---------------------------------------|
|----------|---------------------------------------|
|-0--------|-(0)-----------------------------------|
|-0--------|-(0)-----------------------------------|
|-0--------|-(0)-----------------------------------|
|
| Gtrs III, IV
|----------|-------0-------0-----5-----0-(0)-----0-|
|----------|---------6-(6)-----------6-------------|
|----------|-----2-----------2---------------2-----|
|----------|--0----------------0---0-----------0---|
|----------|---------------------------------------|
|----------|---------------------------------------|


  (Bbmaj7add4)
|-----------------------------------|
|-----------------------------------|
|-----------------------------------|
|-(0)-------------------------------|
|-(0)-------------------------------|
|-(0)-------------------------------|
|
|---------0-(0)-------5---0---------|
|-------3-------3-----------3-(3)---|
|-----3-----------3-----------------|
|-----------------------3-----------|
|--1----------------1---------------|
|-----------------------------------|


  (Dmadd2)                              (Bbmaj7add4)
  Gtrs III, IV
|-----0-------0-----5-----0-(0)-----0-|-------0-(0)-------5---0------|
|-------6-(6)-----------6-------------|-----3-------3-----------3----|
|---2-----------2---------------2-----|---3-----------3-----------0--|
|-0---------------0---0-----------0---|---------------------3--------|
|-------------------------------------|-1---------------1------------|
|-------------------------------------|------------------------------|


  (Dmadd2)
  Gtr III
|--------0---------0------5--------0--(0)-----0-|
|-----------6--(6)--------------6---------------|
|-----2--------------2--------------------2-----|
|--0-------------------0-----0--------------0---|
|-----------------------------------------------|
|-----------------------------------------------|
|
| Gtr IV
|-------12---------------------12---------------|
|-----------------------------------------------|
|----14----14-(14)----------14----14-(14)-------|
|-12---------------------12---------------------|
|-----------------------------------------------|
|-----------------------------------------------|
|
| Gtr II
|-----------------------------------------------|
|-----------------------------------------------|
|-----------------------------------------------|
|--------2--3--(3)---2h3-/5-----3--2--(2)-3-----|
|-----0-----------------------------------------|
|--0--------------------------------------------|


  (Bbmaj7add4)
|----------0--(0)-------5-----0----------|
|-------3---------3--------------3-------|
|----3--------------3----------------0---|
|--------------------------3-------------|
|-1-------------------1------------------|
|----------------------------------------|
|
|------10--------------------10----------|
|----------------------------------------|
|---10----10-(10)---------10----10-(10)--|
|-8---------------------8----------------|
|----------------------------------------|
|----------------------------------------|
|
|                       ~
|----------------------------------------|
|----------------------------------------|
|-------3--5--(5)-----5s7----------------|
|----3-----------------------------------|
|-1--------------------------------------|
|----------------------------------------|


  (Dmadd2)
|--------0---------0------5--------0--(0)-----0-|
|-----------6--(6)--------------6---------------|
|-----2--------------2--------------------2-----|
|--0-------------------0-----0--------------0---|
|-----------------------------------------------|
|-----------------------------------------------|
|
|-------12---------------------12---------------|
|-----------------------------------------------|
|----14----14-(14)----------14----14-(14)-------|
|-12---------------------12---------------------|
|-----------------------------------------------|
|-----------------------------------------------|
|
|-----------------------------------------------|
|-----------------------------------------------|
|-----------------------------------------------|
|--------2--3--(3)---2h3-/5-----3--2--(2)-3-----|
|-----0-----------------------------------------|
|--0--------------------------------------------|


  (Bbmaj7add4)          Bbadd4
|----------0--(0)-------^-0----*|
|-------3---------3-----^-3----*|
|----3--------------3---^-3----*|
|------------------------------*|
|-1-------------------1--------*|
|------------------------------*|
|
|------10---------------^10----*|
|-----------------------^-8----*|
|---10----10-(10)-------^10----*|
|-8---------------------^-8----*|
|------------------------------*|
|------------------------------*|
|
|                         ~~~
|------------------------------*|
|------------------------------*|
|-------3--5--(5)-----5s==7----*|
|----3-------------------------*|
|-1----------------------------*|
|------------------------------*|



12. ...AND ALL THINGS WILL END


Gtr I (D A D G B E) - 'Clean Guitar'
Gtr II (D A D G B E) - 'Left Ear'
Gtr III (D A D G B E) - 'Right Ear'
Gtr IV (D A D G B E) - 'Neutral'
Gtr V (D A D G B E) - 'Neutral'

 Intro
  Slowly Q=83
  N.C.                                                              Bb°/A
 4/4
  Gtr I
|-----------------|-------------------|-------------------|---------------||
|-----------------|-------------------|-------------------|---------^2----||
|-------2-0---^2--|-----0-0h2-0-------|-------0-0h2-0---0-|-----3---^3----||
|---2-3-----3-^3--|---2---------2---2-|---2-3---------3---|---2---2-^2----||
|-5---------------|-3-------------3---|-1-----------------|-0-------^0----||
|-----------------|-------------------|-------------------|---------------||


 Pre-Verse
  Faster Q=165
  D5                     N.C.    D5                           N.C.    D5
  Gtr II
     PM----------------|                  PM----------------|
|----------------|-----------------|------------------|-------------------|
|----------------|-----------------|------------------|-------------------|
|----------------|-------6h7-6-----|------------------|-------6h7-6-------|
|-0--------------|---------------0-|-(0)--------------|---------------0---|
|-0--0-0-0-0-0-0-|-0-0-0---------0-|-(0)--0-0-0-0-0-0-|-0-0-0---------0---|
|-0--0-0-0-0-0-0-|-0-0-0---------0-|-(0)--0-0-0-0-0-0-|-0-0-0---------0---|
|
| Gtr III
|    PM----------------|                  PM----------------|
|----------------|-----------------|------------------|-------------------|
|----------------|-------5h6-5-----|------------------|-------5h6-5-------|
|----------------|-----------------|------------------|-------------------|
|-0--------------|---------------0-|-(0)--------------|---------------0---|
|-0--0-0-0-0-0-0-|-0-0-0---------0-|-(0)--0-0-0-0-0-0-|-0-0-0---------0---|
|-0--0-0-0-0-0-0-|-0-0-0---------0-|-(0)--0-0-0-0-0-0-|-0-0-0---------0---|


  D5                       N.C.
  Gtr II
       PM----------------|
|------------------|----------------------------------------------|
|------------------|----------------------------------------------|
|------------------|-------6h7---6--------------------------------|
|-(0)--------------|-------------------------------------/8-------|
|-(0)--0-0-0-0-0-0-|-0-0-0----------------------------------------|
|-(0)--0-0-0-0-0-0-|-0-0-0----------------------------------------|
|
| Gtr III
|      PM----------------|
|------------------|----------------------------------------------|
|------------------|-------5h6---5--------------------------------|
|------------------|-------------------------------------/7-------|
|-(0)--------------|----------------------------------------------|
|-(0)--0-0-0-0-0-0-|-0-0-0----------------------------------------|
|-(0)--0-0-0-0-0-0-|-0-0-0----------------------------------------|
|
| Gtr IV
|------------------|----------------------------------------------|
|------------------|-----------5-8-5-6-5-8-5-6-5-8-5-6-5--8-5-6-5-|
|------------------|----------------------------------------------|
|------------------|----------------------------------------------|
|------------------|----------------------------------------------|
|------------------|----------------------------------------------|


  N.C.
|---------------------------------------------------------------------|
|---------------------------------------------------------------------|
|---------------------------------------------------------------------|
|-(8)-------7-------5-------7-------(7)-------5-----------------------|
|-----------------------------------------------------8-------7-------|
|---------------------------------------------------------------------|
|
|---------------------------------------------------------------------|
|---------------------------------------------------------------------|
|-(7)-------5---------------5-------(5)-------------------------------|
|-------------------8-------------------------8-------7-------5-------|
|---------------------------------------------------------------------|
|---------------------------------------------------------------------|
|
|---------------------------------------------------------------------|
|--8--5-6-5-8-5-6-5-8-5-6-5-8-5-6-5--8--5-6-5-8-5-6-5-8-5-6-5-8-5-6-5-|
|---------------------------------------------------------------------|
|---------------------------------------------------------------------|
|---------------------------------------------------------------------|
|---------------------------------------------------------------------|


                                                          D5
|-------------------------------------------------------------|
|-------------------------------------------------------------|
|-----------------------------------------7-------6-----------|
|-------------------------5-------7-----------------------0---|
|-5-------7-------8---------------------------------------0---|
|---------------------------------------------------------0---|
|
|-------------------------------------------------------------|
|-----------------------------------------6-------5-----------|
|---------------------------------5---------------------------|
|---------5-------7-------8-------------------------------0---|
|-8-------------------------------------------------------0---|
|---------------------------------------------------------0---|
|
|-------------------------------------------------------------|
|-8-5-6-5-8-5-6-5-8-5-6-5-8-5-6-5-8-5-6-5-8-5-6-5-8-5-6-5-----|
|-------------------------------------------------------------|
|-------------------------------------------------------------|
|-------------------------------------------------------------|
|-------------------------------------------------------------|


  D5                       N.C.          D5
       PM----------------|
|------------------|-----------------------|
|------------------|-----------------------|
|------------------|--------6h==7---6------|
|-(0)--------------|---------------------0-|
|-(0)--0-0-0-0-0-0-|-0-0-0---------------0-|
|-(0)--0-0-0-0-0-0-|-0-0-0---------------0-|
|
|      PM----------------|
|------------------|-----------------------|
|------------------|--------5h==6---5------|
|------------------|-----------------------|
|-(0)--------------|---------------------0-|
|-(0)--0-0-0-0-0-0-|-0-0-0---------------0-|
|-(0)--0-0-0-0-0-0-|-0-0-0---------------0-|
|
|------------------|-------(5)h(6)-(5)-----|
|------------------|-----------------------|
|------------------|-----------------------|
|------------------|-----------------------|
|------------------|-----------------------|
|------------------|-----------------------|


                           N.C.          D5
       PM----------------|
|------------------|-------------------------|
|------------------|-------------------------|
|------------------|--------6h==7---6--------|
|-(0)--------------|---------------------0---|
|-(0)--0-0-0-0-0-0-|-0-0-0---------------0---|
|-(0)--0-0-0-0-0-0-|-0-0-0---------------0---|
|
|      PM----------------|
|------------------|-------------------------|
|------------------|--------5h==6---5--------|
|------------------|-------------------------|
|-(0)--------------|---------------------0---|
|-(0)--0-0-0-0-0-0-|-0-0-0---------------0---|
|-(0)--0-0-0-0-0-0-|-0-0-0---------------0---|
|
|------------------|-------(5)h(6)-(5)-------|
|------------------|-------------------------|
|------------------|-------------------------|
|------------------|-------------------------|
|------------------|-------------------------|
|------------------|-------------------------|


  D5                       N.C.
  Gtr II
       PM----------------|
|------------------|--------------------------------------------------|
|------------------|--------------------------------------------------|
|------------------|-------6h7-------6--------------------------------|
|-(0)--------------|-----------------------------------------/8-------|
|-(0)--0-0-0-0-0-0-|-0-0-0--------------------------------------------|
|-(0)--0-0-0-0-0-0-|-0-0-0--------------------------------------------|
|
| Gtr III
|      PM----------------|
|------------------|--------------------------------------------------|
|------------------|-------5h6-------5--------------------------------|
|------------------|-----------------------------------------/7-------|
|-(0)--------------|--------------------------------------------------|
|-(0)--0-0-0-0-0-0-|-0-0-0--------------------------------------------|
|-(0)--0-0-0-0-0-0-|-0-0-0--------------------------------------------|
|
| Gtr IV
|------------------|--------------------------------------------------|
|------------------|-----------5-6-5-8-5-6-5-8-5-6-5-8-5-6-5--8-5-6-5-|
|------------------|--------------------------------------------------|
|------------------|--------------------------------------------------|
|------------------|--------------------------------------------------|
|------------------|--------------------------------------------------|


  N.C.
|---------------------------------------------------------------------|
|---------------------------------------------------------------------|
|---------------------------------------------------------------------|
|-(8)-------7-------5-------7-------(7)-------5-----------------------|
|-----------------------------------------------------8-------7-------|
|---------------------------------------------------------------------|
|
|---------------------------------------------------------------------|
|---------------------------------------------------------------------|
|-(7)-------5---------------5-------(5)-------------------------------|
|-------------------8-------------------------8-------7-------5-------|
|---------------------------------------------------------------------|
|---------------------------------------------------------------------|
|
|---------------------------------------------------------------------|
|--8--5-6-5-8-5-6-5-8-5-6-5-8-5-6-5--8--5-6-5-8-5-6-5-8-5-6-5-8-5-6-5-|
|---------------------------------------------------------------------|
|---------------------------------------------------------------------|
|---------------------------------------------------------------------|
|---------------------------------------------------------------------|


                                                          D5                      N.C.
|---------------------------------------------------------------|-------------------||
|---------------------------------------------------------------|-------------------||
|-----------------------------------------7-------6-------------|-------------------||
|-------------------------5-------7-----------------------0-----|-(0)--------0------||
|-5-------7-------8---------------------------------------0-----|-(0)--------0------||
|---------------------------------------------------------0-----|-(0)--------0------||
|
|---------------------------------------------------------------|-------------------||
|-----------------------------------------6-------5-------------|-------------------||
|---------------------------------5-----------------------------|-------------------||
|---------5-------7-------8-------------------------------0-----|-(0)--------0------||
|-8-------------------------------------------------------0-----|-(0)--------0------||
|---------------------------------------------------------0-----|-(0)--------0------||
|
|---------------------------------------------------------------|-------------------||
|-8-5-6-5-8-5-6-5-8-5-6-5-8-5-6-5-8-5-6-5-8-5-6-5-8-5-6-5-8b10==|=(8)--(8)--(8)r----||
|---------------------------------------------------------------|-------------------||
|---------------------------------------------------------------|-------------------||
|---------------------------------------------------------------|-------------------||
|---------------------------------------------------------------|-------------------||


 Verse
  $
  D5                             F5                                   G5
  Gtrs II, III
     PM------------------------|          PM------------------------|
|----------------|-----------------|------------------|-----------------|
|----------------|-----------------|------------------|-----------------|
|----------------|-----------------|------------------|-----------------|
|-0--------------|---------------3-|-(3)--------------|---------------5-|
|-0--0-0-0-0-0-0-|-0-0-0-0-0-0-0-3-|-(3)--3-3-3-3-3-3-|-3-3-3-3-3-3-3-5-|
|-0--0-0-0-0-0-0-|-0-0-0-0-0-0-0-3-|-(3)--3-3-3-3-3-3-|-3-3-3-3-3-3-3-5-|


  G5             Ab5          G5Ab5D5                             F5G5 D5
       PM------|          PM|               PM------------------|
|------------------|-----------------|------------------|----------------|
|------------------|-----------------|------------------|----------------|
|------------------|-----------------|------------------|----------------|
|-(5)------------6-|-(6)------5h6--0-|-(0)--------------|---------3h5--0-|
|-(5)--5-5-5-5-5-6-|-(6)--6-6-5h6--0-|-(0)--0-0-0-0-0-0-|-0-0-0-0-3h5--0-|
|-(5)--5-5-5-5-5-6-|-(6)--6-6-5h6--0-|-(0)--0-0-0-0-0-0-|-0-0-0-0-3h5--0-|


  D5                               F5                                   G5
       PM------------------------|          PM------------------------|
|------------------|-----------------|------------------|-----------------|
|------------------|-----------------|------------------|-----------------|
|------------------|-----------------|------------------|-----------------|
|-(0)--------------|---------------3-|-(3)--------------|---------------5-|
|-(0)--0-0-0-0-0-0-|-0-0-0-0-0-0-0-3-|-(3)--3-3-3-3-3-3-|-3-3-3-3-3-3-3-5-|
|-(0)--0-0-0-0-0-0-|-0-0-0-0-0-0-0-3-|-(3)--3-3-3-3-3-3-|-3-3-3-3-3-3-3-5-|


                                                                 To Coda
  G5             Ab5          G5Ab5D5                             F5G5A5Bb5
       PM------|          PM|               PM------------------|
|------------------|-----------------|------------------|-----------------||
|------------------|-----------------|------------------|-----------------||
|------------------|-----------------|------------------|-----------------||
|-(5)------------6-|-(6)------5h6--0-|-(0)--------------|---------3h5-7-8-||
|-(5)--5-5-5-5-5-6-|-(6)--6-6-5h6--0-|-(0)--0-0-0-0-0-0-|-0-0-0-0-3h5-7-8-||
|-(5)--5-5-5-5-5-6-|-(6)--6-6-5h6--0-|-(0)--0-0-0-0-0-0-|-0-0-0-0-3h5-7-8-||


 Chorus
  Bb5                          F5                  G5           D5
  Gtrs II, III
|---------------------------------|-------------------------------------|
|---------------------------------|-------------------------------------|
|---------------------------------|-------------------------------------|
|-(8)--8--8-----8---8-------8---3-|-(3)--3-3-----3h==5------------0-----|
|-(8)--8--8-----8---8-------8---3-|-(3)--3-3-----3h==5------------0-----|
|-(8)--8--8-----8---8-------8---3-|-(3)--3-3-----3h==5------------0-----|
|
| Gtr IV
|-13-----------17-(17)b18r(17)-13-|-------------12-(12)b13r(12)-(12)b13-|
|-----13----10--------------------|-13----------------------------------|
|--------12-----------------------|-----12-9-10-------------------------|
|---------------------------------|-------------------------------------|
|---------------------------------|-------------------------------------|
|---------------------------------|-------------------------------------|


                                                                 Bb5
        PM-----------------------------------------------------|
|-----------------------------------|----------------------------------|
|-----------------------------------|----------------------------------|
|-----------------------------------|----------------------------------|
|--(0)------------------------------|-----------------------------8----|
|--(0)--0--0--0--0-------0----0---0-|--0--0--0-------0----0--0-0--8----|
|--(0)--0--0--0--0-------0----0---0-|--0--0--0-------0----0--0-0--8----|
|
|-(12)----13----12b13==(12)r(12)----|-13----12b13==(12)r(12)-----13p12-|
|------10----10------------------10-|----10----------------------------|
|-----------------------------------|----------------------------------|
|-----------------------------------|----------------------------------|
|-----------------------------------|----------------------------------|
|-----------------------------------|----------------------------------|


  Bb5                          F5         G5 D5
  Gtr II
|---------------------------------|------------||
|---------------------------------|------------||
|---------------------------------|------------||
|-(8)--8--8-----8---8-------8---3-|-----3h5--0-||
|-(8)--8--8-----8---8-------8---3-|-----3h5--0-||
|-(8)--8--8-----8---8-------8---3-|-----3h5--0-||
|
| Gtr III
|---------------------------------|------------||
|---------------------------------|------------||
|---------------------------------|------------||
|-(8)--8--8-----8---8-------8---3-|-----3h5--0-||
|-(8)--8--8-----8---8-------8---3-|-----3h5--0-||
|-(8)--8--8-----8---8-------8---3-|-----3h5--0-||
|
| Gtr IV
|-13-----------17-(17)b18r(17)----|------------||
|-----13----10-----------------13-|------------||
|--------12-----------------------|------------||
|---------------------------------|------------||
|---------------------------------|------------||
|---------------------------------|------------||


 Pre-Verse
  D5                       N.C.    D5                           N.C.    D5
       PM----------------|                  PM----------------|
|------------------|-----------------|------------------|-------------------|
|------------------|-----------------|------------------|-------------------|
|------------------|-------6h7-6-----|------------------|-------6h7-6-------|
|-(0)--------------|---------------0-|-(0)--------------|---------------0---|
|-(0)--0-0-0-0-0-0-|-0-0-0---------0-|-(0)--0-0-0-0-0-0-|-0-0-0---------0---|
|-(0)--0-0-0-0-0-0-|-0-0-0---------0-|-(0)--0-0-0-0-0-0-|-0-0-0---------0---|
|
|      PM----------------|                  PM----------------|
|------------------|-----------------|------------------|-------------------|
|------------------|-------5h6-5-----|------------------|-------5h6-5-------|
|------------------|-----------------|------------------|-------------------|
|-(0)--------------|---------------0-|-(0)--------------|---------------0---|
|-(0)--0-0-0-0-0-0-|-0-0-0---------0-|-(0)--0-0-0-0-0-0-|-0-0-0---------0---|
|-(0)--0-0-0-0-0-0-|-0-0-0---------0-|-(0)--0-0-0-0-0-0-|-0-0-0---------0---|


  D5                       N.C.
       PM----------------|
|------------------|------------------|
|------------------|------------------|
|------------------|-------6h7-6------|
|-(0)--------------|---------------/8-|
|-(0)--0-0-0-0-0-0-|-0-0-0------------|
|-(0)--0-0-0-0-0-0-|-0-0-0------------|
|
|      PM----------------|
|------------------|------------------|
|------------------|-------5h6-5------|
|------------------|---------------/7-|
|-(0)--------------|------------------|
|-(0)--0-0-0-0-0-0-|-0-0-0------------|
|-(0)--0-0-0-0-0-0-|-0-0-0------------|


                                        D.S. al Coda
  N.C.                                D5            N.C.
|---------------------|-----------------|-------------||
|---------------------|-----------------|-------------||
|---------------------|-----------7-6---|-------------||
|-(8)-7-5-7-(7)-5-----|-------5-7-----0-|-(0)----0----||
|-----------------8-7-|-5-7-8---------0-|-(0)----0----||
|---------------------|---------------0-|-(0)----0----||
|
|---------------------|-----------------|-------------||
|---------------------|-----------6-5---|-------------||
|-(7)-5---5-(5)-------|---------5-------|-------------||
|-------8-------8-7-5-|---5-7-8-------0-|-(0)----0----||
|---------------------|-8-------------0-|-(0)----0----||
|---------------------|---------------0-|-(0)----0----||


 Chorus
  $$
  &
  Bb5                          F5                  G5           D5
  Gtrs II, III
|---------------------------------|-------------------------------------|
|---------------------------------|-------------------------------------|
|---------------------------------|-------------------------------------|
|-(8)--8--8-----8---8-------8---3-|-(3)--3-3-----3h==5------------0-----|
|-(8)--8--8-----8---8-------8---3-|-(3)--3-3-----3h==5------------0-----|
|-(8)--8--8-----8---8-------8---3-|-(3)--3-3-----3h==5------------0-----|
|
| Gtr IV
|-13-----------17-(17)b18r(17)-13-|-------------12-(12)b13r(12)-(12)b13-|
|-----13----10--------------------|-13----------------------------------|
|--------12-----------------------|-----12-9-10-------------------------|
|---------------------------------|-------------------------------------|
|---------------------------------|-------------------------------------|
|---------------------------------|-------------------------------------|


                                                                 Bb5
        PM-----------------------------------------------------|
|-----------------------------------|----------------------------------|
|-----------------------------------|----------------------------------|
|-----------------------------------|----------------------------------|
|--(0)------------------------------|-----------------------------8----|
|--(0)--0--0--0--0-------0----0---0-|--0--0--0-------0----0--0-0--8----|
|--(0)--0--0--0--0-------0----0---0-|--0--0--0-------0----0--0-0--8----|
|
|-(12)----13----12b13==(12)r(12)----|-13----12b13==(12)r(12)-----13p12-|
|------10----10------------------10-|----10----------------------------|
|-----------------------------------|----------------------------------|
|-----------------------------------|----------------------------------|
|-----------------------------------|----------------------------------|
|-----------------------------------|----------------------------------|


    Bb5                          F5                  G5           D5
||----------------------------------|-------------------------------------|
||o---------------------------------|-------------------------------------|
||----------------------------------|-------------------------------------|
||--(8)--8--8-----8---8-------8---3-|-(3)--3-3-----3h==5------------0-----|
||o-(8)--8--8-----8---8-------8---3-|-(3)--3-3-----3h==5------------0-----|
||--(8)--8--8-----8---8-------8---3-|-(3)--3-3-----3h==5------------0-----|
|
||--13-----------17-(17)b18r(17)-13-|-------------12-(12)b13r(12)-(12)b13-|
||o-----13----10--------------------|-13----------------------------------|
||---------12-----------------------|-----12-9-10-------------------------|
||----------------------------------|-------------------------------------|
||o---------------------------------|-------------------------------------|
||----------------------------------|-------------------------------------|


                                                                 Bb5
        PM-----------------------------------------------------|
|-----------------------------------|-----------------------------------||
|-----------------------------------|----------------------------------o||
|-----------------------------------|-----------------------------------||
|--(0)------------------------------|-----------------------------8-----||
|--(0)--0--0--0--0-------0----0---0-|--0--0--0-------0----0--0-0--8----o||
|--(0)--0--0--0--0-------0----0---0-|--0--0--0-------0----0--0-0--8-----||
|
|-(12)----13----12b13==(12)r(12)----|-13----12b13==(12)r(12)-----13p12--||
|------10----10------------------10-|----10----------------------------o||
|-----------------------------------|-----------------------------------||
|-----------------------------------|-----------------------------------||
|-----------------------------------|----------------------------------o||
|-----------------------------------|-----------------------------------||


                                                 a Tempo Q=82
                   To Dbl. Coda
  Bb5                          F5         G5 D5
|---------------------------------|------------|--------||
|---------------------------------|------------|--------||
|---------------------------------|------------|--------||
|-(8)--8--8-----8---8-------8---3-|-----3h5--0-|-(0)----||
|-(8)--8--8-----8---8-------8---3-|-----3h5--0-|-(0)----||
|-(8)--8--8-----8---8-------8---3-|-----3h5--0-|-(0)----||
|
|-13-----------17-(17)b18r(17)----|------------|--------||
|-----13----10-----------------13-|------------|--------||
|--------12-----------------------|------------|--------||
|---------------------------------|------------|--------||
|---------------------------------|------------|--------||
|---------------------------------|------------|--------||


 Bridge
  N.C.
  Gtrs II, III
   >
|-------------------|---------------------|
|-------------------|---------------------|
|-------------------|---------------------|
|-(0)---------------|-(0)-----------------|
|-(0)---------------|-(0)-----------------|
|-(0)---------------|-(0)-----------------|
|
| Gtr I
|-------------------|---------------------|
|-------------------|---------------------|
|---------2-0---^2--|-------0-0h2-0-------|
|-----2-3-----3-^3--|-----2---------2---2-|
|--5----------------|--3--------------3---|
|-------------------|---------------------|


|-------------------|-------------------------|
|-------------------|-------------------------|
|-------------------|-------------------------|
|-(0)---------------|-------------------------|
|-(0)---------------|-------------------------|
|-(0)---------------|-------------------------|
|
|-------------------|-------------------------|
|-------------------|-6---5---8-5h6---6-(6)\--|
|---------------6---|-------------------------|
|-----5-8---7-------|---7---7-------7---------|
|-/7------7---7---7-|-------------------------|
|-------------------|-------------------------|


  N.C.                                                              Bb°/A
  Gtr I
|-----------------|-------------------|-------------------|---------------||
|-------1---------|-------------------|-------------------|---------^2----||
|-----3---3-------|-----------7-------|-----2-2h3-2-------|-----2-3-^3----||
|---0-------0---0-|-----5-5h6---6-5---|---2---------2---2-|---2-----^2----||
|-1-----------1---|---5-------------5-|-0-------------0---|-0-------^0----||
|-----------------|-5-----------------|-------------------|---------------||


    N.C.
||-------------------------|----------------------------|
||o------------------------|----------------------------|
||-----------14-12----^14--|-------12-12h14-12----------|
||-----14-15-------15-^15--|----14-------------14----14-|
||o-17---------------------|-15-------------------15----|
||-------------------------|----------------------------|


|--------------------------|----------------------------------|
|--------------------------|-18----17----20-17h18----18-(18)\-|
|--------------------18----|----------------------------------|
|-----17-20----19----------|----19----19----------19----------|
|-/19-------19----19----19-|----------------------------------|
|--------------------------|----------------------------------|


  N.C.
|-------------------------|----------------------------|
|----------13-------------|----------------------------|
|-------15----15----------|----------------19----------|
|----12----------12----12-|-------17-17h18----18-17----|
|-13----------------13----|----17-------------------17-|
|-------------------------|-17-------------------------|


                                           Bb°/A
|----------------------------|---------------------||
|----------------------------|-------------^14----o||
|-------14-14h15-14----------|-------14-15-^15-----||
|----14-------------14----14-|----14-------^14-----||
|-12-------------------12----|-12----------^12----o||
|----------------------------|---------------------||


 Interlude
  N.C.
  Gtr I
|------------------------------|--------------------------------|
|------------------------------|--------------------------------|
|-----------14-12----^14-------|--------12-12h14----12----------|
|-----14-15-------15-^15-------|-----14----------------14----14-|
|--17--------------------------|--15----------------------15----|
|------------------------------|--------------------------------|
|
| Gtr IV
|--/5------------------------5-|--/8-----------8s10--5----------|
|-------------------------8----|--------------------------------|
|------------------------------|--------------------------------|
|------------------------------|--------------------------------|
|------------------------------|--------------------------------|
|------------------------------|--------------------------------|
|
| Gtr V
|------------------------------|-/12----------12-13-------------|
|-/13--------------------10-13-|--------------------13----------|
|------------------------------|--------------------------------|
|------------------------------|--------------------------------|
|------------------------------|--------------------------------|
|------------------------------|--------------------------------|


|-----------------------------|---------------------------------------|
|-----------------------------|-18----17----20-17h18-------18-(18)\---|
|--------------------18-------|---------------------------------------|
|-----17-20----19-------------|----19----19----------19---------------|
|-/19-------19----19----19----|---------------------------------------|
|-----------------------------|---------------------------------------|
|
|-----------------------------|---------------------------------------|
|--/5-----------------------5-|--------6-----6--------8p=6--5---------|
|------------------------7----|--7------------------------------------|
|-----------------------------|---------------------------------------|
|-----------------------------|---------------------------------------|
|-----------------------------|---------------------------------------|
|
|-----------------------------|---------------------------------------|
|-----------------------------|-------10----10-------11p10------------|
|-/12-------------------10-12-|-10-------------------------12---------|
|-----------------------------|---------------------------------------|
|-----------------------------|---------------------------------------|
|-----------------------------|---------------------------------------|


  N.C.
|-----------------------------|-------------------------------|
|-----------13----------------|-------------------------------|
|--------15----15-------------|-------------------19----------|
|-----12----------12----12----|--------17---17h18----18-17----|
|--13----------------13-------|----17----------------------17-|
|-----------------------------|-17----------------------------|
|
|--/6--------------------6--5-|-------------------------------|
|-----------------------------|--8-----(8)\-------/5-----6----|
|-----------------------------|-------------------------------|
|-----------------------------|-------------------------------|
|-----------------------------|-------------------------------|
|-----------------------------|-------------------------------|
|
|-/10-------------------10----|-------------------------------|
|--------------------------13-|-11----(11)\-------------------|
|-----------------------------|--------------------9----10----|
|-----------------------------|-------------------------------|
|-----------------------------|-------------------------------|
|-----------------------------|-------------------------------|


                                           Bb°/A
|----------------------------|--------------------||
|----------------------------|-------------^14----||
|-------14-14h15-14----------|-------14-15-^15----||
|----14-------------14----14-|----14-------^14----||
|-12-------------------12----|-12----------^12----||
|----------------------------|--------------------||
|
|-/5-------------------------|-/9-----------------||
|----------------------------|--------------------||
|----------------------------|--------------------||
|----------------------------|--------------------||
|----------------------------|--------------------||
|----------------------------|--------------------||
|
|--9-------------------------|-12-----------------||
|----------------------------|--------------------||
|----------------------------|--------------------||
|----------------------------|--------------------||
|----------------------------|--------------------||
|----------------------------|--------------------||


   Breakdown
    D5                                  N.C.
    Gtrs IV, V
            ~          ~            ~
||-------------------------|-----------------------------------||
||o------------------------|-----------------8---10---8-(8)\--o||
||-------------------------|------------/6-9---9----9----------||
||--0-0-------0--0-------0-|--0--------------5----7---5-(5)\---||
||o-0-0--/5---0--0--/7---0-|--0--/8-----/4-7---7----7---------o||
||--0-0-----6-0--0-----6-0-|--0-----7-0------------------------||


  D5                                       N.C.
  Gtrs IV, V
           ~            ~              ~
|---------------------------|---------------------------------------|
|---------------------------|----------------------8---10----8-(8)\-|
|---------------------------|--------------/6----9---9-----9--------|
|--0-0-------0----0-------0-|----0-----------------5----7----5-(5)\-|
|--0-0--/5---0----0--/7---0-|----0--/8-----/4----7---7-----7--------|
|--0-0-----6-0----0-----6-0-|----0-----7-0--------------------------|
|
| Gtr II
|  ~~~~~~~~~~~~~~~~~~~~~~~~~~~~~~~~~~~~~~~~~~~~~~~~~~~~~~~~
|-13-----------12-----------|-10------------8b9--------(8)----------|
|---------------------------|---------------------------------------|
|---------------------------|---------------------------------------|
|---------------------------|---------------------------------------|
|---------------------------|---------------------------------------|
|---------------------------|---------------------------------------|
|
| Gtr III
|  ~~~~~~~~~~~~~~~~~~~~~~~~~~~~~~~~~~~~~~~~~~~~~~~~~~~~~~~~
|-10------------9-----------|---------------------------------------|
|---------------------------|-11------------9b10-------(9)----------|
|---------------------------|---------------------------------------|
|---------------------------|---------------------------------------|
|---------------------------|---------------------------------------|
|---------------------------|---------------------------------------|


  D5                                       N.C.
           ~            ~              ~
|---------------------------|------------------------------------------|
|---------------------------|------------------------8----10----8-(8)\-|
|---------------------------|--------------/6------9---9------9--------|
|--0-0-------0----0-------0-|----0-------------------5-----7----5-(5)\-|
|--0-0--/5---0----0--/7---0-|----0--/8-----/4------7---7------7--------|
|--0-0-----6-0----0-----6-0-|----0-----7-0-----------------------------|
|
|  ~~~~~~~~~~~~~~~~~~~~~~~~~~~~~~~~~~~~~~~~~~~~~~~~~~~~~~~~~~~
|-13-----------12-----------|-10-----------20b21.5-------(20)----------|
|---------------------------|------------------------------------------|
|---------------------------|------------------------------------------|
|---------------------------|------------------------------------------|
|---------------------------|------------------------------------------|
|---------------------------|------------------------------------------|
|
|  ~~~~~~~~~~~~~~~~~~~~~~~~~~~~~~~~~~~~~~~~~~~~~~~~~~~~~~~~~~~
|-10------------9-----------|------------------------------------------|
|---------------------------|-11-----------21b22---------(21)----------|
|---------------------------|------------------------------------------|
|---------------------------|------------------------------------------|
|---------------------------|------------------------------------------|
|---------------------------|------------------------------------------|


  a Tempo Q=165
  D5                     N.C.
  Gtr II
|----------------|------------------|---------------------|-----------------||
|----------------|------------------|---------------------|-----------------||
|----------------|------------------|---------------------|-----------7-6-0-||
|----------------|---------------/8-|-(8)-7-5-7-(7)-5-----|-------5-7-------||
|----------------|------------------|-----------------8-7-|-5-7-8-----------||
|----------------|------------------|---------------------|-----------------||
|
| Gtr III
|    PM----------------|
|----------------|------------------|---------------------|-----------------||
|----------------|------------------|---------------------|-----------6-5-0-||
|----------------|-------6h7-6---/7-|-(7)-5---5-(5)-------|---------5-------||
|-0--------------|------------------|-------8-------8-7-5-|---5-7-8---------||
|-0--0-0-0-0-0-0-|-0-0-0------------|---------------------|-8---------------||
|-0--0-0-0-0-0-0-|-0-0-0------------|---------------------|-----------------||


   Breakdown
    N.C.
    TP TP TP TP   TP TP TP TP   TP TP TP TP   TP TP TP TP
||--------------|-------------|-------------|---------------||
||o-------------|-------------|-------------|--------------o||
||--------------|-------5-----|-------------|---------------||
||-----7--5--7--|----7-----7--|----5--3--2--|----3-----2----||
||o-5-----------|-8-----------|-3-----------|-1-----0------o||
||--------------|-------------|-------------|---------------||
|
|   TP TP TP TP   TP TP TP TP   TP TP TP TP   TP TP TP TP
||--------------|-------------|-------------|---------------||
||o-------------|-------6-----|-------------|--------------o||
||-----5--3--5--|----5-----5--|----3--2--0--|---------------||
||--3-----------|-7-----------|-2-----------|----7-----5----||
||o-------------|-------------|-------------|-5-----4------o||
||--------------|-------------|-------------|---------------||


                      D.S.S. al Dbl. Coda
  D5              N.C.                   Bb5
  PM----|     PM|
|--------------------|---------------------||
|--------------------|---------------------||
|--------------------|---------------------||
|---------0-------/8-|-(8)-7-5-----------8-||
|-0-0-0-0-0---0-0----|---------8-(8)-7-4-8-||
|-0-0-0-0-0---0-0----|-------------------8-||
|
| PM----|     PM|
|--------------------|---------------------||
|--------------------|---------------------||
|-----------------/7-|-(7)-5---------------||
|---------0----------|-------8-7-(7)-5---8-||
|-0-0-0-0-0---0-0----|-----------------7-8-||
|-0-0-0-0-0---0-0----|-------------------8-||


  &&
  N.C.F5 G5           D5
  Gtrs II, III
|----------------------------|
|----------------------------|
|----------------------------|
|------3h==5-----------0-----|
|------3h==5-----------0-----|
|------3h==5-----------0-----|
|
| Gtr IV
|-----17-(17)b18-(17)--------|
|---------------------17b18==|
|----------------------------|
|----------------------------|
|----------------------------|
|----------------------------|


                                                           Bb5
       PM--------------------------------------------|
|--------------------------------|----------------------------||
|--------------------------------|----------------------------||
|--------------------------------|----------------------------||
|--(0)---------------------------|--------------------------8-||
|--(0)-0---0--0-0-0---0----0-----|---0--0---0--0-0-0---0----8-||
|--(0)-0---0--0-0-0---0----0-----|---0--0---0--0-0-0---0----8-||
|
|--------------------------------|-------------------------12-||
|-(17)---(17)-------(17)r--------|----------------------------||
|-------------------------17b19==|=(17)---(17)-------(17)r----||
|--------------------------------|----------------------------||
|--------------------------------|----------------------------||
|--------------------------------|----------------------------||


   Breakdown Chorus
    Bb5                          F5                  G5           D5
||----------------------------------|-------------------------------------|
||o---------------------------------|-------------------------------------|
||----------------------------------|-------------------------------------|
||--(8)--8--8--8--8---8-------8---3-|-(3)--3-3--3--3h==5------(5)---0-----|
||o-(8)--8--8--8--8---8-------8---3-|-(3)--3-3--3--3h==5------(5)---0-----|
||--(8)--8--8--8--8---8-------8---3-|-(3)--3-3--3--3h==5------(5)---0-----|
|
||--13-----------17-(17)b18r(17)-13-|-------------12-(12)b13r(12)-(12)b13-|
||o-----13----10--------------------|-13----------------------------------|
||---------12-----------------------|-----12-9-10-------------------------|
||----------------------------------|-------------------------------------|
||o---------------------------------|-------------------------------------|
||----------------------------------|-------------------------------------|


                                                                 Bb5
                                                                        3x
|-----------------------------------|-----------------------------------||
|-----------------------------------|----------------------------------o||
|-----------------------------------|-----------------------------------||
|--(0)--0--0--0--0-------0----0---0-|--0--0--0-------0----0--0-0--8-----||
|--(0)--0--0--0--0-------0----0---0-|--0--0--0-------0----0--0-0--8----o||
|--(0)--0--0--0--0-------0----0---0-|--0--0--0-------0----0--0-0--8-----||
|
|                                                                       3x
|-(12)----13----12b13==(12)r(12)----|-13----12b13==(12)r(12)-----13p12--||
|------10----10------------------10-|----10----------------------------o||
|-----------------------------------|-----------------------------------||
|-----------------------------------|-----------------------------------||
|-----------------------------------|----------------------------------o||
|-----------------------------------|-----------------------------------||


  Bb5                          F5              G5           D5
|---------------------------------|--------------------------------|
|---------------------------------|--------------------------------|
|---------------------------------|--------------------------------|
|-(8)--8--8--8--8---8-------8---3-|----------3h==5-----------0-----|
|-(8)--8--8--8--8---8-------8---3-|----------3h==5-----------0-----|
|-(8)--8--8--8--8---8-------8---3-|----------3h==5-----------0-----|
|
|-13-----------17-(17)b18r(17)-13-|-(13)----17-(17)b18-(17)--------|
|-----13----10--------------------|-------------------------17b18==|
|--------12-----------------------|--------------------------------|
|---------------------------------|--------------------------------|
|---------------------------------|--------------------------------|
|---------------------------------|--------------------------------|


|-----------------|-------------------||
|-----------------|-------------------||
|-----------------|-------------------||
|--(0)------------|--(0)--------------||
|--(0)------------|--(0)--------------||
|--(0)------------|--(0)--------------||
|
|         ~~~~~~~~~~~~~~~
|-----------------|-------------------||
|-(17)--(17)------|-(17)------(17)r\--||
|-----------------|-------------------||
|-----------------|-------------------||
|-----------------|-------------------||
|-----------------|-------------------||


   Interlude
    G5      F5G5  Bb5         F5       D5  Eb5
    Gtr IV
                                              PM
||--------------|-----------|------------|------------|
||o-------------|-----------|------------|------------|
||--------------|-----------|------------|------------|
||--/5------3-5-|-/8--------|-3------3-0-|-1-----1----|
||o-/5------3-5-|-/8--------|-3------3-0-|-1--1--1----|
||--/5------3-5-|-/8--------|-3------3-0-|-1--1--1----|
|
|   Gtrs II, III
||--------------|-----------|------------|------------|
||o-/3------1-3-|-/6--------|-1----------|------------|
||--/3------2-3-|-/7--------|-2------3-2-|-3--2--0----|
||--------------|-----------|--------5-4-|-5--4--1----|
||o-------------|-----------|------------|------------|
||--------------|-----------|------------|------------|


  Eb5                          D5
      PM--------------------------------------------|
|--------------|-------------|-------------|-----------------||
|--------------|-------------|-------------|----------------o||
|--------------|-------------|-------------|-----------------||
|-1------------|-------------|-------------|------------0----||
|-1---1--1--1--|-1--1--1--1--|-0--0--0--0--|--0--0---0--0---o||
|-1---1--1--1--|-1--1--1--1--|-0--0--0--0--|--0--0---0--0----||
|
|--------------|-------------|-------------|--------/3--2----||
|--------------|-3-----------|-------------|-/4--3--/4--3---o||
|-0---3--2--3--|-3--3--2--0--|----0--2--3--|-/3--2-----------||
|-1--/5--4--5--|----5--4--1--|-4--1--4--5--|-----------------||
|--------------|-------------|-5-----------|----------------o||
|--------------|-------------|-------------|-----------------||


 Guitar Solo/Outro
  G5      F5G5  Bb5             F5              D5
  Gtr IV
|-------------|---------------|--------------------|
|-------------|---------------|--------------------|
|-------------|---------------|--------------------|
|-/5------3-5-|-/8------------|--3------------3--0-|
|-/5------3-5-|-/8------------|--3------------3--0-|
|-/5------3-5-|-/8------------|--3------------3--0-|
|
| Gtrs II, III
|-------------|---------------|--------------------|
|-/3------1-3-|-/6------------|--1-----------------|
|-/3------2-3-|-/7------------|--2------------3--2-|
|-------------|---------------|---------------5--4-|
|-------------|---------------|--------------------|
|-------------|---------------|--------------------|
|
| Gtr V
|-------------|---------------|--------------------|
|-------------|---------------|--------------------|
|--7------5-7s|=10------10----|-10----(10)\--12-10-|
|-------------|------------12-|--------------------|
|-------------|---------------|--------------------|
|-------------|---------------|--------------------|


  Eb5
            PM
|--------------------------------------------|
|--------------------------------------------|
|--------------------------------------------|
|--1--------------------1--------------------|
|--1--------1-----------1--------------------|
|--1--------1-----------1--------------------|
|
|--------------------------------------------|
|--------------------------------------------|
|--3--------2-----------0--------------------|
|--5--------4-----------1--------------------|
|--------------------------------------------|
|--------------------------------------------|
|
|--------------------------------------------|
|--------------------------------------------|
|-12b14===(12)-(12)r10-12b15===(12)-(12)r10--|
|--------------------------------------------|
|--------------------------------------------|
|--------------------------------------------|


  Eb5
        PM-------------------------------------------------------
|-------------------------|-------------------------------------|
|-------------------------|-------------------------------------|
|-------------------------|-------------------------------------|
|--1----------------------|-------------------------------------|
|--1----1------1-----1----|--1-----1-----------1--------1-------|
|--1----1------1-----1----|--1-----1-----------1--------1-------|
|
|-------------------------|-------------------------------------|
|-------------------------|--3----------------------------------|
|--0----3------2-----3----|--3-----3-----------2--------0-------|
|--1---/5------4-----5----|--------5-----------4--------1-------|
|-------------------------|-------------------------------------|
|-------------------------|-------------------------------------|
|
|-------------------------|----------------------------10-11-13-|
|-------------------10-11-|-10----10-11-10-11p10-11-13----------|
|-12--(12)\--/12-12-------|----12-------------------------------|
|-------------------------|-------------------------------------|
|-------------------------|-------------------------------------|
|-------------------------|-------------------------------------|


  D5
 ---------------------------------------|
|-------------------------|---------------------------|
|-------------------------|---------------------------|
|-------------------------|---------------------------|
|-------------------------|--------------------0------|
|--0-----0-----0-----0----|--0-----0-----0-----0------|
|--0-----0-----0-----0----|--0-----0-----0-----0------|
|
|-------------------------|-------------/3-----2------|
|-------------------------|-/4-----3----/4-----3------|
|--------0-----2-----3----|-/3-----2------------------|
|--4-----1-----4-----5----|---------------------------|
|--5----------------------|---------------------------|
|-------------------------|---------------------------|
|
|                            PM    PM    PM------|
|-14-11-------------------|---------------------------|
|-------13-10-11-10----10-|---------------------------|
|-------------------11----|---------------------------|
|-------------------------|-12p10-12p10----10---------|
|-------------------------|-------------13----13-12---|
|-------------------------|---------------------------|


  G5                F5 G5   Bb5
|-------------------------|-----------------------|
|-------------------------|-----------------------|
|-------------------------|-----------------------|
|-/5-----------------3--5-|-/8--------------------|
|-/5-----------------3--5-|-/8--------------------|
|-/5-----------------3--5-|-/8--------------------|
|
|-------------------------|-----------------------|
|-/3-----------------1--3-|-/6--------------------|
|-/3-----------------2--3-|-/7--------------------|
|-------------------------|-----------------------|
|-------------------------|-----------------------|
|-------------------------|-----------------------|
|
|                            ~~
|-------------------------|-----------------18----|
|----------------10-11-13s|=15----(15)\-/15----15-|
|------------/12----------|-----------------------|
|-------------------------|-----------------------|
|-13--(13)\---------------|-----------------------|
|-------------------------|-----------------------|


  F5                 D5   Eb5
                              PM
|-----------------------|-----------------------------|
|-----------------------|-----------------------------|
|-----------------------|-----------------------------|
|--3---------------3--0-|--1------1-------------------|
|--3---------------3--0-|--1--1---1-------------------|
|--3---------------3--0-|--1--1---1-------------------|
|
|-----------------------|-----------------------------|
|--1--------------------|-----------------------------|
|--2---------------3--2-|--3--2---0-------------------|
|------------------5--4-|--5--4---1-------------------|
|-----------------------|-----------------------------|
|-----------------------|-----------------------------|
|
|  ~~
|-17----(17)\-----20----|-18-----17b18===(17)r(17)-15-|
|-------------/16----16-|-----------------------------|
|-----------------------|-----------------------------|
|-----------------------|-----------------------------|
|-----------------------|-----------------------------|
|-----------------------|-----------------------------|


  Eb5
            PM-----------------------------------------------
|------------------------------|----------------------------|
|------------------------------|----------------------------|
|------------------------------|----------------------------|
|--1---------------------------|----------------------------|
|--1--------1-----1-------1----|--1-----1-----1--------1----|
|--1--------1-----1-------1----|--1-----1-----1--------1----|
|
|------------------------------|----------------------------|
|------------------------------|--3-------------------------|
|--0--------3-----2-------3----|--3-----3-----2--------0----|
|--1-------/5-----4-------5----|--------5-----4--------1----|
|------------------------------|----------------------------|
|------------------------------|----------------------------|
|
|           ~~~~
|------------------------------|----------------------------|
|-18b20===(18)--(18)r\--/18-15-|----------------------------|
|------------------------------|-15-14-12-15-14-(14)\-------|
|------------------------------|-------------------------15-|
|------------------------------|----------------------17----|
|------------------------------|----------------------------|


  D5
 ------------------------------------------------------------------|
|----------------------------------------|---------------------------------------------------|
|----------------------------------------|---------------------------------------------------|
|----------------------------------------|---------------------------------------------------|
|----------------------------------------|--------------------------------------0------------|
|--0--------0--------0-----------0-------|--0-----------0-----------0-----------0------------|
|--0--------0--------0-----------0-------|--0-----------0-----------0-----------0------------|
|
|----------------------------------------|-------------------------/3-----------2------------|
|----------------------------------------|-/4-----------3----------/4-----------3------------|
|-----------0--------2-----------3-------|-/3-----------2------------------------------------|
|--4--------1--------4-----------5-------|---------------------------------------------------|
|--5-------------------------------------|---------------------------------------------------|
|----------------------------------------|---------------------------------------------------|
|
|----------------------------------------|-------------------------------------------15-17---|
|----------------------------------------|----------------------------------15-16-18---------|
|-------------------14-15-14----14-15-17s|=20----------14-15-17-12-14-15s17------------------|
|-16-15----15-16-17----------17----------|----13-15-17---------------------------------------|
|-------17-------------------------------|---------------------------------------------------|
|----------------------------------------|---------------------------------------------------|


  G5              F5 G5   Bb5
|-----------------------|--------------------|
|-----------------------|--------------------|
|-----------------------|--------------------|
|-/5---------------3--5-|-/8-----------------|
|-/5---------------3--5-|-/8-----------------|
|-/5---------------3--5-|-/8-----------------|
|
|-----------------------|--------------------|
|-/3---------------1--3-|-/6-----------------|
|-/3---------------2--3-|-/7-----------------|
|-----------------------|--------------------|
|-----------------------|--------------------|
|-----------------------|--------------------|
|
|  ~~
|-18----(18)\-----18----|-20b22===(20)r------|
|-------------/18----18-|--------------------|
|-----------------------|--------------------|
|-----------------------|--------------------|
|-----------------------|--------------------|
|-----------------------|--------------------|


  F5                                     D5     Eb5
                                                         PM
|---------------------------------------------|-------------------|
|---------------------------------------------|-------------------|
|---------------------------------------------|-------------------|
|--3--------------------------------3----0----|--1-----------1----|
|--3--------------------------------3----0----|--1-------1---1----|
|--3--------------------------------3----0----|--1-------1---1----|
|
|---------------------------------------------|-------------------|
|--1------------------------------------------|-------------------|
|--2--------------------------------3----2----|--3-------2---0----|
|-----------------------------------5----4----|--5-------4---1----|
|---------------------------------------------|-------------------|
|---------------------------------------------|-------------------|
|
|-17-(17)b18-(17)-(17)b18-(17)----------------|-------------------|
|---------------------------------------------|-18b20--(18)-------|
|-------------------------------------14---15-|-------------------|
|----------------------------------15---------|-------------------|
|------------------------------/17------------|-------------------|
|---------------------------------------------|-------------------|


  Eb5
            PM--------------------------------------------------------
|-------------------------------|------------------------------------|
|-------------------------------|------------------------------------|
|-------------------------------|------------------------------------|
|--1----------------------------|------------------------------------|
|--1--------1------1------1-----|-1--------1--------1--------1-------|
|--1--------1------1------1-----|-1--------1--------1--------1-------|
|
|-------------------------------|------------------------------------|
|-------------------------------|-3----------------------------------|
|--0--------3------2------3-----|-3--------3--------2--------0-------|
|--1-------/5------4------5-----|----------5--------4--------1-------|
|-------------------------------|------------------------------------|
|-------------------------------|------------------------------------|
|
|-15p10----10s8----8----8s6---6-|---------------11-13-11-10----------|
|-------------------------------|------13----13-------------13-11-10-|
|-------12------10---10-----7---|-8s10----10-------------------------|
|-------------------------------|------------------------------------|
|-------------------------------|------------------------------------|
|-------------------------------|------------------------------------|


  D5
 ---------------------------------------------------------|
|-------------------------------------|----------------------------------------|
|-------------------------------------|----------------------------------------|
|-------------------------------------|----------------------------------------|
|-------------------------------------|-----------------------------0----------|
|--0--------0--------0--------0-------|--0--------0--------0--------0----------|
|--0--------0--------0--------0-------|--0--------0--------0--------0----------|
|
|-------------------------------------|-------------------/3--------2----------|
|-------------------------------------|-/4--------3-------/4--------3----------|
|-----------0--------2--------3-------|-/3--------2----------------------------|
|--4--------1--------4--------5-------|----------------------------------------|
|--5----------------------------------|----------------------------------------|
|-------------------------------------|----------------------------------------|
|
|-17p14----14s10----10----------10-14-|----------------------------------------|
|-------------------------------------|-10-11----------------------------------|
|-------15-------11----11-11-11-------|-------11-12----------------------14----|
|-------------------------------------|-------------11-12-------12-15-16-------|
|-------------------------------------|-------------------12-13----------------|
|-------------------------------------|----------------------------------------|


  G5              F5 G5   Bb5
|-----------------------|--------------------|
|-----------------------|--------------------|
|-----------------------|--------------------|
|-/5---------------3--5-|-/8-----------------|
|-/5---------------3--5-|-/8-----------------|
|-/5---------------3--5-|-/8-----------------|
|
|-----------------------|--------------------|
|-/3---------------1--3-|-/6-----------------|
|-/3---------------2--3-|-/7-----------------|
|-----------------------|--------------------|
|-----------------------|--------------------|
|-----------------------|--------------------|
|
|  ~~
|-----------------------|--------------------|
|-----------------------|-18b20--(18)--------|
|-----------------15----|-----------------17-|
|-17----(17)\-/17----17-|--------------------|
|-----------------------|--------------------|
|-----------------------|--------------------|


  F5                         D5    Eb5
                                             PM
|--------------------------------|-------------------------------|
|--------------------------------|-------------------------------|
|--------------------------------|-------------------------------|
|--3---------------------3-----0-|--1-----------------1----------|
|--3---------------------3-----0-|--1--------1--------1----------|
|--3---------------------3-----0-|--1--------1--------1----------|
|
|--------------------------------|-------------------------------|
|--1-----------------------------|-------------------------------|
|--2---------------------3-----2-|--3--------2--------0----------|
|------------------------5-----4-|--5--------4--------1----------|
|--------------------------------|-------------------------------|
|--------------------------------|-------------------------------|
|
|                  ~~~~                               ~~
|-17b18===(17)r--(17)--(17)\-/17-|-18p17-------------------------|
|--------------------------------|-------18----------------------|
|--------------------------------|----------17-15-14-15--(15)\---|
|--------------------------------|-------------------------------|
|--------------------------------|-------------------------------|
|--------------------------------|-------------------------------|


  Eb5
            PM------------------------------------------
|----------------------|-------------------------------|
|----------------------|-------------------------------|
|----------------------|-------------------------------|
|--1-------------------|-------------------------------|
|--1--------1----1--1--|--1------1-------1--1----------|
|--1--------1----1--1--|--1------1-------1--1----------|
|
|----------------------|-------------------------------|
|----------------------|--3----------------------------|
|--0--------3----2--3--|--3------3-------2--0----------|
|--1-------/5----4--5--|---------5-------4--1----------|
|----------------------|-------------------------------|
|----------------------|-------------------------------|
|
|-17b18===(17)r--------|-18b20=====(18)r------[20]pb22r|
|----------------------|-------------------------------|
|----------------------|-------------------------------|
|----------------------|-------------------------------|
|----------------------|-------------------------------|
|----------------------|-------------------------------|


  D5
 --------------------------------------------------|
|------------------------|----------------------------------------|
|------------------------|----------------------------------------|
|------------------------|----------------------------------------|
|------------------------|-----------------------------------0----|
|---0-------0----0----0--|--0-----------0------------0-------0----|
|---0-------0----0----0--|--0-----------0------------0-------0----|
|
|------------------------|--------------------------/3-------2----|
|------------------------|-/4-----------3-----------/4-------3----|
|-----------0----2----3--|-/3-----------2-------------------------|
|---4-------1----4----5--|----------------------------------------|
|---5--------------------|----------------------------------------|
|------------------------|----------------------------------------|
|
|-(20)b22======(20)r-----|-17-(17)b18-(17)-(17)b18-(17)-----------|
|------------------------|------------------------------15-(15)---|
|------------------------|----------------------------------------|
|------------------------|----------------------------------------|
|------------------------|----------------------------------------|
|------------------------|----------------------------------------|


  H.=H
  G5                              F5    G5     Bb5
   \0.25___________________________________________________________________
|--------------------------------------------|----------------------------|
|--------------------------------------------|----------------------------|
|--------------------------------------------|----------------------------|
|-/5-------------------------------3----5----|--/8------------------------|
|-/5-------------------------------3----5----|--/8------------------------|
|-/5-------------------------------3----5----|--/8------------------------|
|
|  \0.25___________________________________________________________________
|--------------------------------------------|----------------------------|
|-/3-------------------------------1----3----|--/6------------------------|
|-/3-------------------------------2----3----|--/7------------------------|
|--------------------------------------------|----------------------------|
|--------------------------------------------|----------------------------|
|--------------------------------------------|----------------------------|
|
|  \0.25___________________________________________________________________
|-15------18-15----18-15---------------------|----------------------------|
|---------------18-------18-15------------18-|-(18)----/16-16-15----------|
|------------------------------17-15-17------|-------------------17-15-17-|
|--------------------------------------------|----------------------------|
|--------------------------------------------|----------------------------|
|--------------------------------------------|----------------------------|


  F5                             D5       Eb5
                                                     PM
|---------------------------------------|----------------------------------|
|---------------------------------------|----------------------------------|
|---------------------------------------|----------------------------------|
|---3-----------------------3-----0-----|---1------------1-----------------|
|---3-----------------------3-----0-----|---1--------1---1-----------------|
|---3-----------------------3-----0-----|---1--------1---1-----------------|
|
|---------------------------------------|----------------------------------|
|---1-----------------------------------|----------------------------------|
|---2-----------------------3-----2-----|---3--------2---0-----------------|
|---------------------------5-----4-----|---5--------4---1-----------------|
|---------------------------------------|----------------------------------|
|---------------------------------------|----------------------------------|
|
|--------------------------15-17-18b20==|=(18)r-18-(18)-----(18)-/18-15----|
|-----------------15-16-18--------------|----------------------------------|
|-(17)---14-15-17-----------------------|----------------------------------|
|---------------------------------------|----------------------------------|
|---------------------------------------|----------------------------------|
|---------------------------------------|----------------------------------|


  Eb5
               PM----------------------------------
|-------------------------------------------------|
|-------------------------------------------------|
|-------------------------------------------------|
|--1----------------------------------------------|
|--1-----------1-----------1-----------1----------|
|--1-----------1-----------1-----------1----------|
|
|-------------------------------------------------|
|-------------------------------------------------|
|--0-----------3-----------2-----------3----------|
|--1----------/5-----------4-----------5----------|
|-------------------------------------------------|
|-------------------------------------------------|
|
|-18-15----18-18-15-------------------------------|
|-------18----------18-15----15-18-15-------------|
|-------------------------17----------18-17-15----|
|----------------------------------------------17-|
|-------------------------------------------------|
|-------------------------------------------------|


                                                    D5
                                                                             |
 ------------------------------------------------------------------------|
|-------------------------------------------------|-------------|-----------------|
|-------------------------------------------------|-------------|-----------------|
|-------------------------------------------------|-------------|-----------------|
|-------------------------------------------------|-------------|------------0----|
|--1-----------1-----------1-----------1----------|-0--0--0--0--|--0--0---0--0----|
|--1-----------1-----------1-----------1----------|-0--0--0--0--|--0--0---0--0----|
|
|                                                                            |
|-------------------------------------------------|-------------|--------/3--2----|
|--3----------------------------------------------|-------------|-/4--3--/4--3----|
|--3-----------3-----------2-----------0----------|----0--2--3--|-/3--2-----------|
|--------------5-----------4-----------1----------|-4--1--4--5--|-----------------|
|-------------------------------------------------|-5-----------|-----------------|
|-------------------------------------------------|-------------|-----------------|
|
|-20-15-20-15-------------------------------------|-------------|-----------------|
|-------------18-15----15-18-15-------------------|-------------|-----------------|
|-------------------17----------18-17-15----15-17-|-------------|-----------------|
|----------------------------------------17-------|-------------|-----------------|
|-------------------------------------------------|-------------|-----------------|
|-------------------------------------------------|-------------|-----------------|


  G5          F5G5  Bb5         F5       D5  Eb5
  Gtr IV
   \0.5__________________________________________________
                                                PM
|-----------------|-----------|------------|------------|
|-----------------|-----------|------------|------------|
|-----------------|-----------|------------|------------|
|-/5----------3-5-|-/8--------|-3------3-0-|-1-----1----|
|-/5----------3-5-|-/8--------|-3------3-0-|-1--1--1----|
|-/5----------3-5-|-/8--------|-3------3-0-|-1--1--1----|
|
| Gtrs II, III
|  \0.5__________________________________________________
|-----------------|-----------|------------|------------|
|-/3----------1-3-|-/6--------|-1----------|------------|
|-/3----------2-3-|-/7--------|-2------3-2-|-3--2--0----|
|-----------------|-----------|--------5-4-|-5--4--1----|
|-----------------|-----------|------------|------------|
|-----------------|-----------|------------|------------|


  Eb5                          D5
                                                        |
      PM--------------------------------------------|
|--------------|-------------|-------------|----------------|
|--------------|-------------|-------------|----------------|
|--------------|-------------|-------------|----------------|
|-1------------|-------------|-------------|------------0---|
|-1---1--1--1--|-1--1--1--1--|-0--0--0--0--|--0--0---0--0---|
|-1---1--1--1--|-1--1--1--1--|-0--0--0--0--|--0--0---0--0---|
|
|                                                       |
|--------------|-------------|-------------|--------/3--2---|
|--------------|-3-----------|-------------|-/4--3--/4--3---|
|-0---3--2--3--|-3--3--2--0--|----0--2--3--|-/3--2----------|
|-1--/5--4--5--|----5--4--1--|-4--1--4--5--|----------------|
|--------------|-------------|-5-----------|----------------|
|--------------|-------------|-------------|----------------|


  G5        F5G5  Bb5         F5       D5  Eb5
   \1__________________________________________________
                                              PM
|---------------|-----------|------------|------------|
|---------------|-----------|------------|------------|
|---------------|-----------|------------|------------|
|-/5--------3-5-|-/8--------|-3------3-0-|-1-----1----|
|-/5--------3-5-|-/8--------|-3------3-0-|-1--1--1----|
|-/5--------3-5-|-/8--------|-3------3-0-|-1--1--1----|
|
|  \1__________________________________________________
|---------------|-----------|------------|------------|
|-/3--------1-3-|-/6--------|-1----------|------------|
|-/3--------2-3-|-/7--------|-2------3-2-|-3--2--0----|
|---------------|-----------|--------5-4-|-5--4--1----|
|---------------|-----------|------------|------------|
|---------------|-----------|------------|------------|


  Eb5                          D5
                                                        |
      PM--------------------------------------------|
|--------------|-------------|-------------|----------------*|
|--------------|-------------|-------------|----------------*|
|--------------|-------------|-------------|----------------*|
|-1------------|-------------|-------------|------------0---*|
|-1---1--1--1--|-1--1--1--1--|-0--0--0--0--|--0--0---0--0---*|
|-1---1--1--1--|-1--1--1--1--|-0--0--0--0--|--0--0---0--0---*|
|
|                                                       |
|--------------|-------------|-------------|--------/3--2---*|
|--------------|-3-----------|-------------|-/4--3--/4--3---*|
|-0---3--2--3--|-3--3--2--0--|----0--2--3--|-/3--2----------*|
|-1--/5--4--5--|----5--4--1--|-4--1--4--5--|----------------*|
|--------------|-------------|-5-----------|----------------*|
|--------------|-------------|-------------|----------------*|



Tablature Legend
----------------
 h   - hammer-on
 p   - pull-off
 b   - bend
 pb  - pre-bend
 r   - bend release (if no number after the r, then release immediately)
 /\  - slide into or out of (from/to "nowhere")
 s   - legato slide
 S   - shift slide
 - natural harmonic
[n]  - artificial harmonic
n(n) - tapped harmonic
 ~   - vibrato
 tr  - trill
 T   - tap
 TP  - trem. picking
 PM  - palm muting
\n/  - tremolo bar dip; n = amount to dip
 \n  - tremolo bar down
 n/  - tremolo bar up
/n\  - tremolo bar inverted dip
 =   - hold bend; also acts as connecting device for hammers/pulls
 <> - volume swell (louder/softer)
 x   - on rhythm slash represents muted slash
 o   - on rhythm slash represents single note slash

Misc Legend
-----------
 |  - bar
||  - double bar
||o - repeat start
o|| - repeat end
*|  - double bar (ending)
 :  - bar (freetime)
 $  - Segno
 &  - Coda
Tempo markers -  = BPM(8/16=s8/s16), where s8 = swing 8ths, s16 = swing 16ths
comments
print report bad tab
3 comments total.
-1 reply
XPandaXBear wrote on December 9 2006, 12:53 am

is this straight from the officail tab book

+1 reply
Ghost:o wrote on April 22 2007, 01:06 pm

Is there even an official tab book? because i've looked everywhere to buy oen and i can't find one

Looks good. i shall give it a go and rate

0 reply
slash.r0cks wrote on July 9 2010, 04:39 am

"1. Waking The Fallen - Check for Updates."

I guess you were just waiting to rip off the one track you were missing.

I want to post or [tab]
guest
You may want to rate the tab now too:
select rating
Please do not post tabs as comments. Select "correction" instead!