Oops, an error
Loading. Please wait.

Waking The Fallen Tab

ver3
ver3

Album

More versions @911Tabs.com
1,803 views 3 this week
8 commentsread comments
1 2 3 4 5
not so good
x 5
Autoscroll
+/-
esc
set tempo
stop
Contributor
Difficulty
advanced
WARNING: You are trying to view
                                    content from Ultimate-Guitar.com
                                    in an unauthorized application,
                                    which is prohibited.

                                    Please use an official Ultimate
                                    Guitar Tabs application for iPhone,
                                    iPad or Android to access legitimate
                                    chords, guitar, bass, and drum tabs
                                    from Ultimate-Guitar.com database.

                                    Type "ultimate guitar tabs" in Apple
                                    App Store's or Android Market's
                                    search to find the application.
UNHOLY CONFESSIONS
GUITAR 1:
e|------------------------------------------------------------------|
B|------------------------------------------------------------------|
G|------------------------------------------------------------------|
D|------------------------------------------------------------------|
A|--00-5---7---8---10---8---7h8p7--------10---8---7-----7---8-------|
D|--00---0---0---0----0---0-------10--88----8---8----77---7---7-10--|
    ..   .   .   .    .   .           ..    .   .    ..   .   .

  GUITAR 2:
e|------------------------------------------------------------------|
B|------------------------------------------------------------------|
G|------------------------------------------------------------------|
D|-----3---5---7---8---7----5h7p5---------8---7---5~----5---7-------|
A|--00----------------------------7---------0---0---------0---0-7---|
D|--00---0---0---0---0---0------------88-------------77-------------|
    ..   .   .   .   .   .            ..             ..

Riff B:

  GUITAR 1:                                     GUITAR 2:
e|---------------------------------------------|--------------------|
B|---------------------------------------------|--------------------|
G|---------------------------------------------|--------------------|
D|------------------------------------88---77--|--5-5-7-7-3-3-2-3~--|
A|--00-5---7---8---10---8---7h8p7-----88---77--|--------------------|
D|--00---0---0---0----0---0-------10--88---77--|--------------------|
    ..   .   .   .    .   .

Riff C:

  GUITAR 1:    GUITAR 2:         GUITAR 1:      GUITAR 2:
e|------------|-----------------|--------------|-----------------|
B|------------|-----------------|--------------|-----------------|
G|--7-77-x----|--5-5-3-3-2-0-2--|--------------|-----------------|
D|--7-77-x-0~-|-----------------|--8-8-xx-10~--|--5-5-7-7-3-3-2--|
A|--5-55-x-0~-|-----------------|--8-8-xx-10~--|-----------------|
D|-------x-0~-|-----------------|--8-8-xx-10~--|-----------------|

Riff D:

  GUITAR 1:
e|----------------------------------------------------|
B|----------------------------------------------------|
G|----------------------------------------------------|
D|--1212121212-1212121212-577788888-1010101010101010--|
A|--1212121212-1212121212-577788888-1010101010101010--|
D|--1212121212-1212121212-577788888-1010101010101010--|
     . . . .    . . . . . ........   . . . .   . .

Riff E:

  GUITAR 1:
e|------------|
B|------------|
G|------------|
D|--00-00000--|
A|--00-00000--|
D|--00-00000--|
   GUITAR 2:
e|------------------------------------------------|
B|------------------------------------------------|
G|------------------------------------------------|
D|-----2---3--------------------------------------|
A|--00---------5-7-8--7-5-4--00-7-8-12-13-12-(4)--|
D|--00---0---0---------------00-------------------|
    ..   .   .               ..

Riff G:

  GUITARS 1 & 2:
e|---------------------------------------------------------|
B|---------------------------------------------------------|
G|--77~--------5~------------------------5--5-5-5-5-5-5-5--|
D|--77~--0-2-3-5~--2h3-2h3p2------3-xx3~-5--5-5-5-5-5-5-5--|
A|--55~--0-2-3-3~------------5-3--3-xx3~-3--3-3-3-3-3-3-3--|
D|-------0-2-3--------------------3-xx3~-------------------|

e|-------------------------------------------------|
B|-------------------------------------------------|
G|--77~--------5~--5-5-5-5-5-5-5-------------------|
D|--77~--0-2-3-5~--5-5-5-5-5-5-5--3-xx3~--5-xx-3~--|
A|--55~--0-2-3-3~--3-3-3-3-3-3-3--3-xx3~--5-xx-5~--|
D|-------0-2-3--------------------3-xx3~--5-xx-5~--|

Riff H:

  GUITAR 1:
e|-----------------------------------------------------|
B|-----------------------------------------------------|
G|-----------------------------------------------------|
D|--7-5-7---3-2-3---5-7-5---2-0-2---------------3-2-3--|
A|--------------------------------4-5-8-7-5-4~---------|
D|-----------------------------------------------------|

  GUITAR 2:
E|-----------------------------------------------------|
B|-----------------------------------------------------|
G|-----------------------------------------------------|
D|-----------------------------------------------------|
A|--8-7-8---5-4-5---5-8-7---5-3-4-0-1-3-4-3-1~--4-3-4--|
D|-----------------------------------------------------|

Riff I:

  GUITAR 1:
e|---------------------------------------------------|
B|---------------------------------------------------|
G|---------------------------------------------------|
D|---------------------------------------------------|
A|--0-0-0-0-0-0-0-0-0-0-0-0-0-0-0-0-0-0-0-0-0-0-0-0--|
D|--0-0-0-0-0-0-0-0-0-0-0-0-0-0-0-0-0-0-0-0-0-0-0-0--|
    . . . . . . . . . . . . . . . . . . . . . . . .

Riff J:

  GUITAR 1:
e|------------------------------|
B|------------------------------|
G|------------------------------|
D|--0-12-11-0-10-9-8-0-7-0-7-6--|
A|--0-12-11-0-10-9-8-0-7-0-7-6--|
D|--0-12-11-0-10-9-8-0-7-0-7-6--|


Riff K:

  GUITAR 2:
e|----------------------------------|
B|----------------------------------|
G|----------------------------------|
D|----------------------------------|
A|----------------------------------|
D|--0-11^--0-10^--0-8^--0-7^--0-5^--|

Riff L:

  GUITAR 1:
e|--------------------------------|
B|--------------------------------|
G|--------------------------------|
D|--------------------------------|
A|--------------------------7/4~--|
D|--0-5^--0-5^--0-5^--0-3-0-------|

Riff M:

  GUITAR 1:
e|------|
B|------|
G|------|
D|--00--|
A|--00--|
D|--00--|
    ..


 Song Order:
Riff A		x1 (Guitar 2 is silent).
Riff B		x1 (Guitar 2 is silent).
Riff A		x3 (Guitar 2's harmony of Guitar 1 here).
Riff B		x1 (Guitar 2's harmony of Guitar 1 here).
Riff C		x2 (Guitar 2 plays the little fills noted in the tab).
Riff D		x1 (Guitar 2 plays the same riff as Guitar 1 here).
Riff C		x1 (Guitar 2 plays the little fills noted in the tab).
Riff E		x8 (Guitar 2 silent for four of these, then Riff F four times).
Riff G		x2 (Guitar 2 plays the same riff as Guitar 1 here).
Riff H		x2 (Guitar 2's harmony of Guitar 2 here).
Riff A		x1 (Guitar 2 is silent).
Riff B		x1 (Guitar 2 is silent).
Riff A		x4 (Guitar 2's harmony of Guitar 1 here).
Riff I		x1 (Guitar 2 plays the same riff as Guitar 1 here).
Riff J		x2 (Guitar 2 plays the same riff as Guitar 1 here).
Riff E		x8 (Guitar 2 silent for four of these, then Riff F four times).
Riff E		x4 (Guitar 2 plays Riff K four times here).
Riff L		x1 (Guitar 2 is silent here).
Riff G		x2 (Guitar 2 plays the same riff as Guitar 1 here).
Riff E		x8 (Guitar 2 plays Riff K eight times here).
Riff M		x1 (Guitar 2 plays the same riff as Guitar 1 here).


CHAPTER 4
Intro:
e-----------------------------------------|
B-----------------------------------------|
G-----------------------------------------| Play
D-0-----2-----3-----------0-----7-----8---|  2x
A-0-----2-----3-----------0-----7-----8---|
D-0-----2-----3-----------0-----7-----8---|

e-------------------------------|
B-------------------------------|
G-------:-:-:-------:-:-:-:-:---| Play
D-0-----0-0-0-0-----0-0-0-0-0---|  8x
A-0-----0-0-0-0-----0-0-0-0-0---|
D-0-----0-0-0-0-----0-0-0-0-0---|

Pre-Verse:
Guitar One:
e----------------------------------------------------------------------------|
B----------------------------------------------------------------------------|
G----------------------------------------------------------------------------| Play
D----------/5----------5/7--5----5--5/7----------/5-----------2--3----2--3---|  2x
A--5--7--8-----8--7-3---------8---------5--7--8------8--7--1-------3---------|
D----------------------------------------------------------------------------|


Guitar Two:
e-------------------------------------------------------------------------|
B-------------------------------------------------------------------------|
G-------------------------------------------------------------------------| Play
D-----5--7-/8--7--5----10--8-7--8--10----5--7-/8--7--5-----5--7----5--7---|  2x
A--8----------------7-----------------8-----------------5-------7---------|
D-------------------------------------------------------------------------|

Verse:
Both Guitars:
e--------------------------------------------------------------------|
B--------------------------------------------------------------------|
G----------------------------------3---xxx3-xxx3-xx------------------| Play
D--0---xxx0-xxx0-xx3-3-3-3-2-2-2-2-3---xxx3-xxx3-xx3-3-3-3-2-2-2-2---|  2x
A--0---xxx0-xxx0-xx3-3-3-3-2-2-2-2-1---xxx1-xxx1-xx3-3-3-3-2-2-2-2---|
D--0---xxx0-xxx0-xx3-3-3-3-2-2-2-2-----------------3-3-3-3-2-2-2-2---|

Chorus:
e--------------------------------------------------------------------|
B--------------------------------------------------------------------|
G--------------------------------------------------------------------|
D--0-0-0-0-0-0-0-0-8-8-8-8-8-8-8-8-3-3-3-3-3-3-3-3-2-2-2-2-2-2-2-2---|
A--0-0-0-0-0-0-0-0-8-8-8-8-8-8-8-8-3-3-3-3-3-3-3-3-2-2-2-2-2-2-2-2---|
D--0-0-0-0-0-0-0-0-8-8-8-8-8-8-8-8-3-3-3-3-3-3-3-3-2-2-2-2-2-2-2-2---|

e--------------------------------------------------------------------|
B--------------------------------------------------------------------|
G--------------------------------------------------6-6-6-6-6-6-6-6---|
D--0-0-0-0-0-0-0-0-8-8-8-8-8-8-8-8-3-3-3-3-3-3-3-3-6-6-6-6-6-6-6-6---|
A--0-0-0-0-0-0-0-0-8-8-8-8-8-8-8-8-3-3-3-3-3-3-3-3-4-4-4-4-4-4-4-4---|
D--0-0-0-0-0-0-0-0-8-8-8-8-8-8-8-8-3-3-3-3-3-3-3-3-------------------|

Guitar One:
e---------------------------------------------------------|
B---------------------------------------------------------|
G---------------------------------------------------------| Play
D-7---7-----7---5-----2-------2---3---3-----3---5-----2---|  2x
A-7---7-----7---5-----2-------2---3---3-----3---5-----2---|
D-7---7-----7---5-----2-------2---3---3-----3---5-----2---|


Guitar Two:
e-------------------------------------------------------------------------|
B-------------------------------------------------------------------------|
G-14---14---14-14-----12----9-----9-10---10---10---10---12---14---15-14---|
D--x----x----x--x------x----x-----x--x----x----x----x----x----x----x--x---|
A-12---12---12-12-----10----7-----7--8----8----8----8---10---12---13-12---|
D-------------------------------------------------------------------------|

e------------------------------------------------------------------|
B------------------------------------------------------------------|
G-14---14---14-14-----12----9-----9-10---10---10---10---12-----9---|
D--x----x----x--x------x----x-----x--x----x----x----x----x-----x---|
A-12---12---12-12-----10----7-----7--8----8----8----8---10-----7---|
D------------------------------------------------------------------|

Both Guitars:
e-------------------------------------------------------------------|
B-------------------------------------------------------------------|
G-------------------------------------------------------------------|
D-2---2-2-2-2-2-2-2-2-2-2-2-2-2-2-2-2-2-2-2-2-2-2-2-2-2-2-2-2-2-2---|
A-2---2-2-2-2-2-2-2-2-2-2-2-2-2-2-2-2-2-2-2-2-2-2-2-2-2-2-2-2-2-2---|
D-2---2-2-2-2-2-2-2-2-2-2-2-2-2-2-2-2-2-2-2-2-2-2-2-2-2-2-2-2-2-2---|
      : : : : : : : : : : : : : : : : : : : : : : : : : : : : : :

Post Chorus:
Guitar One:
e-------------------------------------------------6-----------------------------------|
B--------6---10---8---6-------6~\----------6---10-------10---8h10p8-------------------|
G---/7--------------------9-----------/7----------------------------9---10\-----------|
D-------------------------------------------------------------------------------------|
A-------------------------------------------------------------------------------------|
D----------------------------------------------------------------------------- Play---|
                                                                                    |
e-----------------------------------------------------------------------------  2x ---|
B--------6---10---8---6---------------6---10----------6---10~\------------------------|
G---/7--------------------9\---/7--------------/9-------------------------------------|
D-------------------------------------------------------------------------------------|
A-------------------------------------------------------------------------------------|
D-------------------------------------------------------------------------------------|

Guitar Two:
e---------------------------------------------------------------------------------------|
B----------------------------------------------------/8---------------------------------|
G--------7---10---9---7----5---7~\----------7---10--------10---9h10p9------7\-----------|
D---/7---------------------------------/7-----------------------------10----------------|
A---------------------------------------------------------------------------------------|
D------------------------------------------------------------------------------- Play---|
                                                                                      |
e-------------------------------------------------------------------------------  2x ---|
B---------------------------------------------------------------------------------------|
G--------7---10---9---7---5\----------7---10-----------7---10~\-------------------------|
D---/7-------------------------/8--------------/10--------------------------------------|
A---------------------------------------------------------------------------------------|
D---------------------------------------------------------------------------------------|

Guitar Three (Overdubbing):
e-------------------------------------------------------------------|
B-------------------------------------------------------------------|
G-7-7-7-7-7-7-7-7-5-5-5-5-5-5-5-3---3-3-3-3-3-3-3-5-5-5-5-5-5-5-5---| Play
D-7-7-7-7-7-7-7-7-5-5-5-5-5-5-5-3---3-3-3-3-3-3-3-5-5-5-5-5-5-5-5---|  4x
A-5-5-5-5-5-5-5-5-3-3-3-3-3-3-3-1---1-1-1-1-1-1-1-3-3-3-3-3-3-3-3---|
D-------------------------------------------------------------------|

Repeat Verse

Repeat Chorus (Play post chorus only once instead of twice)

Bridge:
e----------------------------------------------------------------------|
B----------------------------------------------------------------------|
G------:-:-:-:------:-:-:-:------------:-:-:-:------:-:-:-:------------| Play
D-/7---0-0-0-0-/7---0-0-0-0-/7/8\7\5---0-0-0-0-/7---0-0-0-0-/7/8\7\5---|  2x
A-/7---0-0-0-0-/7---0-0-0-0-/7/8\7\5---0-0-0-0-/7---0-0-0-0-/7/8\7\5---|
D-/7---0-0-0-0-/7---0-0-0-0-/7/8\7\5---0-0-0-0-/7---0-0-0-0-/7/8\7\5---|

e-----------------------------------------|
B-----------------------------------------|
G-----------------------------------------| Play
D-0-----2-----3-----------0-----7-----8---|  2x
A-0-----2-----3-----------0-----7-----8---|
D-0-----2-----3-----------0-----7-----8---|

Time change to 3/4:
e----------------------------------------------------|
B----------------------------------------------------|
G----------------------------------------------------| Play
D-0-0-0-0-0-0-/7-7-7-7-5-7-8-8-8-8-8-8-3-3-3-2-2-2---|  4x
A-0-0-0-0-0-0-/7-7-7-7-5-7-8-8-8-8-8-8-3-3-3-2-2-2---|
D-0-0-0-0-0-0-/7-7-7-7-5-7-8-8-8-8-8-8-3-3-3-2-2-2---|

Repeat Pre-Verse.

e-----
B-----
G-.---
D-0---
A-0---
D-0---

Outro/Solo:
Guitar One:
e-----------------------------------------------------15b(17)r15-15----------------------------17b(18)r17b(18)r17-|
B----------------------------------------------/18------------------17-15----------18-15--------------------------|
G-------------------9-/14--------------------------15---------------------14-15-17-------15-17--------------------|
D-------------10-12-------15-14-12-15~---14-15--------------------------------------------------------------------|
A-------8-/12-----------------------------------------------------------------------------------------------------|
D-12-10-----------------------------------------------------------------------------------------------------------|

e-13----------------------------------------------------15----------------------------------|
B----17-------------------------18-17-13-------------17----18-17-13-------------------------|
G-------15b(15.5)r15---------------------14----14-17----------------12b(13)r12--------------|
D--------------------14b(15)r14-------------15---------------------------------14-15~---\---|
A-------------------------------------------------------------------------------------------|
D-------------------------------------------------------------------------------------------|

e-------------------------------------------------------------------------------------17b(18)r17b(18)r17---|
B------------------------------------17----20b(21)r20---20-17------------/18-15----------------------------|
G----------------17---------------------14--------------------14h15h17----------15-17----------------------|
D----------12-14----15---14---15~\-------------------------------------------------------------------------|
A----------------------------------------------------------------------------------------------------------|
D-12-14-15-------------------------------------------------------------------------------------------------|

e-13------------------13----------------------------15---------------------------|
B----15------------------15----------------------18----18-17-------17h13----15---|
G-------14-15---\10---------15-14-------------17-------------17-15-------15------|
D---------------------------------15-17p15h17------------------------------------|
A--------------------------------------------------------------------------------|
D--------------------------------------------------------------------------------|

e------------17-------17-16b(17)-----\15~--------\------------------------|
B--15b(16)-------15-------------------------------------------------------|
G-----------------------------------------------------14-14-14-12-14-15---|
D------------------------------------------------------x--x--x--x--x--x---|
A-----------------------------------------------------12-12-12-10-12-13---|
D-------------------------------------------------------------------------|

e-------------------------------------------------------------------------------------|
B-------------------------------------------------------------------------------------|
G-14-14-14-14-12-10-9-9-9-9-7-9-7-7-7-7-7-7-10-10-10-12-12-12-------------------------|
D--x--x--x--x--x--x-x-x-x-x-x-x-x-x-x-x-x-x--x--x--x--x--x--x-------------------------|
A-12-12-12-12-10--8-7-7-7-7-5-7-5-5-5-5-5-5--8--8--8-10-10-10-------------------------|
D----------------------------------------------------------------------- Play Until---|
                                                                                    |
e-----------------------------------------------------------------------  Fade Out ---|
B-------------------------------------------------------------------------------------|
G-10-10-10-10-10-10-9-9-9-9-9-9-9-10-10-10-10-10-10-14-14-14-12-14-15-----------------|
D--x--x--x--x--x--x-x-x-x-x-x-x-x--x--x--x--x--x--x--x--x--x--x--x--x-----------------|
A--8--8--8--8--8--8-7-7-7-7-7-7-7--8--8--8--8--8--8-12-12-12-10-12-13-----------------|
D-------------------------------------------------------------------------------------|

Guitar Two:
e-------------------------------------------------------------------------------------------|
B-------------------------------------------------------------------------------------------|
G-:::-:-:-:-----:-:-:---:::-:-:-:-----:-:-:---:::-:-:-:-----:-:-:---:::-:-:-:---:::-:-:-:---| Play
D-000-0-0-0-----0-0-0---333-3-3-3-----3-3-3---888-8-8-8-----8-8-8---333-3-3-3---222-2-2-2---|  2x
A-000-0-0-0-----0-0-0---333-3-3-3-----3-3-3---888-8-8-8-----8-8-8---333-3-3-3---222-2-2-2---|
D-000-0-0-0-----0-0-0---333-3-3-3-----3-3-3---888-8-8-8-----8-8-8---333-3-3-3---222-2-2-2---|

e----------------------------------------------------|
B----------------------------------------------------|
G----------------------------------------------------| Play Until
D-0-0-0-0-0-0-/7-7-7-7-5-7-8-8-8-8-8-8-3-3-3-2-2-2---|  Fade Out
A-0-0-0-0-0-0-/7-7-7-7-5-7-8-8-8-8-8-8-3-3-3-2-2-2---|
D-0-0-0-0-0-0-/7-7-7-7-5-7-8-8-8-8-8-8-3-3-3-2-2-2---|

Reminissions

e|---------------------------------------------------------------------------|
B|---------------------------------------------------------------------------|
G|---------------------------------------------------------------------------|
D|-0-----------0----------00000-------0--------------------------------------|
A|-0------5--3------------00000--5--1----------------------------------------|
D|-0-3v-0--------8-7-5-3--00000----------------------------------------------|

e|---------------------------------------------------------------------------|
B|---------------------------------------------------------------------------|
G|--------------------------------2--------------------------2---------------|
D|-0-2-3-7-5-3-2-0-----0-2-5--------0-2-5-8-3-0---000---2--------------------|
A|-----------------4-5-------4-0----------------1-----5---4------------------|
E|---------------------------------------------------------------------------|

e|---------------------------------------------------------------------------|
B|---------------------------------------------------------------------------|
G|-----------------------------2-----2-7-------------------------------------|
D|-0-2-3-7-5-3-2-0-------3-------0-3-----8-----3-0-2-2---7b------------------|
A|-----------------4-5-7---4-0-------------8-5---------3---------------------|
E|---------------------------------------------------------------------------|

e|-------5----------------|
B|-------5--------10------|
G|-------9--------9-------|
D|-00-0--7--00-0--8-------|
A|-00-0-----00-0--7-------|
E|-00-0-----00-0----------|


e|---------------------------------------------------------------------------|
B|---------------------------------------------------------------------------|
G|---------------------------------------------------------------------------|2x
D|-0----3p2---0-0----3p2---8--------8--------2-5-3-2-0-2---8-x-5-10-X-7------|
A|-0-00-3p2-0-0-0-00-3p2-0-8--------8-888----3-----------3-8-x-5-10-X-7------|
E|-0-00-3p2-0-0-0-00-3p2-0-8-888-12-8-888-12---------------8-x-5-10-X-7------|

e|-----------------|
B|-----------------|
G|-----------------|
D|-0-0-0-0---------|
A|-0-0-0-0---------|
E|-0-0-0-0---------|

e|---------------------------------------------------------------------------|
B|---------------------------------------------------------------------------|
G|---------------------------------------------------------------------------|2x
D|-0----3p2---0-0----3p2---8--------8--------2-5-3-2-0-2---8-x-5-10-X-7------|
A|-0-00-3p2-0-0-0-00-3p2-0-8--------8-888----3-----------3-8-x-5-10-X-7------|
E|-0-00-3p2-0-0-0-00-3p2-0-8-888-12-8-888-12---------------8-x-5-10-X-7------|


e|-12-13------------------|
B|-16-17------------------|
G|------------------------|
D|------------------------|
A|-------00-0-000-000-----|
E|-------00-0-000-000-----|

e|---------------------------------------------------------------------------|
B|---------------------------------------------------------------------------|
G|---------------------------------------------------------------------------|
D|--0------8-----5-----10----------------------------------------------------|
A|--0------8-----5-----10----------------------------------------------------|
E|--0------8-----5-----10----------------------------------------------------|


e|-5-----------------10-----------------------------------------3--8-5-------|
B|-6---6-8-10------11---8-10-11------11--------6-5--------------6------6-----|
G|-7-------------12--------------------------5----------5/7---5-5------------|
D|-7-7---------12-----------------14---15--------------------7---------------|
A|-----------10-----------------15---------8-------3-3------8----------------|
E|---------------------------------------------------------------------------|

e|-------------------------------13-12-------------------------------------9-|
B|-/5-6-5h6p5-------8-10-11-/13-----------------------------------6-5-8-10---|
G|------------5/-7-----------------------------------------------------------|
D|-------------------------------------------15-14-12-14-15-----7------------|
A|-----------------------------------------15---------------15-8-------------|
E|--------------------------------------17-----------------------------------|

e|---------------------------------------------------------------------------|
B|---------------------------------------------------------------------------|
G|---------------------------------------------------------------------------|
D|--0-----5-----10-----3---7-----0-----5-----10----8--10---------------------|
A|--0-----5-----10-----3---7-----0-----5-----10----8--10---------------------|
E|--0-----5-----10-----3---7-----0-----5-----10----8--10---------------------|

e|---------------------------------------------------------------------------|
B|---------------------------------------------------------------------------|
G|--77-77-77-77--------------------------3----5------------------------------|
D|--77-77-77-77--88---1010--00-2-3-2-0---3----5----3-3-----------------------|
A|--55-55-55-55--88---1010-------------0-1----3----3-3-----------------------|
E|---------------88---1010-------------------------3-2-----------------------|

e|---------------------------------------------------------------------------|
B|---------------------------------------------------------------------------|
G|--------------3---5--5-2-5-7----7--9-10--9---3---7-10-15---7-9--14---------|
D|-00-2-3-2-0---3---5--5-2-5-7----------------------------------------2x-----|
A|------------0-1---3--3-0-3-5----5--7--8--7---1---5--8-13---5-7--12---------|
E|---------------------------------------------------------------------------|

e|---------------------------------------|
B|---------------------------------------|
G|-9-10/-7---9-3-------------------------|
D|-----------------0----0-0----0---------|
A|-7--8/-5---7-1---0-00-0-0-00-0---------|
E|-----------------0-00-0-0-00-0---------|

e|-1--------|
B|---3-2----|
G|----------|
D|----------|
A|----------|
E|----------|

e|--------------|
B|--------------|
G|--------------|
D|-0-1-2-3------|
A|-0-1-2-3------|
E|-0-1-2-3------|

play the rist note of every littel part stacato

e|-1-1p0---0-1---/5-3-1-0-1-3-0-/8-8p6-5-3-5-1-8-6-5-6-5-3-5-3-1-------------|
B|-------3-----3--------------------------------------------------5-3--------|
G|--------------------------------------------------------------------5------|
D|---------------------------------------------------------------------------|
A|---------------------------------------------------------------------------|
E|---------------------------------------------------------------------------|

e|---------------------------------------------------------------------------|
B|---------------------------------------------------------------------------|
G|---------------------------------------------------------------------------|
D|-00--0000--00--88-8888-88-1010-10101010-1010-33333-33333-------------------|
A|-00--0000--00--88-8888-88-1010-10101010-1010-33333-33333-------------------|
E|-00--0000--00--88-8888-88-1010-10101010-1010-33333-22222-------------------|

e|-5-----------------10-----------------------------------------3--8-5-------|
B|-6---6-8-10------11---8-10-11------11--------6-5--------------6------6-----|
G|-7-------------12--------------------------5----------5/7---5-5------------|
D|-7-7---------12-----------------14---15--------------------7---------------|
A|-----------10-----------------15---------8-------3-3------8----------------|
E|---------------------------------------------------------------------------|

e|-------------------------------13-12-------------------------------------9-|
B|-/5-6-5h6p5-------8-10-11-/13-----------------------------------6-5-8-10---|
G|------------5/-7-----------------------------------------------------------|
D|-------------------------------------------15-14-12-14-15-----7------------|
A|-----------------------------------------15---------------15-8-------------|
E|--------------------------------------17-----------------------------------|

e|---------------------------------------------------------------------------|
B|---------------------------------------------------------------------------|
G|---------------------------------------------------------------------------|
D|--0-----5-----10-----3---7-----0-----5-----10----8--10---------------------|
A|--0-----5-----10-----3---7-----0-----5-----10----8--10---------------------|
E|--0-----5-----10-----3---7-----0-----5-----10----8--10---------------------|

e|---------------------------------------------------------------------------|
B|---------------------------------------------------------------------------|
G|-14--17/15-15/14-14/12-10/-12-10/-9-10-14----------------------------------|
D|------------------------------------------2x----88888888-333333333-0-------|
A|-12--15-13-13-12-12-10--8/-10--8/-7--8-12-------88888888-333333333-0-------|
E|------------------------------------------------88888888-333333333-0-------|

Desecrate Through Reverence
Intro:
Guitar 1:
e-----------------------------------------------------------------|
B-----------------------------------------------------------------|
G-----------------------------------------------------------------|
D-0---0-2---3---/8---7-6---7---\3-----/5-----\2-----/8---7--------|
A-----------------------------------------------------------------|
D-----------------------------------------------------------------|

Guitar 2:
e----------------------------------------------------------------------|
B----------------------------------------------------------------------|
G----------------------------------------------------------------------|
D-0~-----0-2~-----2-8~-----7-6~-----6-3~-----3-5~-----5-2~-----2-8---7-|
A-0~-----0-2~-----2-8~-----7-6~-----6-3~-----3-5~-----5-2~-----2-8---7-|
D-0~-----0-2~-----2-8~-----7-6~-----6-3~-----3-5~-----5-2~-----2-8---7-|

Both Guitars:
e----
B----
G----
D-0~-
A-0~-
D-0~-

Intro Part 2:
Guitar 1 plays lead and rhythm, Guitar 2 plays rhythm only:
e----------------------------------------------------------|
B----------------------------------------------------------|
G-:-:-:----------------------------------------------------|
D-0-0-0----------------------------------------------------|
A-0-0-0---8-0---7---0-8-5-5-8-7~---------------------------|
D-0-0-0-------8---8-------------------------------- Play---|
                                                         |
e--------------------------------------------------  2x ---|
B----------------------------------------------------------|
G-:-:-:---:-:---:-------------------------7---9-10---------|
D-0-0-0---0-0---0-------------------7-------8--------------|
A-0-0-0---0-0---0-8-0---7---0-7-8-5---7-8------------------|
D-0-0-0---0-0---0-----8---8--------------------------------|

e-------------------------------------------------------------------------------------------------|
B-------------------------------------------------------------------------------------------------|
G-:-:-------------------------------------------------------:-:::---------:-:::-------------------|
D-0-0-3-----5-5-5-5-7-7-7-7-5-5-5-5-5-5-5-5-8-8-8-8-7-7-7-7-0-000---------0-000-------------------|
A-0-0-0-----5-5-5-5-7-7-7-7-5-5-5-5-5-5-5-5-8-8-8-8-7-7-7-7-0-000---------0-000-------------------|
D-0-0-0-----5-5-5-5-7-7-7-7-5-5-5-5-5-5-5-5-8-8-8-8-7-7-7-7-0-000-3b5r3b5-0-000-3b5r3b5-0-3-0-5-7-|

e-------------------------------------------------------------------------------------------------|
B-------------------------------------------------------------------------------------------------|
G-:-:-------------------------------------------------7-6---:-:::---------:-:::---------:-:::-----|
D-0-0-3-----5-5-5-5-7-7-7-7-5-5-5-5-5-5-5-5---7-8-7-------7-0-000---------0-000---------0-000-----|
A-0-0-0-----5-5-5-5-7-7-7-7-5-5-5-5-5-5-5-5-:-------:-------0-000---------0-000---------0-000-----|
D-0-0-0-----5-5-5-5-7-7-7-7-5-5-5-5-5-5-5-5-0-------0-------0-000-3b5r3b5-0-000-5b7r5b7-0-000-5-7-|

e-------------------------------------------------------------------------------------------------|
B-------------------------------------------------------------------------------------------------|
G-:-:-------------------------------------------------------:-:::---------:-:::-------------------|
D-0-0-3-----5-5-5-5-7-7-7-7-5-5-5-5-5-5-5-5-8-8-8-8-7-7-7-7-0-000---------0-000-------------------|
A-0-0-0-----5-5-5-5-7-7-7-7-5-5-5-5-5-5-5-5-8-8-8-8-7-7-7-7-0-000---------0-000-------------------|
D-0-0-0-----5-5-5-5-7-7-7-7-5-5-5-5-5-5-5-5-8-8-8-8-7-7-7-7-0-000-3b5r3b5-0-000-3b5r3b5-0-3-0-5-7-|

e-----------------------------------------------------------|
B-----------------------------------------------------------|
G-:-:-------------------------------------------------7-6---|
D-0-0-3-----5-5-5-5-7-7-7-7-5-5-5-5-5-5-5-5---7-8-7-------7-|
A-0-0-0-----5-5-5-5-7-7-7-7-5-5-5-5-5-5-5-5-:-------:-------|
D-0-0-0-----5-5-5-5-7-7-7-7-5-5-5-5-5-5-5-5-0-------0-------|

e-------------------------------------------------------------------|
B-------------------------------------------------------------------|
G-------------------------------------------------------------------|
D-0---Pick----0--Pick----0--Pick Slide..............----------------|
A-0---Slide---0--Slide---0------------------------------------------|
D-0-----------0----------0------------------------------------------|

e------------------------------------------|
B------------------------------------------|
G-:-:-:------------------------------:---:-|
D-0-0-0----------------------------0-0---0-|
A-0-0-0---8-0---7---0-8-5-5-8-7~---0-0---0-|
D-0-0-0-------8---8----------------0-0---0-|

Verse:
Both Guitars:
e-------------------------------------------------------------------------|
B-------------------------------------------------------------------------|
G-------.---------------------------.-----.-------------------------------|
D-2-2-2-2-----------2-2-3-3-----2-2-2---2-2-----------2-2-3-3-3-----------|
A-2-2-2-2-----------2-2-3-3-----2-2-2---2-2-----------2-2-3-3-3---     ---|
D-2-2-2-2-----------2-2-3-3-----2-2-2---2-2-----------2-2-3-3-3--- Play---|
                                                                        |
e-----------------------------------------------------------------  2x ---|
B-----------------------------------------------------------------     ---|
G-:---:---:-:---:---:-:-:---:-:-:-:-:-:---:-:---:---:-:-:---:-:-:---------|
D-0---0---0-0---0---0-0-0---0-0-0-0-0-0---0-0---0---0-0-0---0-0-0---------|
A-0---0---0-0---0---0-0-0---0-0-0-0-0-0---0-0---0---0-0-0---0-0-0---------|
D-0---0---0-0---0---0-0-0---0-0-0-0-0-0---0-0---0---0-0-0---0-0-0---------|

e---------------------------------------------------------------|
B---------------------------------------------------------------|
G-------.---------------------------.---------------------------|
D-2-2-2-2-----------2-2-3-3-----2-2-2-----------------2-2-3-3-3-|
A-2-2-2-2-----------2-2-3-3-----2-2-2---*-------------2-2-3-3-3-|
D-2-2-2-2-----------2-2-3-3-----2-2-2---0w------------2-2-3-3-3-|

e-----------------------------------------------------------------|
B-----------------------------------------------------------------|
G-:---:---:-:---:---:-:-:---:-:-:-:-:-:---:-:---:---:-:-:---:-:-:-|
D-0---0---0-0---0---0-0-0---0-0-0-0-0-0---0-0---0---0-0-0---0-0-0-|
A-0---0---0-0---0---0-0-0---0-0-0-0-0-0---0-0---0---0-0-0---0-0-0-|
D-0---0---0-0---0---0-0-0---0-0-0-0-0-0---0-0---0---0-0-0---0-0-0-|

e---------------------------------------------------------------|
B---------------------------------------------------------------|
G-------.---------------------------.-----.---------------------|
D-2-2-2-2-----------2-2-3-3-----2-2-2---2-2-----------2-2-3-3-3-|
A-2-2-2-2-----------2-2-3-3-----2-2-2---2-2-----------2-2-3-3-3-|
D-2-2-2-2-----------2-2-3-3-----2-2-2---2-2-----------2-2-3-3-3-|

e--------------------------------------------------------------------|
B--------------------------------------------------------------------|
G-.---::::::---.---.---::::::---.---.---::::::---.---.---------------|
D-0---000000-0-0---0---000000-0-0---0---000000-0-0---0---------------|
A-0---000000-0-0---0---000000-0-0---0---000000-0-0---0---------------|
D-0---000000-0-0---0---000000-0-0---0---000000-0-0---0---3-2-0-5-6-7-|

e--------------------------------------------------------------------|
B--------------------------------------------------------------------|
G-.---::::::---.---.---::::::---.---.---::::::---.---.---------------|
D-0---000000-0-0---0---000000-0-0---0---000000-0-0---0---------------|
A-0---000000-0-0---0---000000-0-0---0---000000-0-0---0---------------|
D-0---000000-0-0---0---000000-0-0---0---000000-0-0---0---8-7-5---7-8-|

Chorus:
(Both Guitars)
e-----------------------------------------------------------------|
B-----------------------------------------------------------------|
G-----------------------------------------------------------------|
D-7-7-7-7-7-7-7-7-5-5-5-5-5-5-5-5-0-0-0-0-0-0-0-0-0-0-0-0-0-0-0-0-|
A-8-8-8-8-8-8-8-8-7-7-7-7-7-7-7-7-0-0-0-0-0-0-0-0-0-0-0-0-0-0-0-0-|
D-7-7-7-7-7-7-7-7-5-5-5-5-5-5-5-5-0-0-0-0-0-0-0-0-0-0-0-0-0-0-0-0-|

e-----------------------------------------------------------------|
B-----------------------------------------------------------------|
G-----------------------------------------------------------------|
D-8--8--8--8--7-7-7-7-5-5-5-5-5-5-5-5-5-5-5-5-5-5-5-5-5-5-5-5-----|
A-10-10-10-10-8-8-8-8-7-7-7-7-7-7-7-7-7-7-7-7-7-7-7-7-7-7-7-8-----|
D-8--8--8--8--7-7-7-7-5-5-5-5-5-5-5-5-5-5-5-5-5-5-5-5-5-5-5-5-----|

e-----------------------------------------------------------------|
B-----------------------------------------------------------------|
G-.---::::::---.---.---::::::---.---.---::::::---.---::::::::::::-|
D-0---000000-0-0---0---000000-0-0---0---000000-0-0---000000000000-|
A-0---000000-0-0---0---000000-0-0---0---000000-0-0---000000000000-|
D-0---000000-0-0---0---000000-0-0---0---000000-0-0---000000000000-|

e-----------------------------------------------------------------|
B-----------------------------------------------------------------|
G-----------------------------------------------------------------|
D-7-7-7-7-7-7-7-7-5-5-5-5-5-5-5-5-0-0-0-0-0-0-0-0-0-0-0-0-0-0-0-0-|
A-8-8-8-8-8-8-8-8-7-7-7-7-7-7-7-7-0-0-0-0-0-0-0-0-0-0-0-0-0-0-0-0-|
D-7-7-7-7-7-7-7-7-5-5-5-5-5-5-5-5-0-0-0-0-0-0-0-0-0-0-0-0-0-0-0-0-|

e-----------------------------------------------------------------|
B-----------------------------------------------------------------|
G-----------------------------------------------------------------|
D-8--8--8--8--7-7-7-7-5-5-5-5-5-5-5-5-5-5-5-5-5-5-5-5-5-5-5-5-----|
A-10-10-10-10-8-8-8-8-7-7-7-7-7-7-7-7-7-7-7-7-7-7-7-7-7-7-7-8-----|
D-8--8--8--8--7-7-7-7-5-5-5-5-5-5-5-5-5-5-5-5-5-5-5-5-5-5-5-5-----|

e-----------------------------------------------------------------|
B-----------------------------------------------------------------|
G-.---::::::---.---.---::::::---.---.---::::::---.---.--.----.----|
D-0---000000-0-0---0---000000-0-0---0---000000-0-0---0--0--0-0----|
A-0---000000-0-0---0---000000-0-0---0---000000-0-0---0--0--0-0----|
D-0---000000-0-0---0---000000-0-0---0---000000-0-0---0--0--0-0----|

Repeat verse and chorus

Bridge:
Guitar 1:
e------------------------------------------------------------------------------|
B------------------------------------------------------------------------------|
G-10--7-9-10-9--5-7-9-7-----10-12--10--9---9--10--12-10----7--9--10--12--10--9-|
D------------------------------------------------------------------------------| Play
A------------------------------------------------------------------------------|  2x
D------------------------------------------------------------------------------|

Guitar 2:
e------------------------------------------------------------------------------|
B-10--6-8-10-8--5-6-8-6-----10-11--10--8---8--10--11-10----6--8--10--11--10--8-|
G------------------------------------------------------------------------------| Play
D------------------------------------------------------------------------------|  2x
A------------------------------------------------------------------------------|
D------------------------------------------------------------------------------|

Guitar 3 (Overdubbed):
e---------------------------------------------------------------------------------|
B---------------------------------------------------------------------------------|
G---------------------------------------------------------------------------------|
D-7-7-7-7-7-7-7-7-5-5-5-5-5-5-5-5-0-0-0-0-0-0-0-0-0-0-0-0-0-0-0-0-----------------|
A-8-8-8-8-8-8-8-8-7-7-7-7-7-7-7-7-0-0-0-0-0-0-0-0-0-0-0-0-0-0-0-0-----------------|
D-7-7-7-7-7-7-7-7-5-5-5-5-5-5-5-5-0-0-0-0-0-0-0-0-0-0-0-0-0-0-0-0---------     ---|
                                                                                |
e-------------------------------------------------------------------------      |
B-------------------------------------------------------------------------      |
G------------------------------------------------------------------------- Play |
D-8--8--8--8--7-7-7-7-5-5-5-5-5-5-5-5-5-5-5-5-5-5-5-5-5-5-5-5-0-----------  2x  |
A-10-10-10-10-8-8-8-8-7-7-7-7-7-7-7-7-7-7-7-7-7-7-7-7-7-7-7-8-0-----------      |
D-8--8--8--8--7-7-7-7-5-5-5-5-5-5-5-5-5-5-5-5-5-5-5-5-5-5-5-5-0-----------      |
                                                                                |
e-------------------------------------------------------------------------     ---|
B---------------------------------------------------------------------------------|
G---------------------------------------------------------------------------------|
D-0-0-0-0-0-0-0-0-0-0-0-0-0-0-0-0-8-8-8-8-8-8-8-8-10-10-10-10-10-10-10-10---------|
A-0-0-0-0-0-0-0-0-0-0-0-0-0-0-0-0-8-8-8-8-8-8-8-8-10-10-10-10-10-10-10-10---------|
D-0-0-0-0-0-0-0-0-0-0-0-0-0-0-0-0-8-8-8-8-8-8-8-8-10-10-10-10-10-10-10-10---------|

Guitar 1:
e-----------------------------------------------------------------|
B-----------------------------------------------------------------|
G-:-:---------:-:-----------------:-:-----------------------------| Play
D-0-0---------0-0-----------------0-0-----------------------------|  4x
A-0-0-8---7---0-0-10--8---7---8---0-0-8---7---10--8---7---8---3---|
D-0-0---------0-0-----------------0-0-----------------------------|

Guitar 2:
e-----------------------------------------------------------------|
B-----------------------------------------------------------------|
G-:-:---------:-:-----------------:-:-----------------------------| Play
D-0-0-7---5---0-0-8---7---5---7---0-0-7---5---8---7---5---7---2---|  4x
A-0-0---------0-0-----------------0-0-----------------------------|
D-0-0---------0-0-----------------0-0-----------------------------|

Outro
e-----------------------------------------------------------------|
B-----------------------------------------------------------------|
G-7~------5~--------------------------:-:-:-:-:-:-:-:-:-:-:-:-:-:-|
D-7~------5~------0~--------------3---3-3-3-3-3-3-7-7-7-7-7-7-7-7-|
A-5~------3~------0~--------------3---3-3-3-3-3-3-7-7-7-7-5-5-5-5-|
D-----------------0~--------------3---3-3-3-3-3-3-7-7-7-7-7-7-7-7-|

Guitar 1:
e---------------------------------------------------------------------------------|
B---------------------------------------------------------------------------------|
G-10-10-10-10-10-10-10-10-9-9-9-9-9-9-9-9-9-9-9-9-9-9-9-9-7-7-7-7-7-7-7-7---------|
D--x--x--x--x--x--x--x--x-x-x-x-x-x-x-x-x-x-x-x-x-x-x-x-x-x-x-x-x-x-x-x-x---------|
A--8--8--8--8--8--8--8--8-7-7-7-7-7-7-7-7-7-7-7-7-7-7-7-7-5-5-5-5-5-5-5-5-     ---|
D------------------------------------------------------------------------- Play---|
                                                                                |
e-------------------------------------------------------------------------  2x ---|
B-------------------------------------------------------------------------     ---|
G-10-10-10-10-10-10-10-10-9-9-9-9-9-9-9-9-5-5-5-5-5-5-5-5-6-6-6-6-6-6-6-6---------|
D--x--x--x--x--x--x--x--x-x-x-x-x-x-x-x-x-x-x-x-x-x-x-x-x-x-x-x-x-x-x-x-x---------|
A--8--8--8--8--8--8--8--8-7-7-7-7-7-7-7-7-3-3-3-3-3-3-3-3-4-4-4-4-4-4-4-4---------|
D---------------------------------------------------------------------------------|

e-----------------------------------------------------------------|
B-3~------------------------------6~------------------------------|
G-2~------------------------------5~------------------------------|
D-0~------------------------------3~------------------------------|
A-----------------------------------------------------------------|
D-----------------------------------------------------------------|

e---------------------------------------------------------------------------------|
B---------------------------------------------------------------------------------|
G-10-10-10-10-10-10-10-10-10-10-10-10-10-10-10-10-5-5-5-5-5-5-5-5-6-6-6-6-6-6-6-6-|
D--x--x--x--x--x--x--x--x--x--x--x--x--x--x--x--x-x-x-x-x-x-x-x-x-x-x-x-x-x-x-x-x-|
A--8--8--8--8--8--8--8--8--8--8--8--8--8--8--8--8-3-3-3-3-3-3-3-3-4-4-4-4-4-4-4-4-|
D---------------------------------------------------------------------------------|

e-----------------------------------------------------------------|
B-----------------------------------------------------------------|
G-2-2-2-2-2-2-2-2-2-2-2-2-2-2-2-2-9-9-9-9-9-9-9-9-9-9-9-9-9-9-9-9-|
D-x-x-x-x-x-x-x-x-x-x-x-x-x-x-x-x-x-x-x-x-x-x-x-x-x-x-x-x-x-x-x-x-|
A-0-0-0-0-0-0-0-0-0-0-0-0-0-0-0-0-7-7-7-7-7-7-7-7-7-7-7-7-7-7-7-7-|
D-----------------------------------------------------------------|

e----------------------------------------------------------------------------------|
B----------------------------------------------------------------------------------|
G-10-10-10-10-10-10-10-10-10-10-10-10-10-10-10-10-5-5-5-5-5-5-5-5-6-6-6-6-6-6-6-6--|
D--x--x--x--x--x--x--x--x--x--x--x--x--x--x--x--x-x-x-x-x-x-x-x-x-x-x-x-x-x-x-x-x--|
A--8--8--8--8--8--8--8--8--8--8--8--8--8--8--8--8-3-3-3-3-3-3-3-3-4-4-4-4-4-4-4-4--|
D----------------------------------------------------------------------------------|

Guitar 2:
e-------------------------------------------------------------------------|
B-------------------------------------------------------------------------|
G-------------------------------------------------------------------------|
D-7-7-7-7-7-7-7-7-5-5-5-5-5-5-5-5-5-5-5-5-5-5-5-5-0-0-0-0-0-0-0-0---------|
A-8-8-8-8-8-8-8-8-7-7-7-7-7-7-7-7-7-7-7-7-7-7-7-7-0-0-0-0-0-0-0-0-     ---|
D-7-7-7-7-7-7-7-7-5-5-5-5-5-5-5-5-5-5-5-5-5-5-5-5-0-0-0-0-0-0-0-0- Play---|
                                                                        |
e-----------------------------------------------------------------  2x ---|
B-----------------------------------------------------------------     ---|
G-------------------------------------------------------------------------|
D-0-0-0-0-0-0-0-0-5-5-5-5-5-5-5-5-3-3-3-3-3-3-3-3-7-7-7-7-7-7-7-7---------|
A-0-0-0-0-0-0-0-0-5-5-5-5-5-5-5-5-3-3-3-3-3-3-3-3-8-8-8-8-8-8-8-8---------|
D-0-0-0-0-0-0-0-0-5-5-5-5-5-5-5-5-3-3-3-3-3-3-3-3-7-7-7-7-7-7-7-7---------|

e----------------------------------------------------------------|
B----------------------------------------------------------------|
G----------------------------------------------------------------|
D-0~------------------------------3~-----------------------------|
A-0~------------------------------3~-----------------------------|
D-0~------------------------------3~-----------------------------|

e-----------------------------------------------------------------|
B-----------------------------------------------------------------|
G-----------------------------------------------------------------|
D-8-8-8-8-8-8-8-8-8-8-8-8-8-8-8-8-3-3-3-3-3-3-3-3-7-7-7-7-7-7-7-7-|
A-8-8-8-8-8-8-8-8-8-8-8-8-8-8-8-8-3-3-3-3-3-3-3-3-5-5-5-5-5-5-5-5-|
D-8-8-8-8-8-8-8-8-8-8-8-8-8-8-8-8-3-3-3-3-3-3-3-3-7-7-7-7-7-7-7-7-|

e-----------------------------------------------------------------|
B-----------------------------------------------------------------|
G-----------------------------------------------------------------|
D-0-0-0-0-0-0-0-0-0-0-0-0-0-0-0-0-7-7-7-7-7-7-7-7-7-7-7-7-7-7-7-7-|
A-0-0-0-0-0-0-0-0-0-0-0-0-0-0-0-0-7-7-7-7-7-7-7-7-7-7-7-7-7-7-7-7-|
D-0-0-0-0-0-0-0-0-0-0-0-0-0-0-0-0-7-7-7-7-7-7-7-7-7-7-7-7-7-7-7-7-|

e---------------------------------------------------------------|
B---------------------------------------------------------------|
G---------------------------------------------------------------|
D-7-7-7-7-7-7-7-7-7-7-7-7-7-7-7-7-3-3-3-3-3-3-3-3-2-2-2-2-2-2-2-|
A-7-7-7-7-7-7-7-7-7-7-7-7-7-7-7-7-3-3-3-3-3-3-3-3-0-0-0-0-0-0-0-|
D-7-7-7-7-7-7-7-7-7-7-7-7-7-7-7-7-3-3-3-3-3-3-3-3-2-2-2-2-2-2-2-|

Both guitars:
e----------------------------------------------------------------|
B----------------------------------------------------------------|
G-.---::::::---.---.---::::::---.---.---::::::---.---.--.----.---|
D-0---000000-0-0---0---000000-0-0---0---000000-0-0---0--0--0-0---|
A-0---000000-0-0---0---000000-0-0---0---000000-0-0---0--0--0-0---|
D-0---000000-0-0---0---000000-0-0---0---000000-0-0---0--0--0-0---|

Eternal Rest

Part 1 (0:00)
e----------------------------------------------------------------|
B-----:::-----------------------:::------------------------      |
G-5---555-5-5-----------------5-555-5---::::::::::::::::--- Play |
D-5---555-5-5---1-3---3-1-3---5-555-5---1111333344443333---  2x  |
A-3---333-3-3---1-3---3-1-3---3-333-3---1111333344443333---      |
D---------------1-3---3-1-3-------------1111333344443333---      |Play
                                                                 |
e----------------------------------------------------------      | 2x
B-----:::-----------------------:::------------------------      |
G-7---777-7-7-----------------7-777-7---::::::::::::::::--- Play |
D-7---777-7-7---3-5---5-3-5---7-777-7---3333555566665555---  2x  |
A-5---555-5-5---3-5---5-3-5---5-555-5---3333555566665555---      |
D---------------3-5---5-3-5-------------3333555566665555---------|

Part 2 (0:40):
Guitar One:
e------|
B------|
G------|
D-0~---
A-0~---
D-0~---

e----------------------------------------|
B----------------------------------------|
G----.---.-------------.-----------------| Play
D-/3-0---0---0-/3-0-/3-0---0-/3-0-/6-\---|  4x
A-/3-0---0---0-/3-0-/3-0---0-/3-0-/6-\---|
D-/3-0---0---0-/3-0-/3-0---0-/3-0-/6-\---|

Guitar Two:
e------|
B------|
G------|
D-0~---
A-0~---
D-0~---

e---------------------------------------------------------|
B---------------------------------------------------------|
G-:-:-:-:-:-:-:-:-:-:-:-:-:-:-:-:-:-:-:-:-:-:-:-:-:-:-:---| Pick
D-0-0-0-0-0-0-0-0-0-0-0-0-0-0-0-0-0-0-0-0-0-0-0-0-0-0-0---| Slide
A-0-0-0-0-0-0-0-0-0-0-0-0-0-0-0-0-0-0-0-0-0-0-0-0-0-0-0---|
D-0-0-0-0-0-0-0-0-0-0-0-0-0-0-0-0-0-0-0-0-0-0-0-0-0-0-0---|

Both Guitars:
e----------------------------------------|
B----------------------------------------|
G----.---.-------------.-----------------| Play
D-/3-0---0---0-/3-0-/3-0---0-/3-0-/6-\---|  4x
A-/3-0---0---0-/3-0-/3-0---0-/3-0-/6-\---|
D-/3-0---0---0-/3-0-/3-0---0-/3-0-/6-\---|

Part 3 (1:15):
e------------------------------------------|
B------------------------------------------|
G-:-:-:-.-------:-:-.---:-:-.---.----------| Play
D-0-0-0-0-------0-0-0---0-0-5---3---3-h5---|  4x
A-0-0-0-0-------0-0-0---0-0-5---3---3-h5---|
D-0-0-0-0-------0-0-0---0-0-5---3---3-h5---|

Part 4 (1:32):
Guitar One:
e----------------------------------------------------------------------|
B----------------------------------------------------------------------|
G-----7-6~-----6-7-/9~---7-9-10-9~-------7-6~-----6-7-/9~---6-7-9------|
D---7----------------------------------7--------------------------7~---|
A-5----------------------------------5---------------------------------|
D----------------------------------------------------------------------|

Guitar Two:
e----------------------------------------------------------------------|
B-----6-5~-----5-6-/8~---6-8-10-8~-------6-5~-----5-6-/8~---5-6-8------|
G-----------------------------------------------------------------6~---|
D---7----------------------------------7-------------------------------|
A-5----------------------------------5---------------------------------|
D----------------------------------------------------------------------|

Guitar Three (Overdubbed):
e-----------------------------------------|
B-----------------------------------------|
G-:-:-:-.-------:-:-.---:-:-.---.-----.---| Play
D-0-0-0-0-------0-0-0---0-0-0---0---0-0---|  4x
A-0-0-0-0-------0-0-0---0-0-0---0---0-0---|
D-0-0-0-0-------0-0-0---0-0-0---0---0-0---|

Both Guitars:
Time Change to 3/4
e---------------------------|
B---------------------------|
G-:-:-:-:-:-:-:-:-:-:-:-:---|
D-0-0-0-0-0-0-0-0-0-0-0-0---|
A-0-0-0-0-0-0-0-0-0-0-0-0---|
D-0-0-0-0-0-0-0-0-0-0-0-0---|

Part 5 (1:43):
e----------------------------------------------------------|
B----------------------------------------------------------|
G-:::-::------:----------------------------------:-:-::6---|
D-000-000-----0----------------------------------0-0-006---|
A-000-000-----0------------------7-0-8-0-7-8-7-2-0-0-004---|
D-000-000-----0-0-2-3-2-/5-3-2-0-----------------0-0-00----|

e------------------------------------------------|
B------------------------------------------------|
G--------------------------------------:-:-::----|
D--------------------------------------0-0-000---|
A-------------5---5-/8---7---7-/10-8-7-0-0-000---|
D-----0-2-3-2---2------5---3-----------0-0-000---|

e-----------------------------------------------------------|
B-----------------------------------------------------------|
G---:::----------------------------------:-:-::6------------|
D---000----------------------------------0-0-006------------|
A---000------------------7-0-8-0-7-8-7-2-0-0-004------------|
D---000-0-2-3-2-/5-3-2-0-----------------0-0-00-------------|

e--------------------------------------------|
B--------------------------------------------|
G--------------------------------------------|
D--------------------------------------0~----|
A-------------5---5-/8---7---7-/10-8-7-0~----|
D-----0-2-3-2---2------5---3-----------0~----|

Part 6 (2:01):
e---------------------------------------------------------------------------------------------------|
B---------------------------------------------------------------------------------------------------|
G---------------------------------------------------------------------------------------------------|
D-7-7-7-7-7-7-5-5-5-5-5-5-5-5-5-5-5-5-5-5-5-5-5-5-5-5-5-5-5-5-8-8-8-8-8-8-7\3-3-3-3-3-3-3-3-3-3-3---|
A-7-7-7-7-7-7-5-5-5-5-5-5-6-6-6-6-6-6-6-6-6-6-6-6-5-5-5-5-5-5-8-8-8-8-8-8-7\3-3-3-3-3-3-3-3-3-3-3---|
D-7-7-7-7-7-7-5-5-5-5-5-5-5-5-5-5-5-5-5-5-5-5-5-5-5-5-5-5-5-5-8-8-8-8-8-8-7\3-3-3-3-3-3-3-3-3-3-3---|

e---------------------------------------------------------------------------|
B---------------------------------------------------------------------------|
G---------------------------------------------------------------------------|
D-7-7-7-7-7-7-5-5-5-5-5-5-5-5-5-5-5-5-5-5-5-5-5-5-5-5-5-5-5-5-8-8-8-8-8-8---|
A-7-7-7-7-7-7-5-5-5-5-5-5-6-6-6-6-6-6-6-6-6-6-6-6-5-5-5-5-5-5-8-8-8-8-8-8---|
D-7-7-7-7-7-7-5-5-5-5-5-5-5-5-5-5-5-5-5-5-5-5-5-5-5-5-5-5-5-5-8-8-8-8-8-8---|

Part 7 (2:16):
Time Change to 4/4. (Don't comment saying I'm wrong.  Even though there are only three
                     notes per beat, the timing is 4/4 and the notes are triplets.)
Guitar One:
e-------------------------------------------------------------------------------|
B--------------------------------------------------------6-5-6-/10-9-10-/14-\---|
G-5-6-5-------5-6-5-------5-6-5---5----------------6-5-6------------------------|
D-------8-7-5-------8-7-5-------8---8-7-8-7-5~----------------------------------|
A-------------------------------------------------------------------------------|
D-------------------------------------------------------------------------------|

Guitar Two:
e------------------------------------------------------------------------------------|
B------------------------------------------------------------------------------------|
G-------------------------------------------------------------7-6-7-/10-9-10-/14-\---|
D-7-8-7--------7-8-7--------7-8-7----8------------------8-7-8------------------------|
A-------10-8-7-------10-8-7-------10---10-8-10-8-7~----------------------------------|
D------------------------------------------------------------------------------------|

Part 8 (2:22):
Both Guitars:
e----------------------------------------|
B----------------------------------------|
G----.---.-------------.-----------------| Play
D-/3-0---0---0-/3-0-/3-0---0-/3-0-/6-\---|  4x
A-/3-0---0---0-/3-0-/3-0---0-/3-0-/6-\---|
D-/3-0---0---0-/3-0-/3-0---0-/3-0-/6-\---|

Part 9 (2:39):
e--------------------------------------------------------------------------------------------|
B--------------------------------------------------------------------------------------------|
G------------------------------------------------------------------|---Tremelo-Picking---|---| Play
D-0~-------4~-------5~-------10~--------0~-------3~-------8~-------|---------------------|---|  2x
A-0~-------4~-------5~--------8~--------0~-------3~-------8~-------5-5-5-4-4-4-7-7-7-8-8-8---|
D-0~-------4~-------5~--------8~--------0~-------3~-------8~---------------------------------|

Part 9 (3:12):
Both Guitars:
e------------------------------------------|
B------------------------------------------|
G-:-:-:-.-------:-:-.---:-:-.---.----------| Play
D-0-0-0-0-------0-0-0---0-0-5---3---3-h5---|  4x
A-0-0-0-0-------0-0-0---0-0-5---3---3-h5---|
D-0-0-0-0-------0-0-0---0-0-5---3---3-h5---|

Guitar One:
e-----------------------------------------------------------------------------------|
B-----------------------------------------------------------------------------------|
G-14-14-14-14-14-14-14-14-14-14-14-14-15-15-15-15-15-15-18-18-18-18-18-18-----------|
D--x--x--x--x--x--x--x--x--x--x--x--x--x--x--x--x--x--x--x--x--x--x--x--x-----------|
A-12-12-12-12-12-12-12-12-12-12-12-12-13-13-13-13-13-13-16-16-16-16-16-16-----------|
D--------------------------------------------------------------------------- Play---|
                                                                                  |
e---------------------------------------------------------------------------  2x ---|
B-----------------------------------------------------------------------------------|
G-14-14-14-14-14-14-14-14-14-14-14-14-10-10-10-10-10-10-9-9-9-9-9-9-----------------|
D--x--x--x--x--x--x--x--x--x--x--x--x--x--x--x--x--x--x-x-x-x-x-x-x-----------------|
A-12-12-12-12-12-12-12-12-12-12-12-12--8--8--8--8--8--8-7-7-7-7-7-7-----------------|
D-----------------------------------------------------------------------------------|

Guitar Two plays the "Both Guitars" part 4x more.

Part 7 Revisited (2:16)
Guitar One:
e-------------------------------------------------------------------------------|
B--------------------------------------------------------6-5-6-/10-9-10-/14-\---|
G-5-6-5-------5-6-5-------5-6-5---5----------------6-5-6------------------------|
D-------8-7-5-------8-7-5-------8---8-7-8-7-5~----------------------------------|
A-------------------------------------------------------------------------------|
D-------------------------------------------------------------------------------|

Guitar Two:
e------------------------------------------------------------------------------------|
B------------------------------------------------------------------------------------|
G-------------------------------------------------------------7-6-7-/10-9-10-/14-\---|
D-7-8-7--------7-8-7--------7-8-7----8------------------8-7-8------------------------|
A-------10-8-7-------10-8-7-------10---10-8-10-8-7~----------------------------------|
D------------------------------------------------------------------------------------|

Part 10 (3:52)
Both Guitars:
e---------------------------------------------------------------------|
B---------------------------------------------------------------------|
G---------------------------------------------------------------------| Play
D-0---0-0-0---/10-8-----8-7-8-7-3-5---5-5-5---/12-11---11-12---14-\---|  2x
A-0---0-0-0---/10-8-----8-7-8-7-3-5---5-5-5---/12-11---11-12---14-\---|
D-0---0-0-0---/10-8-----8-7-8-7-3-5---5-5-5---/12-11---11-12---14-\---|

e--------------------------------------------------------------------|
B--------------------------------------------------------------------|
G-:-:--:-:-:-:-:-:---------------------------------------------------|
D-0-8-10-7-8-5-7-3-7-----8---7---5---5-5-5---/12-11---11-12---14-\---|
A-0-8-10-7-8-5-7-3-7-----8---7---5---5-5-5---/12-11---11-12---14-\---|
D-0-8-10-7-8-5-7-3-7-----8---7---5---5-5-5---/12-11---11-12---14-\---|

e---------------------------------------------------------------------|
B---------------------------------------------------------------------|
G---------------------------------------------------------------------| Play
D-0---0-0-0---/10-8-----8-7-8-7-3-5---5-5-5---/12-11---11-12---14-\---|  4x
A-0---0-0-0---/10-8-----8-7-8-7-3-5---5-5-5---/12-11---11-12---14-\---|
D-0---0-0-0---/10-8-----8-7-8-7-3-5---5-5-5---/12-11---11-12---14-\---|

e--------------------------------------------------------------------|
B--------------------------------------------------------------------|
G-:-:--:-:-:-:-:-:---------------------------------------------------|
D-0-8-10-7-8-5-7-3-7-----8---7---5---5-5-5---/12-11---11-12---14-\---|
A-0-8-10-7-8-5-7-3-7-----8---7---5---5-5-5---/12-11---11-12---14-\---|
D-0-8-10-7-8-5-7-3-7-----8---7---5---5-5-5---/12-11---11-12---14-\---|

e---------------------------------------------------------------------|
B---------------------------------------------------------------------|
G---------------------------------------------------------------------|
D-0---0-0-0---/10-8-----8-7-8-7-3-5---5-5-5---/12-11---11-12---14-\---|
A-0---0-0-0---/10-8-----8-7-8-7-3-5---5-5-5---/12-11---11-12---14-\---|
D-0---0-0-0---/10-8-----8-7-8-7-3-5---5-5-5---/12-11---11-12---14-\---|

e------|
B------|
G------|
D-0~---
A-0~---
D-0~---

Second Heartbeat

Intro
    . . . . . . . . . . . . .   do this a bunch of times
e:------------------------------------------------------|
B:------------------------------------------------------|
G:--5-5-5-5-5-5-5-5-5-5-5-5-5---------------------------|
D:--5-5-5-5-5-5-5-5-5-5-5-5-5---------------------------|
A:--3-3-3-3-3-3-3-3-3-3-3-3-3---------------------------|
D:------------------------------------------------------|


0:07      Riff A                                        x4   (last time)
e:---------------------------------------------------------|-------------|
B:-----------------------------------------------6/8-6-----|-------------|
G:--3/5-0-5-7-0-7-8-0-8-7-5-3---5-5/8-7-5-3---5--------8-7-|-7/8~--8\5---|
D:----------------------------6-------------6--------------|-------------|
A:---------------------------------------------------------|-------------|
D:---------------------------------------------------------|-------------|


0:35  Riff B     x2   . . . .
e:--------------------------------------------------|--------------|
B:--------------------------------------------------|--------------|
G:--12--7-8--3-5-4----5-7-8-7--5-4--12--7-8--3-5-4--|---12---------|
D:---x--x-x--x-x-x----5-7-8-7--x-x--x---x-x--x-x-x--|----x----*----|
A:--10--5-6--1-3-2----3-5-6-5--3-2--10--5-6--1-3-2--|---10----17~--|
D:--------------------------------------------------|--------------|


0:58     Riff C               x2
e:------------------------------|
B:------------------------------|
G:---5-7-8-8/13--8-10-12-12/15--|
D:---x-x-x-x--x--x-x---x--x--x--|
A:---3-5-6-6/11--6-8--10-10/13--|
D:------------------------------|


1:08     Riff D
e:----------------------------------------------------|
B:----------------------------------------------------|
G:--20-19-15-17-15-12-10-12-10-8---8-10-7-3-5~--/12~--|
D:---x--x--x--x--x--x-x---x-x--x---x-x--x-x-x-----x---|
A:--18-17-13-15-13-10-8--10-8--6---6-8--5-1-3~--/10~--|
D:----------------------------------------------------|

           Riff E
1:22 .   ........    ........      .   ........      .    .       x2
e:-----------------------------------------------------------------|
B:-----------------------------------------------------------------|
G:---5-5-55555555-5--55555555-5-5--5-5-55555555-5-5----------------|
D:---5-5-55555555-5--55555555-5-5--5-5-55555555-5-5--6-6--3-3------|
A:---3-3-33333333-3--33333333-3-3--3-3-33333333-3-3--6-6--3-3------|
D:---------------------------------------------------6-6--3-3------|


     ..............................................  .    .
e:----------------------------------------------------------------|
B:----------------------------------------------------------------|
G:---5555555555555555555555555555555555555555555555---------------|
D:---5555555555555555555555555555555555555555555555--6-6--3-3-----|
A:---3333333333333333333333333333333333333333333333--6-6--3-3-----|
D:---------------------------------------------------6-6--3-3-----|


     .   ........    ........      .   ........      .    .
e:-----------------------------------------------------------------|
B:-----------------------------------------------------------------|
G:---5-5-55555555-5--55555555-5-5--5-5-55555555-5-5----------------|
D:---5-5-55555555-5--55555555-5-5--5-5-55555555-5-5--6-6--3-3------|
A:---3-3-33333333-3--33333333-3-3--3-3-33333333-3-3--6-6--3-3------|
D:---------------------------------------------------6-6--3-3------|


1:40      Riff F
e:--------------------------------------|
B:--------------------------------------|
G:----0--------0--------1--------4/7~---|
D:------3--1-----3--1p0---3--1p0--------|
A:-----------3--------------------------|
E:--------------------------------------|


1:43     Riff G                                             x2
e:------------------------------------------------------|
B:------------------------------------------------------|
G:------------------------------------------------------|
D:---10-10-10-10-10--8-8-8-8-8--6-6-6-6-6--8-8-8-8-8----|
A:---10-10-10-10-10--8-8-8-8-8--6-6-6-6-6--8-8-8-8-8----|
D:---10-10-10-10-10--8-8-8-8-8--6-6-6-6-6--8-8-8-8-8----|

1:51      Riff H
e:--------------------------------------------|
B:-----------------------------6/8-6----------|
G:--5-7--7/8-5-7/8-7---7-7/8-5-------8-7------|
D:-------------------8-------------------8----|
A:--------------------------------------------|
D:--------------------------------------------|

e:------------------------------------------|
B:----------------------------------9/11----|
G:---7/8-5-7/8-7---7----5--7/8-7-8----------|
D:---------------8----6---------------------|
A:------------------------------------------|
D:------------------------------------------|

e:-----------------------------------------|
B:--------------------------6/8-6----------|
G:----7/8-5-7/8-7---7-7/8-5-------8-7------|
D:----------------8-------------------8----|
A:-----------------------------------------|
D:-----------------------------------------|

e:----------------------------------------|
B:----------------------------------------|
G:----7/8-5-7/8-7---7----5--7/8-7-8-7-5~--|
D:----------------8----6------------------|
A:----------------------------------------|
D:----------------------------------------|


2:10  Riff I (strumming not exact)                                  x4
e:--------------------------------------------------------------------|
B:--------------------------------------------------------------------|
G:--------------------------------------------------------------------|
D:---10-10-10-10-10--8-8-8-8-8--6-6-6-6-6--8-8-8-8-8--10-10-10-10-10--|
A:---10-10-10-10-10--8-8-8-8-8--6-6-6-6-6--8-8-8-8-8--10-10-10-10-10--|
D:---10-10-10-10-10--8-8-8-8-8--6-6-6-6-6--8-8-8-8-8--10-10-10-10-10--|


2:47  Riff J
e:---------------------------------------|
B:---------------------------------------|
G:---5--5/8-7---5--7-8-8/12-10-15-17-----|
D:---x--x-x-x---x--x-x-x--x-x---x--x-----|
A:---3--3/6-5---3--5-6-6/10-8--13-15-----|
D:---------------------------------------|


2:57  Riff K                   x4
e:-------------------------------|
B:-------------------------------|
G:--5-----------------3-3--4-4---|
D:--5--0-1-0-1-3-5-5--3-3--4-4---|
A:--3--0-1-0-1-3-5-5--1-1--2-2---|
D:-----0-1-0-1-3-5-5-------------|


3:15   Riff L       ............                    ............  x2
e:-----------------------------------------------------------------|
B:-----------------------------------------------------------------|
G:-----------------------------------------------------------------|
D:--0---0-1-0-1-0-0-----------------0---0-1-0-1-0-0-000033332222---|
A:--0---0-1-0-1-0-0-----------------0---0-1-0-1-0-0-000033332222---|
D:--0---0-1-0-1-0-0-000000000000----0---0-1-0-1-0-0-000033332222---|

3:34   Riff M
e:------------------------|
B:------------------------|
G:--7--7\5-5\3-3-3/4------|
D:--x--x-x-x-x-x-x-x------|
A:--5--5\3-3\1-1-1/2------|
D:------------------------|


3:38  (repeat Riff A) x4

4:18  (repeat Riff I) x2

4:36  (repeat Riff H) x2

4:52        (alternate ending for Riff H)
e:-------------------------------------------------------|
B:-------------------------------------------------------|
G:-------------------------------------------15-17-17~---|
D:--6-5-6-8-10-8-10-12-13-12-13-15-17-15-17--------------|
A:-------------------------------------------------------|
D:-------------------------------------------------------|


4:55  (repeat Riff I) x4

5:31    SOLO! (i only figured out part of it... sorry)

e:----------------------------------------------11--13-13/15-13----|
B:---/13-------------11--13/15-11------------11--------------------|
G:------12~-----------------------10~-----10-----------------------|
D:----------13-12-13-----------------------------------------------|
A:-----------------------------------------------------------------|
D:-----------------------------------------------------------------|


e:---------------------------|----------------------------------------|
B:-16--13-13h15-13-11/13-----|--/13-----------------11--13/15-11------|
G:-----------------------12~-|-----12----------------------------10~--|
D:---------------------------|-------13-12-13-12-13-------------------|
A:---------------------------|----------------------------------------|
D:---------------------------|----------------------------------------|

e:------------------15-13-------15/18--15-13--------|-then---------20~--|
B:------------------------16-13--------------16-13~-|--they-------------|
G:--------------------------------------------------|---go--------------|
D:-15...fast stuff...-------------------------------|--frickin'---------|
A:--------------------------------------------------|--crazy and end on-|
D:--------------------------------------------------|-------------------|

Second Heartbeat Solo (its so good I tabbed it separately from the rest of the song)
|--------------------\10-----------------13-13\15-13--------|
|\13--------------------11--------13-16---------------------|
|----12-----------13------10--15----------------------------|
|-------13-12-13--------------------------------------------|
|-----------------------------------------------------------|
|-----------------------------------------------------------|

|----------h------------h-----------------------------------|
|-16-13-13-15-13-11-11-13-----------------------------------|
|------------------------------ 12------h--p----------------|
|----------------------------- 12-13-12----h--p-------------|
|--------------------------------------- 13-15-13-----------|
|-----------------------------------------------------------|

|----------------------- \10-----------------h--h-----|
|\13----------------------- 11------h--h--13-15-16----|
|---12--------------- 12-----10-12-13-15--------------|
|-----13-12-13-12-13----------------------------------|
|-----------------------------------------------------|
|-----------------------------------------------------|
h b 1/2
|-13-15-13-------15\18-16-15----------p---------------|
|-----------16-13-------------16-13-15-13-15----------|
|-----------------------------------------------------|
|-----------------------------------------------------|
|-----------------------------------------------------|
|-----------------------------------------------------|
b T
|------h--p--h--p----------p-p---------------------|
|----13-15-16-15-13-20-16-15-13--------------------|
|-15-----------------------------------------------|
|--------------------------------------------------|
|--------------------------------------------------|
|--------------------------------------------------|
p arpeggio thing B
|-15-11----------------------------h---h--p--p------------|
|-------13---------------h---p---13-15-16-15-13--16-------|
|----------12----------12-15-13---------------------------|
|-------------13----13------------------------------------|
|----------------15---------------------------------------|
|---------------------------------------------------------|

|-----------------------------------------------------------|
|-------------------------------h--h---------------h--h-----|
|-------------h--h-----h--h---8-10-12---h--h---10-12-13-----|
|---h---h--10-12-13--8-10-12---------10-12-13---------------|
|-10-11-13--------------------------------------------------|
|-----------------------------------------------------------|

|---------------------------------------------------------|
|--------------h--h--p--p----------h-h---p--p-------------|
|---h--h----12-13-15-13-12-----10-12-13-12-10-------------|
|-12-13-15------------------13----------------------------|
|---------------------------------------------------------|
|---------------------------------------------------------|
p p
|-18-16-15---p--p-----p--p-----------------------------------|
|----------18-16-15-16-15-13---p--p-----p--p-----------------|
|-----------------------------17-15-13-15-13-12--------------|
|------------------------------------------------------------|
|------------------------------------------------------------|
|------------------------------------------------------------|

|--------------------------------------------------------|
|--------------------------------------------------------|
|---p---p-----p--p---------------------------------------|
|-17-15-13-15-13-12----p--p------p--p--h---h-------------|
|---------------------17-15-13--15-13-11-13-15-----------|
|--------------------------------------------------------|
b1/2
|-----------------------------------------------------|
|--------------15-------------------------------------|
|-------15-12-----------------------------------------|
|----12-----------------------------------------------|
|-15--------------------------------------------------|
|-----------------------------------------------------|
h p h p
|-------15-20-15-20-15--------------------------| x4
|----16-----------------------------------------|
|-17--------------------------------------------|
|-----------------------------------------------|
|-----------------------------------------------|
|-----------------------------------------------|

|-22-22-22-18--22-22-22-18---------------------|
|----------------------------------------------|
|----------------------------------------------| x8
|----------------------------------------------|
|----------------------------------------------|
|----------------------------------------------|

|-22----------------------------------------------------|
|--------------------------h--h-----h---h-----h--h------|
|-------h---h-----h--h--12-13-15-13-15-17-15-17-19------|
|-----10-12-13-12-13-15---------------------------------|
|-------------------------------------------------------|
|-------------------------------------------------------|

|---h---p--------15-20-15-------------------------------|
|-15-16-15---16----------16---13-15-16-15-16-18---------|
|----------17--------------- 17-------------------------|
|-------------------------------------------------------|
|-------------------------------------------------------|
|-------------------------------------------------------|

|-15-16-18\20------------------------------------|
|------------------------------------------------|
|------------------------------------------------|
|------------------------------------------------|
|------------------------------------------------|
|------------------------------------------------|

Radiant Eclipse
Intro - Guitar 1
|------------------------------------|
|-10-------10-----10-9-------9-------|
|----7---7----7--------7---7---7---7-|
|------7--------7--------7-------7---|
|------------------------------------|
|------------------------------------|


Intro - Guitar 2
|------------------------------------------------------------------------------------------------------|
|------------------------------------------------------------------------------------------------------|
|------------------------------------------------------------------------------------------------------|
|------------------------------------------------------------------------------------------------------|
|-0-0-0---0-0-0---0-0-0-1--0-0-0---0-0-0---0-0-0-1--0-0-0--0---0-0-0---0-0-0-1--0-0-0---0-0-0---0-0-0-1|
|-0-0-0---0-0-0---0-0-0-1--0-0-0---0-0-0---0-0-0-1--0-0-0--0---0-0-0---0-0-0-1--0-0-0---0-0-0---0-0-0-1|
PM- - -   - - -   - - -    - - -   - - -   - - -    - - -      - - -   - - -    - - -   - - -   - - -


Guitar 2 - Those are ones
|----------------------------------|
|----------------------------------|
|----------------------------------|
|----------------------------------|
|-000-0-0-0-0-000-000-0-0-11111111-|
|-000-0-0-0-0-000-000-0-0-11111111-|
PM--- - - - - --- --- - - --------


|---------------------------------------------------|
|-/10----8/10--11\10-8-8/10----8/10-11\10--8--4-4/6-|
|---------------------------------------------------|
|-/-7----5/-7---8\7--5-5/-7----5/-7--8\-7--5--1-1/3-|
|---------------------------------------------------|
|---------------------------------------------------|


|---------------------|
|---------------------|
|---------------------|
|---------------------|
|-0--0-0-0-0--0-0-0-0-|
|-0--0-0-0-0--0-0-0-0-|
PM-  - - - -  - - - -


Verse
|----------------------------------|
|----------------------------------|
|----------------------------------|
|----------------------------------|
|-0-3-0-5-6-7--0--0-0-0-0--0-0-0-0-|
|-0-3-0-5-6-7--0--0-0-0-0--0-0-0-0-|
PM                - - - -  - - - -


|-------------------------------------------|---------------------|
|-------------------------------------------|---------------------|
|-9-9-9-11-11-11-8-8-8-10-10-10-7-7-7-9-9-9-|-9/11-14-14\11/13----|
|-------------------------------------------|---------------------|
|-7-7-7--9--9--9-6-6-6--8--8--8-5-5-5-7-7-7-|-7/-9-12-12\-9/11----|
|-------------------------------------------|---------------------|


|----------------------------------------|
|----------------------------------------|
|----------------------------------------|
|----------------------------------------|
|-3--3-0-0-0---0-0-1-0-0-3--0-0-5--0-6/7-|
|-3--3-0-0-0---0-0-1-0-0-3--0-0-5--0-6/7-|
PM   - - -     - - - - -    - -    -


|--------------------------------|
|--------------------------------|
|--------------------------------|
|--------------------------------|
|-3--3-0-0-0---0-0-1-0-3-/-5-6/7-|
|-3--3-0-0-0---0-0-1-0-3-/-5-6/7-|
PM   - - -     - - - -


|-----------------|
|-----------------|
|-----------------|
|-----------------|
|-000-0-0-0-0-000-|
|-000-0-0-0-0-000-|
PM--- - - - - ---


Pre-chorus
|--------------------------------------------------------------------------------------------|
|-11-10--8-8/10--10\6----11-10--8-8/10--10\6----11-10--8-8/10--10/13----11-10--8-8/10--10\13-|
|--------------------------------------------------------------------------------------------|
|--8--7--5-5/-7---7\3-----8--7--5-5/-7---7\3-----8--7--5-5/-7---7/10-----8--7--5-5/-7---7\10-|
|--------------------------------------------------------------------------------------------|
|--------------------------------------------------------------------------------------------|


Chorus
|---------------------------------10--------------------|------|
|-7h8p7-8-10~--8-7-8-6-8-10~--8-7----8-7-5-7-8-7--------|------|
|------------------------------------------------8h9-7~-|------|
|-------------------------------------------------------|-0----|
|-------------------------------------------------------|-0----|
|-------------------------------------------------------|-0----|


|-------------------------------|
|-------------------------------|
|-------------------------------|
|-------------------------------|
|-0-5-3-0-2-3-2-7-6-0-5-3-0-3-1-|
|-0-5-3-0-2-3-2-7-6-0-5-3-0-3-1-|
PM- - - - - - - - - - - - - - -

Clairvoyant Disease
intro
guitar 1
e:--------------------------------------------:
b:--------------------------------------------:
g:--------------------------------------------:
D:-7--5-7-8-7-5-7---------7--5-7-8-7-5-7----5-:
A:----------------8--7-8-----------------8----:
E:--------------------------------------------:

guitar 2
e:----------------------------------------------:
b:----------------------------------------------:
g:----------------------------------------------:
D:----------------------------------------------:
A:-8--7-8-10-8-7-8-5--4-5--8--7-8-10-8-7-8-5--7-:
E:----------------------------------------------:

verse
guitar 1 (clean)
e:----------5-------------1-0-5-1-0---:
b:----5-6-5---6-5-------3-----------3-:
g:----------------7-------------------:
D:--7-----------------3---------------:
A:-5-------5-5-------1-------1-1------: x4
E:------------------------------------:

guitar 2 (with slight reverb)
e:-------------10----10-:
b:---6---6---10----10---:
g:--7---7---------------:
D:-7---7----8-----8-----:
A:----------------------: x4
E:----------------------:

chorus
guitar 1
e:-----------------------------------:
b:-----------------------------------:
g:-----------------------------------:
D:-000-006\-000-008\-xx8-xx8-xx6-xx7-:
A:-000-005\-000-007\-xx8-xx7-xx5-xx6-: x4
E:-000-006\-000-008\-xx8-xx8-xx6-xx7-:

guitar 2
e:-8b-
b:----
g:----
D:----
A:----
E:----

e:----------16b(1/2)-------16b(1/2)-----------------:
b:-14-15-14----------15-14----------15b-14b-13b-14b-:
g:--------------------------------------------------:
D:--------------------------------------------------:
A:--------------------------------------------------: x2
E:--------------------------------------------------:

verse2
guitar 3
e:---------------------------------:
b:-----------------------------1/3-:
g:---------------------------2-----:
D:-0-0-2-3--2-3-5-3-2-3--3-0-------:
A:---------------------------------: x4
E:---------------------------------:

chorus

bridge
guitar 1
e:--------------------------------------:
b:--------------------------------------:
g:----------------------------------6-9-:
D:-00-88888888-00-88888888-22-33-55-----:
A:-00-88888888-00-88888888-11-33-55-4-7-: x2
E:-00-88888888-00-88888888-22-33-55-----:

guitar 2
e:-----------------------------|
b:-----5-6-5h6p5------/10-8----|
g:-7-7-----------7----------10-|
D:--7-------------7-8----------|
A:-----------------------------| x2
E:-----------------------------|

e:----------------------------------------------------:
b:-11-10-8----------8-10-8----------------------------:
g:---------10-9--10--------10-9-7--9-10-12-10-9-7-6-9-:
D:----------------------------------------------------:
A:----------------------------------------------------: x2
E:----------------------------------------------------:

guitar 1
e:---------------------------------------------------|
b:---------------------------------------------------|
g:----------33333333-55555555-10101010-9999-77777777-|
D:-00000000-33333333-55555555-10101010-9999-77777777-|
A:-00000000-11111111-33333333-8-8-8-8--7777-55555555-| x3
E:-00000000------------------------------------------|

e:-------------------------------------------------------:
b:-------------------------------------------------------:
g:----------33333333-55555555-7777-9999-1010101010101010-:
D:-00000000-33333333-55555555-7777-9999-1010101010101010-:
A:-00000000-11111111-33333333-5555-7777-8-8-8-8-8-8-8-8--: x2
E:-00000000----------------------------------------------:

guitar 2
e:------------------------------------------------------|
b:------------------------------------------------------|
g:----------33333333-55555555-10101010-99-55-5/77777777-|
D:-00000000---------------------------------------------|
A:-00000000-11111111-33333333-8-8-8-8--77-33-3/55555555-|
E:-00000000---------------------------------------------|

e:------------------------------------------|
b:------------------------------------------|
g:-77777777-99999999-10101010-9999-10101010-|
D:------------------------------------------|
A:-55555555-77777777-8-8-8-8--7777-8-8-8-8--|
E:------------------------------------------|

e:----------------------------------------------------|
b:----------------------------------------------------|
g:-3333-1010\9-9\7-7\55555555-10101010-99-55-77777777-|
D:----------------------------------------------------|
A:-1111-8-8-\7-7\5-5\33333333-8-8-8-8--77-33-55555555-|
E:----------------------------------------------------|

e:--------------------------------------------------|
b:--------------------------------------------------|
g:-33333333-55555555-14141414-9999-1010101010101010-|
D:--------------------------------------------------|
A:-11111111-33333333-12121212-7777-8-8-8-8-8-8-8-8--|
E:--------------------------------------------------|

e:---------------------------------------------------------------------:
b:---------------------------------------------------------------------:
g:-151515151515-1414-121212121212-10-9-121212-10-9999-1010101010101010-:
D:---------------------------------------------------------------------:
A:-131313131313-1212-101010101010-8--7-101010-8--7777-8-8-8-8-8-8-8-8--:
E:---------------------------------------------------------------------:

guitar 3 (with Wah)
e:-----------------------------------------------------------------------|
b:-10b(1/2)-10b-10-------------------------------------------------------|
g:-----------------12-10-9-9h10p9--------9-12-12b(full)--9-10-9----------|
D:--------------------------------10--10------------------------10-10/12-|
A:-----------------------------------------------------------------------|
E:-----------------------------------------------------------------------|

e:-----------------------------------------------------------------13-12-10-|
b:-------------------------------------------13-11-10----------10-----------|
g:---------------------------------7-9-10-9-----------12-10-12--------------|
D:-12\10-10\8-8--8/10-10/12-10--10------------------------------------------|
A:--------------------------------------------------------------------------|
E:--------------------------------------------------------------------------|

e:----------10--10\8-8\6-6-:
b:-13-11-10----------------:
g:-------------------------:
D:-------------------------:
A:-------------------------:
E:-------------------------:

chorus

guitar 1
e:-----------:
b:-----------:
g:-----------:
D:-0000-0000-:
A:-0000-0000-: x3
E:-0000-0000-:

guitar 2
e:----------------------:
b:----------------------:
g:-999999-1010-77777777-:
D:----------------------:
A:-777777-8-8--55555555-: x3
E:----------------------:

guitar1
e:---------------:
b:---------------:
g:---------------:
D:-0000-00-00000-:
A:-0000-00-00000-:
E:-0000-00-00000-:

guitar 2
e:-10(full)-10(1 1/2)-10-:
b:-----------------------:
g:-----------------------:
D:-----------------------:
A:-----------------------:
E:-----------------------:
And All Things Will End
|----------------------------------------------------------|
|----------------------------------------------------------|
|-----0-2-0---2------0-0h2-0-----------0-0h2-0-------------|
|---3-------3------2----------2-----2-3---------3-2--------|
|-5--------------3--------------3-1------------------------|
|----------------------------------------------------------|

|--------------------------------------------|
|----------2---------------------------------|
|-----3----3---------------------------------|
|---2---2--0---------------------------------|
|-0------------------------------------------|
|--------------------------------------------|

|---------------------------------------------------|
|-------------------------------5-6-----------gtr.2-|
|-------------------------------6-7-----------gtr.1-|
|-0-------------------------------------------------| repeat
|-0-------------------------------------------------|
|-0-0-0-0-0-0-0-0-0-0-0-0-0-0-----------------------|

|------------------------------------------------------|
|------------------------------------------------------|
|------------------------6h7-6-------------------gtr.1-|
|-8-7---7--------------5-------------------------------|
|-----10--10-8-7-5-7-8---------------------------------|
|------------------------------------------------------|
                                                   b 2ndx
|---------------------------------------------------|
|-----------------------------------8---------------|
|-7-5--5-----------------9h10-9---------------gtr.2-|
|-----8--8-7-5---7-8-10-----------------------------|
|--------------10-----------------------------------|
|---------------------------------------------------|

|----------------------------------------------|
|----------------------------------------------|
|----------------------------------------------|
|-0--------------------------------------------|
|-0--------------------------------------------|
|-0-0-0-0-0-0-0-0-0-0-0-0-0-0-0----------------|

|----------------------------------------------|
|----------------------------------------------|
|----------------------------------------------|
|-3--------------------------------------------|
|-3--------------------------------------------|
|-3-3-3-3-3-3-3-3-3-33-3-3-3-3-3---------------|

|--------------------------------------------------|
|--------------------------------------------------|repeat
|--------------------------------------------------|from ?
|-5------------6----------5-6-0--------------------|
|-5------------6----------5-6-0--------------------|
|-5-5-5-5-5-5-6--6-6-6-6-5-6-0---------------------|
                       b 1/2                   b 1/2
chrorus thing
|-----------------17------------------------------------|
|----18----17----------15-17p15----17----18----- gtr. 1-|
|-17----14----14----17----------17----14----------------|
|-------------------------------------------------------|
|-------------------------------------------------------|
|-------------------------------------------------------|

|------------------------------------17----------------|
|----17----18----17----18----17------------------------|
|-15----14----15----17----14----14------17------ gtr.1-|
|---------------------------------------------0--------|cont.
|---------------------------------------------0--------|
|---------------------------------------------0--------|
chorus                                   do this second ending
|-------------------------------------------------------|
|-------------------------------------------------------|
|-3-----------------------------------------------gtr.2-|
|-3---3---0--------------------3--5-5---0---------------|
|-1---3---0--------------------3--5-5---0---------------|
|-----3---0-0-0-0-0-0-0-0-0---3--5-5---0----------------|
slow part thing
|-------------------------------------------------------|
|-------------------------------------------------------|
|-----0-2-0---2-----0-0h2-0----------------------6------|
|---3-------3-----2----------2---2--s--5-8---7----------|
|-5-------------3--------------3---3-7-----7---7--------|
|-------------------------------------------------------|

|----------------------------------------------------------|
|-6---5---8p5-6p5-6--------1-------------------------------|
|-------------------------3---3--------------7-------------|
|---7---7--------------3--------3------5-5h6----6-5p0------|
|--------------------1---------------0---------------------|
|----------------------------------6-----------------------|

|---------------------------------------------------------|
|-----------------------------2---------------------------|
|-----2-2h3-2-----------2-3---3---------------------gtr.1-|
|---2---------2---2---2-------0---------------------2-----|nd x
|-0-------------0---0-------------------------------------|
|---------------------------------------------------------|
                                           over guitar one from slow 2x
|-------5------5------3-3-5-3-----------------------------|
|---6-8---8-6--6----5---------5----5----------------------|
|-7------------7--5--------------5----5/9-----------------|
|---------------------------------------------------------|
|---------------------------------------------------------|
|---------------------------------------------------------|

|---------------9---------------------------------------|
|-8-11----10---------10----8-10p8---10------------------|
|-------9-----9---10-----9---------9----10--------------|
|-------------------------------------------------------|
|-------------------------------------------------------|
|-------------------------------------------------------|

|---------8------------------------10---------------------|
|------11---11-------------9---8h9-----9-8----------------|
|---10---------10----10------9----------------------------|
|-8----------------8-----8--------------------------------|
|---------------------------------------------------------|
|---------------------------------------------------------|

|-----------------------------------9-----------------------|
|-----10-10h11-10------------10-11-11-----------------------|
|---9--------------9---9---9--------------------------gtr.2-|
|-7------------------7---7----------------------------------|
|-----------------------------------------------------------|
|-----------------------------------------------------------|
solo part over slow stuff
|------------12--12h13----------------------------------|
|-13--10-13-----------13--------------------------------|
|--------------------------12--10-9---------------------|
|--------------------------14--12-10-------12-----------|
|-------------------------------------------13----------|
|-------------------------------------------------------|

|---------h--p--10--10-8------------------------------|
|-10-10-8-10-8-----------11------14-14/17-------------|
|-10-10-9-10-9--------------9-10----------------------|
|-----------------------------------------------------|
|-----------------------------------------------------|
|-----------------------------------------------------|
distorted part  do a few times
|--------------------------------------------------------|
|--------------------------------8---8p6-10--------------|
|---------------------------\7-9---9---------------------|
|--------------------------------------------------------|
|-----5--------5--------5--------------------------------|
|-0-0---5-0-0----6-0-0---7-------------------------------|

didn't do the little solo part over that not too hard too lazy to tab it.

|-----------------------------------------------------|
|-----------------------------------------------------|
|-----------------------------6h7-6-------------------|
|-0---------------------------------------------------|
|-0---------------------------------------------------|
|-0-0-0-0-0-0-0-0-0-0-0-0-0---------------------------|

|------------------------------------------------------|
|------------------------------------------------------|
|------------------------6h7-6-------------------gtr.1-|
|-8-7---7--------------5-------------------------------|
|-----10--10-8-7-5-7-8---------------------------------|
|------------------------------------------------------|

|---------------------------------------------------|
|---------------------------------------------------|
|-7-5--5-----------------9h10-9---------------gtr.2-|
|-----8--8-7-5---7-8-10-----------------------------|
|--------------10-----------------------------------|
|---------------------------------------------------|
rad little harmony part    gtr.1
|----------------------------------------------------------|
|----------------------------------------------------------|
|----------------------------------------------------------|
|-------7-7-7-5-5-5-7-7-7--------7-7-7-10-10-10-7-7-7------|
|-5-5-5--------------------8-8-8---------------------------|
|----------------------------------------------------------|

|-----------------------------------------------------------|
|-----------------------------------------------------------|
|-----------------------------------------------------------|
|--------5-5-5-3-3-3-2-2-2-------3-3-3-------2-2-2----------|
|-3-3-3---------------------1-1-1-------0-0-0---------------|
|-----------------------------------------------------------|
gtr.2 for rad harmony part
|------------------------------------------------------------|
|------------------------------------------------------------|
|------------------------------------------------------------|
|--------10-10-10-8-8-8-10-10-10---------10-10-10------------|
|-8-8-8---------------------------12-12-12-------------------|
|------------------------------------------------------------|

|---------------------------------------------------------|
|---------------------------------------------------------|
|-10-10-10------------------------------------------------|
|-----------10-10-10--------8-8-8-7-7-7-------------------|
|---------------------7-7-7--------------10-10-10---------|
|---------------------------------------------------------|

|---------------------------------------------------|
|---------------------------------------------------|
|---------------------------------------------------|
|--------7-7-7--------5-5-5-------------------------|
|-5-5-5--------4-4-4--------------------------------|
|---------------------------------------------------|
BY francis Canavan.
comments
print report bad tab
8 comments total. Showing first comments.
0 reply
shugo449 wrote on January 4 2007, 11:18 am

pretty good
couple errors
you forgot the title track, ther is guitar, just a chugging D and E

0 reply
deathbat411 wrote on January 4 2007, 02:49 pm

did you just take all the other tabs and put them together because some of these tabs look awfully similar to the single ones...

0 reply
riggdaddy2k5 wrote on January 4 2007, 04:32 pm

deathbat411's right. i found all the ones that aren't his.
lets count off shall we:

"Chapter Four" is Thienskater's.
"Remenissions" is also Thienskater's.
"Desecrate Through Reverence" is again Thienskater's.
"Eternal Rest" is Thienskater's.
"Second Heartbeat" is funeralforafrie.
"Radiant Eclipse" is Nothingface_78's.
"And All Things Will End" is funeralforafrie's.

You also left out "I Wont See You Tonight Part 1" and "Part 2", along with "Clairvoyent Disease." Looks like the only one you did do was "Unholy Confessions." You couldn't even steal the best ones. next time, notify the owners or dont even bother.

I want to post or [tab]
guest
You may want to rate the tab now too:
select rating
Please do not post tabs as comments. Select "correction" instead!