Oops, an error
Loading. Please wait.

Warmness On The Soul Acoustic Tab

ver2
ver2

Whole song

More versions @911Tabs.com
4,403 views 9 this week
no commentswrite comment
1 2 3 4 5
excellent!
x 1
Autoscroll
+/-
esc
set tempo
stop
Contributor
Difficulty
intermediate
Hey! There's an official Ultimate Guitar app which is ideal
for learning songs when you're away from computer. Get the app
WARNING: You are trying to view
                                    content from Ultimate-Guitar.com
                                    in an unauthorized application,
                                    which is prohibited.

                                    Please use an official Ultimate
                                    Guitar Tabs application for iPhone,
                                    iPad or Android to access legitimate
                                    chords, guitar, bass, and drum tabs
                                    from Ultimate-Guitar.com database.

                                    Type "ultimate guitar tabs" in Apple
                                    App Store's or Android Market's
                                    search to find the application.
                        Warmness on the Soul (Acoustic)                         


                                                               Avenged Sevenfold
Lead Acoustic (Capo 2)



     Q    E  E  E  E  E  E     Q    E  E  E  E  E  S S  
E||--1----1--0--------------|--------------------------|
B||--3----------3-----------|--3-------------3-----1---|
G||--2-------------2--------|--3----------3----------3-|
D||--0----------------3--2--|--3-------3--------3------|
A||-------------------------|--1----1------------------|
E||-------------------------|--------------------------|


  Q.     S S E  E  E  E     Q.     S S S S S S S S S S  
-------------------------|-----------------------------|
-------------------------|--1------L---------------1-3-|
--2----------2-----0-----|--0------L---------0-2-3-----|
--3--------3----------3--|--2------L---0-2-3-----------|
--0------0------0--------|-----------3-----------------|
-------------------------|-----------------------------|


  Q    S S Q    E  E  E     Q    E  E  E  E  E  S S  
--1--------1-------0-----|--------------------------|
--3-------------------3--|--3-------------3-----1---|
--2-------------0--------|--3----------3----------3-|
--0------0---------------|--3-------3--------3------|
-------0-----------------|--1----1------------------|
-------------------------|--------------------------|


  Q.     S T T  E  E  E  E     Q    E  Q    E  E  E   
----------------------------|----------0-------------|
-------------------------1--|----------1----3--1-----|
--2----------2p-0-----0-----|------------------------|
--3--------3-------3--------|--2----2----------------|
--0------0------------------|--3------------------3--|
----------------------------|--3---------------3-----|


  Your hazel green tint eyes                                               
  Q                          E  E  E  E  E  E     E  E  E  E  E  E  E  E   
--1--------------------------------1-----------|--------------------------|
--3--------------------------------------3--1--|--3-----------3-----1-----|
--2-----------------------------2--------------|--------3--------------3--|
--0--------------------------0--------0--------|-----3-----3-----3--------|
-----------------------------------------------|--1-----------------------|
-----------------------------------------------|--------------------------|


  watching every move i make                                            
  Q                          E  E  Q    E  E     Q    E  E  Q    E  E   
----------------------------------------------|--0----------0----------|
-----------------------------------1----------|--1----------1----3--1--|
--2--------------------------------0----------|------------------------|
--3-----------------------------3----------0--|----------2-------------|
--0--------------------------0----------0-----|-------3----------------|
----------------------------------------------|------------------------|


     And that feeling of doubt...                                               
  E  E                            E  E  E  E  E  E     E  E  E  E  E  E  E  E   
----------------------------------------1-----0-----|--------------------------|
-------------------------------------------------3--|--3--------3-----------1--|
--2----------------------------------2--------------|--3-----3-----------3-----|
--0-------------------------------0--------0--------|-----3-----------3--------|
-----0----------------------------------------------|--1-----------1-----------|
----------------------------------------------------|--------------------------|


  its erased                                               
  E          E  E  E  E  E  Q       E  E  Q    E  E  Q     
----------------------------0----|------------------------|
-------------------1--------1----|----------------2--2----|
--2----------------0-------------|----------------2--2----|
--3-------------3--------0-------|--------2-------2--2----|
--0----------0--------0----------|-----3-------4----------|
---------------------------------|--3---------------------|


     I'll never feel alone again...                    
  E  E                              E  E  E  E  E  E   
--1---------------------------------------1-----------|
--3---------------------------------------------3--1--|
--2------------------------------------2--------------|
--0---------------------------------0--------0--------|
-----0------------------------------------------------|
------------------------------------------------------|


                             with you by my side                   
  E  E  E  E  E  E  E  E     Q                   E  E  Q    E  E   
--------------------------|---------------------------------------|
--3-----3--------1--------|---------------------------------------|
--3-----------3-----3-----|--2-------------------------2----------|
--3--------3--------------|--3----------------------3----------0--|
--1--1-----------------0--|--0-------------------0----------0-----|
--------------------------|---------------------------------------|


                              You're the one....                    
  Q    E  E  Q    E  E     E  E                  E  E  E  E  E  E   
--0----------0----------|------------------------------1-----------|
--1----------1----3--1--|--3---------------------------------3--1--|
------------------------|--2------------------------2--------------|
----------2-------------|--0---------------------0--------0--------|
-------3----------------|-----0------------------------------------|
------------------------|------------------------------------------|


                             and in you i                   
  E  E  E  E  E  E  E  E     Q            E  E  Q    E  E   
--------------------------|--------------------------------|
--3--------3--------1-----|---------------------1----------|
--3-----3-----3--------3--|--2------------------0----------|
--3--3-----------3--------|--3---------------3----------0--|
--1-----------------------|--0------------0----------0-----|
--------------------------|--------------------------------|


                           Confide...                      
  Q    E  E  Q    E  E     E          E  E  Q    E  E  E   
--0----------0----------|---------------------------------|
--1----------1----3--1--|--3----------------3-------1-----|
------------------------|--3----------------3----------3--|
----------0-------------|-------------0--0-------0--------|
-------0----------------|---------------------------------|
------------------------|---------------------------------|


  Q    E  E  Q    E  E     Q    E  E  Q    E  E     Q    E  E  E  Q    S  S  
--0----------0----------|--5----------5----------|--5-------1--5--3----1p-0-|
-------------1----------|--6-------6--5-------5--|--3----3------------------|
--0-------0----------0--|-------5----------5-----|--------------------------|
-------0----------0-----|------------------------|--------------------------|
------------------------|------------------------|--------------------------|
------------------------|------------------------|--------------------------|


  E  E  E  E  E  E  E  E     Q     Q    Q    Q     
-----------------1--------|-----------------------|
--3-----3-----------3-----|--3s----5--------------|
--------------------------|-----------------------|
--------------------------|-------------3----2----|
-----1-----1--1--------1--|--1s----3----3----2----|
--------------------------|-------------1----0----|


     And we have gone through....                                               
  E  E                            E  E  E  E  E  E     E  E  E  E  E  E  E  E   
--1-------------------------------------1-----0-----|--------------------------|
--3----------------------------------------------3--|--3-----------3--1--------|
--2----------------------------------2--------------|--3--------3--------3-----|
--0-------------------------------0--------0--------|--------3-----------------|
-----0----------------------------------------------|-----1-----------------0--|
----------------------------------------------------|--------------------------|


  good and bad times                                            
  Q                  E  E  Q    E  E     Q    E  E  Q    E  E   
--------------------------------------|--0----------0----------|
--------------------------------------|--1----------1----3--1--|
--2------------------------2----------|------------------------|
--3---------------------3--3-------0--|----------2-------------|
--0------------------0-----0----0-----|-------3----------------|
--------------------------------------|------------------------|


     But your unconditional...                                              
  E  E                         E  E  E  E  E  E     E  E  E  E  Q    E  E   
-------------------------------------1-----0-----|-----------3--1----0-----|
--3-------------------------------------------3--|--3-----------3-------3--|
--2-------------------------------2--------------|--3----------------------|
--0----------------------------0--------0--------|--------3----------------|
-----0-------------------------------------------|-----1-------------------|
-------------------------------------------------|-------------------------|


  love is always on my mind                                               
  E                         E  E  E  E  E  Q       E  E  Q    E  E  Q     
----------------------------------0--------0----|------------------------|
--1-------------------------------1--------1----|----------------2--2----|
--0---------------------------------------------|----------------2--2----|
-------------------------------0--------0-------|--------2-------2--2----|
----------------------------0--------0----------|-----3-------4----------|
------------------------------------------------|--3---------------------|


  You've been there from....                                                  
  E                          E  E  E  E  E  E  E     Q    E  E  E  E  E  S S  
--1-----------------------------------5-----3--1--|--------------------------|
--3-----------------------------------------------|--3-------------3-----1---|
--2--------------------------------2--------------|--3----------3----------3-|
--0-----------------------------0--------0--------|--3-------3--------3------|
-----------------------------0--------------------|-------1------------------|
--------------------------------------------------|--------------------------|


  the start for me                                            
  Q                E  E  Q    E  E     Q    E  E  Q    E  E   
------------------------------------|--0----------0----------|
-------------------------1----------|--1----------1----3--1--|
--2----------------------0----------|------------------------|
--3-------------------3----------0--|----------2-------------|
--0----------------0----------0-----|-------3----------------|
------------------------------------|------------------------|


     And your love's always been...                    
  E  E                              E  E  E  E  E  E   
------------------------------------------1-----------|
--3---------------------------------------------3-----|
--2------------------------------------2-----------2--|
--0---------------------------------0--------0--------|
-----0------------------------------------------------|
------------------------------------------------------|


                             true as can be                      
  Q    E  E  E  E  E  S S    E              E  E  E  E  E  Q     
--------------------------|--------------------------------0----|
--3-------------3-----1---|-----------------------1--------1----|
--3----------3----------3-|--2--------------------0-------------|
--x-------3--------3------|--3-----------------3--------0-------|
--1----1------------------|--0--------------0--------0----------|
--------------------------|-------------------------------------|


                            I give my heart to you...                      
  E  E  Q    E  E  E  E     E                         E  E  Q    E  E  E   
--------0----------------|------------------------------------------------|
----------------1--------|--3-------------------------------3-------1-----|
-------------------0-----|--3-------------------------------3----------3--|
-----2-------2--------3--|----------------------------0--0-------0--------|
--3----------------------|------------------------------------------------|
--3----------------------|------------------------------------------------|


  Q    E  E  Q    E  E     Q    E  E  E  E  E  E     E  E  E  E  E  E  E  E   
--0----------0----------|--1----L-----1--------0--|--1--------0--1--0--------|
-------------1----------|--3----L-----------3-----|--------3-----------3--1--|
--0-------0----------0--|--2----2--------2--------|-----2--------2-----2-----|
-------0----------0-----|--0----L-----------------|--------------------------|
------------------------|-------0--L--------------|--0-----------------------|
------------------------|-------------------------|--------------------------|


  I give my heart                                                
  E                E  E  Q    E  E  E     Q    E  E  Q    E  E   
---------------------------------------|--0----------0----------|
--3----------------------3-------1-----|-------------1----------|
--3----------------------3----------3--|--0-------0----------0--|
-------------------0--0-------0--------|-------0----------0-----|
---------------------------------------|------------------------|
---------------------------------------|------------------------|


  'Cause nothin can compare...                                              
  Q                            E  E  Q    E  E     Q    E  E  E  Q    S  S  
--5----------------------------------5----------|--5-------1--5--3----1p-0-|
--6-------------------------------6--5-------5--|--3----1------------------|
-------------------------------5----------5-----|--------------------------|
------------------------------------------------|--------------------------|
------------------------------------------------|--------------------------|
------------------------------------------------|--------------------------|


  in this workd to you                          woah                       
  E                                                  E  E  E  E  E  E  E   
-----------------------------------------------------------------1--------|
--3-----------------------------------------------------3-----------3-----|
--------------------------------------------------------------------------|
--------------------------------------------------------------------------|
-----------------------------------------------------1-----1--1--------1--|
--------------------------------------------------------------------------|


  >                                                                       
  H        S S E  E  E     H        E  E  E  E     E  E  E  E  Q    Q     
--3---------------------|-----------------------|------------------------|
--5---------------------|--3--------3-----------|------------------------|
--5------------------0--|--2--------2--0--------|------------------------|
------------------0-----|--3--------3-----3--0--|--2-----0---------------|
-------------0-3--------|-----------------------|--3--L-----3--L----0----|
-----------3------------|-----------------------|--3--L--------3----L----|


  H        Q.     E     E  E  E  E  S  E  E.  E     E   Q.     E  Q    E   
---------------------|--------------0--L--L---L--|------------------------|
---------------------|--------------1s-3--1------|--3---L------3--1----3--|
---------------------|--0-----0--2------------2--|--2s--3------0----------|
--3--------3------0--|--0--3---------------------|------------------------|
--3--------3---------|---------------------------|------------------------|
---------------------|---------------------------|------------------------|


                     |--3--|                                                  
  E   Q    E  Q.     S  S  S    H        H           S  E.  Q    S  E.  Q     
-----------------------------|--------------------|--------------0h-3--------|
--3p--1----------------------|--------------------|--------------------------|
--0---L----0--L------2h-3p-2-|--0--------0--------|--3s-5---0-----------0----|
--2---L----2--L--------------|--2--------2--------|---------2-----------2----|
--3---L----3--L--------------|--3--------3--------|---------3-----------3----|
-----------------------------|--------------------|--------------------------|


  S  E.  Q    E  Q    E     E   Q.     E  E  Q       E.  E.  E  E.  E.  S  S  
-------------------------|------------------------|--1---0------1---0---0h-1-|
----------------------3--|--3s--1------L--L--L----|----------1---------------|
--3s-5---3----L--5----3--|-------------------0----|--------------------------|
---------3----L-------3--|-------------------2----|--3---L---L--3---L---L--L-|
---------1----L----------|-------------------3----|--1---L---L--1---L---L--L-|
-------------------------|------------------------|--------------------------|


  E.  E.  E  E.  E.  E     E   Q.     E  E  Q       Q     Q    Q    Q     
--3---1---0--1---0------|----------------0--1----|--0~----L--------------|
---------------------1--|--1h--3------L----------|--5-----L--------------|
--0---L---L--0---L---L--|------------------------|--5-----L--------------|
------------------------|--3---L------L--3--L----|--5-----L----3----2----|
--3---L---L--3---L---L--|--1---L------L--1--L----|--3-----L----3----2----|
------------------------|------------------------|-------------1----0----|


  And we have gone through                                                  
  E                        E  E  E  E  E  E  E     E  E  E  E  E  E  E  E   
--1---------------------------------1-----0-----|--------------------------|
--3------------------------------------------3--|--3-----------3--1--------|
--2------------------------------2--------------|--3--------3--------3-----|
--0---------------------------0--------0--------|--------3-----------------|
---------------------------0--------------------|-----1-----------------0--|
------------------------------------------------|--------------------------|


  good and bad times                                            
  Q                  E  E  Q    E  E     Q    E  E  Q    E  E   
--------------------------------------|--0----------0----------|
---------------------------1----------|--1----------1----3--1--|
--2------------------------0----------|------------------------|
--3---------------------3----------0--|----------0-------------|
--0------------------0----------0-----|-------0----------------|
--------------------------------------|------------------------|


     But your unconditional...                                                
  E  E                         E  E  E  E  E   E     E  E  E  E  E  E  E  E   
-------------------------------------1--3--1p--0--|--------------1-----0-----|
--3-----------------------------------------------|--3-----------------------|
--2-------------------------------2---------------|--3--------3-----------3--|
--0----------------------------0------------------|--3-----3--------0--------|
-----0--------------------------------------------|-----1--------------------|
--------------------------------------------------|--------------------------|


  love is always on my mind                                               
  E                         E  E  E  E  E  Q       E  E  Q    E  E  Q     
----------------------------------0--------0----|--------0---------------|
--1-------------------------------1--------1----|----------------2--2----|
--0---------------------------------------------|----------------2--2----|
-------------------------------0--------0-------|--0-----2----2--2--2----|
----------------------------0--------0----------|-----3------------------|
------------------------------------------------|--3---------------------|


  youve been there form                                                  
  E                     E  E  E  E  E  E  E     E  E  E  E  E  E  E  E   
--1---------------------------1--5--3--1-----|--------------------------|
--3---------------------------------------3--|--------------3--1--------|
--2------------------------2-----------------|--3--------3--------3-----|
--0---------------------0--------------------|--------3-----------------|
--0------------------------------------------|-----1-----------------0--|
---------------------------------------------|--------------------------|


  the start for me                                            
  Q                E  E  Q    E  E     Q    E  E  Q    E  E   
------------------------------------|--0----------0----------|
-------------------------1----------|--1----------1----3--1--|
--2----------------------0----------|------------------------|
--3-------------------3----------0--|----------0-------------|
--0----------------0----------0-----|-------0----------------|
------------------------------------|------------------------|


     And your love's always been...                    
  E  E                              E  E  E  E  E  E   
------------------------------------------1--0--------|
--3---------------------------------------------3--1--|
--2------------------------------------2--------------|
--0---------------------------------0-----------------|
-----0------------------------------------------------|
------------------------------------------------------|


                             true as can be                      
  E  E  E  E  E  E  E  E     E              E  E  E  E  E  Q     
--------------------------|--------------------------------0----|
--------------3-----1-----|-----------------------1--------1----|
--3--------3-----------3--|--2--------------------0-------------|
--3-----3--------3--------|--3-----------------3--------0-------|
--1--1--------------------|--0--------------0--------0----------|
--------------------------|-------------------------------------|


                            I give my heart to you...                       
  E  E  Q    E  E  E  E     E                         E  E  E  E  E  E  E   
--------0----------------|-------------------------------------------------|
--------1----3--1--------|--3-------------------------------3--L-----1-----|
-------------------0-----|--3-------------------------------3--L--------3--|
-----0----------------3--|----------------------------0--0--------0--------|
--0----------------------|-------------------------------------------------|
-------------------------|-------------------------------------------------|


  Q    E  E  Q    E  E     H        E  E  E  E     E  E  E  E  E  E  E  E   
--0----------0----------|--1-----------------0--|--1--0--1--3--1--0--------|
-------------1----------|--3--------------3-----|--------------------3--1--|
--0-------0----------0--|--2--------2--2--------|--------2-----2-----2-----|
-------0----------0-----|--0--------0-----------|--------------------------|
------------------------|--0--------------------|--0-----------------------|
------------------------|-----------------------|--------------------------|


  I give my heart                                                
  E               E  E  E  E  E  E  E     Q    E  E  Q    E  E   
---------------------------------------|--0----------0----------|
--3---------------------3--L-----1-----|-------------1----------|
--3---------------------3--L--------3--|--0-------0----------0--|
------------------0--0--------0--------|-------0----------0-----|
---------------------------------------|------------------------|
---------------------------------------|------------------------|


  'Cause nothin can compare...                                              
  Q                            E  E  Q    E  E     Q    E  E  E  Q    S  S  
--5----------------------------------5----------|--5----------5--3---------|
--6-------------------------------6--5-------5--|--3-------6----------6p-5-|
-------------------------------5----------5-----|-------5------------------|
------------------------------------------------|--------------------------|
------------------------------------------------|--------------------------|
------------------------------------------------|--------------------------|


  in this world to you                                             
                                                        ^    ^     
  E                    E  E  E  E  E  E  E     H        Q    Q     
-----------------------------------1--------|--3------------------|
--3-----------------------3-----------3-----|--5------------------|
--------------------------------------------|--5------------------|
--------------------------------------------|-----------3----2----|
-----------------------1-----1--1--------1--|-----------3----2----|
--------------------------------------------|-----------1----0----|


  Let ring as long as it will can                          
  ^                                                        
  Q.                              S  T  T  E   Q     S  S  
------------------------------------10-12-13--15----13-12-|
----------------------------------------------------------|
----------------------------------------------------------|
--0-------------------------------------------------------|
--0-------------------------------------------------------|
----------------------------------------------------------|


   Q.      E  E   E   E   E      E  E  E  E  E  E  E  E   
--12------10--L-----------8--|---L-----5--3--1-----3--1--|
-----------------11------10--|---L-----6-----------------|
---------------------10------|---------------------------|
-----------------------------|------3-----------3--------|
-----------------------------|---------------------------|
-----------------------------|---------------------------|


  E  E  E  E  E  E  E  E     Q    Q    E  Q    E     H        Q    E  E   
--0-----------------------|-----------------------|----------------------|
-----3--1-----------------|-----------------------|----------------------|
-----------0--------------|-----------------------|----------------------|
--------------3--2--0-----|--0----3----L--0-------|-----------3----------|
-----------------------3--|--------------------3--|--1--------5----3--1--|
--------------------------|-----------------------|----------------------|


  Q    S S S S Q    Q       Q.      S  S  S  S  S  S  S  S  S  S  
-------------------------|------------------------------------13-|
-------------------------|---------------------------12-13-15----|
-------------------------|---------------------12-14-------------|
-------------------------|--5---------12-14-15-------------------|
--0----L-1-0---3----0----|--x------15----------------------------|
-------------3-----------|--3------------------------------------|


   Q     E   Q     Q     E      Q     E   E   E   E   E   E   
--15----17------------------|--------------------------------|
------------18----17----15--|--17----15----------15--13------|
----------------------------|------------15------15------15--|
----------------------------|----------------15--------------|
----------------------------|--------------------------------|
----------------------------|--------------------------------|


                                          |--3--|      |--3--|              
   Q     Q     Q     E   E      Q     E   S  S  S  E   S  S  S  S  S  S  S  
----------------------------|--15---------------------------------17-18-20-|
--13----------13--------13--|--13--------------18-----------18-20----------|
--14----------14----14------|---------------17----17-----17----------------|
--15----15----15------------|------------19-------19--19-------------------|
----------------------------|--------20------------------------------------|
----------------------------|----------------------------------------------|


     Do the frets of the harmonics.                                 
     PH                             PH   PH   PH    PH    PH    PH  
     Q.                             S    S    E     E     E     E   
----22-----------------------------17---25---24----22----17----22--|
--------------------------------------<>18-<>17--------------------|
--<>19-------------------------------------------<>19--------<>19--|
---------------------------------<>19------------------<>19--------|
-------------------------------------------------------------------|
-------------------------------------------------------------------|


   E   E   E   E   E   E   Q        Q    E  Q    Q    E   
--20--18------------------------|---8----8---------------|
----------18--17--15--13--11----|--10-------8----6----6--|
--------------------------10----|------------------------|
--------------------------------|------------------------|
--------------------------------|------------------------|
--------------------------------|------------------------|


                          I give my heart to you                  
  Q.     Q    E  E  E     Q                      Q    Q    E  E   
-----------------------|--1---------------------------1-------1--|
--5------6----5--3--1--|-----------------------------------------|
-----------------------|-----------------------------------------|
-----------------------|--0----------------------3----0----0-----|
-----------------------|--1----------------------1----1-------3--|
-----------------------|-----------------------------------------|


  Q    Q    Q    E  E     Q    Q    Q    E  S S  
--3----1---------0-----|--0---------1-----------|
-----------------------|-----------------3--L-L-|
--0----0---------------|------------------------|
--2---------2----2--0--|------------0----3--0-2-|
--3----3----3----------|--0----0----------------|
-----------------------|------------------------|


                                     i give my heart                  
  S S S S S S S S S S S S S S S S    Q               Q    Q    E  E   
----------------------------------|--1--------------------1-------1--|
----------------------------------|----------------------------------|
----------------0-----------0-2-0-|----------------------------------|
--3-2-0---0-2-0---3-2-0-2-3-------|--3---------------3----0----0-----|
--------3-------------------------|--1---------------1----1-------3--|
----------------------------------|----------------------------------|


                          cuz nothin ican compare                   
  Q    Q    Q    E  E     Q                       E  E  Q    E  E   
--3----1----0----0-----|--5-----------------------------5----------|
-----------------------|--6-----------------------------5----------|
--0----0---------------|--7-----------------------------5----------|
--2---------2----2--0--|--7-----------------------------7----------|
--3----3----3----------|--8--------------------------8--7-------7--|
-----------------------|--------------------------8----------8-----|


                            in this world to you              
  Q    E  E  E  Q    S S    H                    E  E  E  E   
--5----------5--3----1-0-|--------------------------1-----1--|
--6----------3--5----3-1-|--3-----------------------3-----3--|
--7----------------------|--3--------------------------------|
--7----------------------|--3-----------------------3-----3--|
--8-------8--------------|-----------------------------1-----|
-------8-----------------|-----------------------1-----------|


  H        Q    Q     
--0------------------|
--1------------------|
--0------------------|
--2--------3----2----|
--3--------3----2----|
-----------1----0----|


  |-3-| |-3-| |-3-| |-3-|  |--3--|  |--3--|  |--3--|  |--3--|  
  S S S S S S S S S S S S  S  S  S  S  S  S  S  S  S  S  S  S  
------------------------5----------------------------------10-|
------------------6---6---------------------------10----10----|
------------5---5---5--------------------10----10----10-------|
------7---7---7-----------------12----12----12----------------|
----8---8--------------------12----12-------------------------|
--8-----------------------13----------------------------------|


   W                  
---L----------------||
--------------------||
--------------------||
--------------------||
--------------------||
--------------------||




Duration Legend
---------------
W - whole
H - half
Q - quarter
E - 8th
S - 16th
T - 32nd
X - 64th
. - note dotted
|-n-|  - n-tuplets


Tablature Legend
----------------
L - tied note
x - dead note
g - grace note
(n) - ghost note
> - accentuded note
NH - natural harmonic
AH - artificial harmonic
TH - tapped harmonic
SH - semi harmonic
PH - pitch harmonic
h - hammer on
p - pull off
b - bend
br - bendRelease
pb - preBend
pbr - preBendRelease
brb - bendReleaseBend
\n/ - tremolo bar dip
\n - tremolo bar dive
-/n - tremolo bar Release up
/n\ - tremolo bar inverted dip
/n - tremolo bar return
-\n - tremolo bar Release down
S - shift slide
s - legato slide
/ -  slide into from below or out of upwards
\ -  slide into from above or out of downwards
~ - vibrato
W - wide vibrato
tr - trill
TP - tremolo picking
T - tapping
S - slap
P - pop
< - fade in
^ - brush up
v - brush down
comments
We did not receive enough feedback on this tab! Please rate:
print report bad tab
1 2 3 4 5
I want to post or [tab]
guest
You may want to rate the tab now too:
select rating
Please do not post tabs as comments. Select "correction" instead!