Oops, an error
Loading. Please wait.

Warmness On The Soul Bass Tab

ver2
ver2

Whole song

More versions @911Tabs.com
1,252 views 1 this week
no commentswrite comment
1 2 3 4 5
not so good
x 1
Autoscroll
+/-
esc
set tempo
stop
Contributor
WARNING: You are trying to view
                                    content from Ultimate-Guitar.com
                                    in an unauthorized application,
                                    which is prohibited.

                                    Please use an official Ultimate
                                    Guitar Tabs application for iPhone,
                                    iPad or Android to access legitimate
                                    chords, guitar, bass, and drum tabs
                                    from Ultimate-Guitar.com database.

                                    Type "ultimate guitar tabs" in Apple
                                    App Store's or Android Market's
                                    search to find the application.
                        Warmness On The Soul                               

                         Avenged Sevenfold

Standard Tuning (EADG)


G||-------|-------|-------|-------|-------|-------|-------|-------|
D||-------|-------|-------|-------|-------|-------|-------|-------|
A||-------|-------|-------|-------|-------|-------|-------|-------|
E||-------|-------|-------|-------|-------|-------|-------|-------|


  W                   W                   W                 
-------------------|-------------------|-------------------|
-------------------|-------------------|-------------------|
-------------------|--3----------------|-------------------|
--0----------------|-------------------|--3----------------|


  H        Q    Q       W                   W                 
---------------------|-------------------|-------------------|
---------------------|-------------------|-------------------|
--5--------5----6----|-------------------|--3----------------|
---------------------|--0----------------|-------------------|


  W                   H        Q    Q       W                 
-------------------|---------------------|-------------------|
-------------------|---------------------|-------------------|
-------------------|--5--------5----6----|-------------------|
--3----------------|---------------------|--0----------------|


  W                   W                   H        Q    Q     
-------------------|-------------------|---------------------|
-------------------|-------------------|---------------------|
--3----------------|-------------------|--5--------5----6----|
-------------------|--3----------------|---------------------|


  W                   W                   W                 
-------------------|-------------------|-------------------|
-------------------|-------------------|-------------------|
-------------------|--3----------------|-------------------|
--0----------------|-------------------|--3----------------|


  H        Q    Q       E  E  E  E  E  E  E  E     E  E  E  E  E  E  E  E   
---------------------|--------------------------|--------------------------|
---------------------|--------------------------|--------------------------|
--5--------5----6----|--3--3--3--3--3--3--3--4--|--5--5--5--5--5--5--5--6--|
---------------------|--------------------------|--------------------------|


  E  E  E  E  E  E  E  E     E  E  E  E  E  E  E  E   
--------------------------|--------------------------|
--------------------------|--------------------------|
--7--7--7--7--5--5--5--5--|--3--3--3--3--0--0--0--0--|
--------------------------|--------------------------|


  E  E  E  E  E  E  E  E     H        H           W                 
--------------------------|--------------------|-------------------|
--------------------------|--------------------|-------------------|
--0--0--0--0--0--0--0--0--|--0-----------------|-------------------|
--------------------------|--------------------|--0----------------|


  W                   W                   H        Q    Q     
-------------------|-------------------|---------------------|
-------------------|-------------------|---------------------|
--3----------------|-------------------|--5--------5----6----|
-------------------|--3----------------|---------------------|


  W                   W                   W                 
-------------------|-------------------|-------------------|
-------------------|-------------------|-------------------|
-------------------|--3----------------|-------------------|
--0----------------|-------------------|--3----------------|


  H        Q    Q       W                   W                 
---------------------|-------------------|-------------------|
---------------------|-------------------|-------------------|
--5--------5----6----|-------------------|--3----------------|
---------------------|--0----------------|-------------------|


  W                   H        Q    Q       W                 
-------------------|---------------------|-------------------|
-------------------|---------------------|-------------------|
-------------------|--5--------5----6----|-------------------|
--3----------------|---------------------|--0----------------|


  W                   W                   H        Q    Q     
-------------------|-------------------|---------------------|
-------------------|-------------------|---------------------|
--3----------------|-------------------|--5--------5----6----|
-------------------|--3----------------|---------------------|


  E  E  E  E  E  E  E  E     E  E  E  E  E  E  E  E   
--------------------------|--------------------------|
--------------------------|--------------------------|
--3--3--3--3--3--3--3--4--|--5--5--5--5--5--5--5--6--|
--------------------------|--------------------------|


  E  E  E  E  E  E  E  E     E  E  E  E  E  E  E  E   
--------------------------|--------------------------|
--------------------------|--------------------------|
--------------------------|--------------------------|
--0--0--0--0--0--0--3--2--|--0--0--0--0--0--0--3--2--|


  E  E  E  E  E  E  E  E     E  E  E  E  E  E  E  E   
--------------------------|--------------------------|
--------------------------|--------------------------|
--3--3--3--3--3--3--3--4--|--5--5--5--5--5--5--5--6--|
--------------------------|--------------------------|


  E  E  E  E  E  E  E  E     E  E  E  E  E  E  E  E   
--------------------------|--------------------------|
--------------------------|--------------------------|
--7--7--7--7--5--5--5--5--|--3--3--3--3--0--0--0--0--|
--------------------------|--------------------------|


  E  E  E  E  E  E  E  E     H        H           E  E  E  E  E  E  E  E   
--------------------------|--------------------|--------------------------|
--------------------------|--------------------|--------------------------|
--0--0--0--0--0--0--0--0--|--0-----------------|--------------------------|
--------------------------|--------------------|--0--0--0--0--0--0--2--3--|


  E  E  E  E  E  E  E  E     E  E  E  E  E  E  E  E   
--------------------------|--------------------------|
--------------------------|--------------------------|
--3--3--3--3--3--3--3--5--|--------------------------|
--------------------------|--3--3--3--3--3--3--3--2--|


  E   E   E  E  E  E  E  E     E  E  E  E  E  E  E  E   
----------------------------|--------------------------|
----------5--4--2--0--------|--------------------------|
--3~--5~--------------3--2--|--3--3--3--3--3--3--3--4--|
----------------------------|--------------------------|


  E  E  E  E  E  E  E  E     E  E  E  E  E  E  E  E   
--------------------------|--------------------------|
--------------------------|--------------------------|
--5--5--5--5--5--5--5--6--|--0--0--0--0--0--0--0--0--|
--------------------------|--------------------------|


  E  E  E  E  E  E  E  E     E  E  E  E  E  E  E  E   
--------------------------|--------------------------|
-----------5-----------7--|--------------------------|
--3--3--3-----5--5--5-----|--------------------------|
--------------------------|--3--3--3--3--3--3--3--2--|


  E  E  E  E  E  E  E  E     E  E  E  E  E  E  E  E   
--------------------------|--------------------------|
--------------------------|--------------------------|
--5--5--5--5--5--5--5--5--|--------------------------|
--------------------------|--3--3--3--3--3--3--3--5--|


  E  E  E  E  E  E  E  E     E  E  E  E  E  E  E  E     E  Q.     Q    Q     
--------------------------|--------------------------|----------------------|
--------------------------|--------------------------|----------------------|
--------------------------|--3--3--3--3--3--5--3--2--|--0-------------------|
--7--7--7--7--7--7--7--8--|--------------------------|------------3----2----|


  W                   W                   W                 
-------------------|-------------------|-------------------|
-------------------|-------------------|-------------------|
-------------------|--3----------------|-------------------|
--0----------------|-------------------|--3----------------|


  H        Q    Q       W                   W                 
---------------------|-------------------|-------------------|
---------------------|-------------------|-------------------|
--5--------5---------|-------------------|--3----------------|
----------------3----|--0----------------|-------------------|


  W                   H        Q    Q       W                 
-------------------|---------------------|-------------------|
-------------------|---------------------|-------------------|
-------------------|--5--------5----2----|-------------------|
--3----------------|---------------------|--0----------------|


  W                   W                   H        Q    Q     
-------------------|-------------------|---------------------|
-------------------|-------------------|---------------------|
--3----------------|-------------------|--5--------5---------|
-------------------|--3----------------|----------------3----|


  W                   W                   W                 
-------------------|-------------------|-------------------|
-------------------|-------------------|-------------------|
-------------------|--3----------------|-------------------|
--0----------------|-------------------|--3----------------|


  H        Q    Q       E  E  E  E  E  E  E  E     E  E  E  E  E  E  E  E   
---------------------|--------------------------|--------------------------|
---------------------|--------------------------|--------------------------|
--5--------5---------|--3--3--3--3--3--3--3--4--|--5--5--5--5--5--5--5--6--|
----------------3----|--------------------------|--------------------------|


  E  E  E  E  E  E  E  E     E  E  E  E  E  E  E  E   
--------------------------|--------------------------|
--------------------------|--------------------------|
--------------------------|--------------------------|
--0--0--0--0--0--0--3--2--|--0--0--0--0--0--0--3--2--|


  E  E  E  E  E  E  E  E     E  E  E  E  E  E  E  E   
--------------------------|--------------------------|
--------------------------|--------------------------|
--3--3--3--3--3--3--3--4--|--5--5--5--5--5--5--5--6--|
--------------------------|--------------------------|


  E  E  E  E  E  E  E  E     E  E  E  E  E  E  E  E   
--------------------------|--------------------------|
--------------------------|--------------------------|
--7--7--7--7--5--5--5--5--|--3--3--3--3--0--0--0--0--|
--------------------------|--------------------------|


  E  E  E  E  E  E  E  E     H        H           H        E  E  E  E   
--------------------------|--------------------|-----------------------|
--------------------------|--------------------|-----------------------|
--0--0--0--0--0--0--0--0--|--0-----------------|-----------------0--2--|
--------------------------|--------------------|--0--------0--0--------|


  H        E  E  E  E     H        E  E  E  E     W                 
-----------------------|-----------------------|-------------------|
--------------0--------|-----------------------|--0----------------|
--3--------3-----2--0--|-----------------2--3--|-------------------|
-----------------------|--3--------3--3--------|-------------------|


  H        E  E  E  E     H        E  E  E  E     H        E  E  E  E   
-----------------------|-----------------------|-----------------------|
-----------------------|--------------0--------|-----------------------|
-----------------0--2--|--3--------3-----2--0--|-----------------2--3--|
--0--------0--0--------|-----------------------|--3--------3--3--------|


  H        E  E  E  E     H        E  E  E  E     H        E  E  E  E   
--------------4--4-----|--------------0--------|-----------------------|
--0--------1--------1--|--2--------4-----2--0--|-----------------------|
-----------------------|-----------------------|--3--------3--------0--|
-----------------------|-----------------------|--------------0--3-----|


  H        E  E  E  E     H        E  E  E  E     H        E  E  E  E   
-----------------------|-----------------------|-----------------------|
-----------------------|-----------------------|-----------------------|
--2--------L--2--3--2--|--0--------0--0--0-----|-----------------0--2--|
-----------------------|-----------------------|--0--------L--0--------|


  H        E  E  E  E     H        E  E  E  E     E  E  E  E  E  E  E  E   
-----------------------|-----------------------|--------------------------|
--------------0--------|-----------------------|--------------------------|
--3--------L-----2--0--|-----------------2--3--|--3--3--3--3--3--3--3--3--|
-----------------------|--3--------L--3--------|--------------------------|


  E  E  E  E  E  E  E  E     E  E  E  E  E  E  E  E   
--------------------------|--------------------------|
--------------------------|--------------------------|
--3--3--3--3--3--3--3--4--|--5--5--5--5--5--5--5--6--|
--------------------------|--------------------------|


  E  E  E  E  E  E  E  E     E  E  E  E  E  E  E  E   
--------------------------|--------------------------|
--------------------------|--------------------------|
--------------------------|--------------------------|
--0--0--0--0--0--0--3--2--|--0--0--0--0--0--0--3--2--|


  E  E  E  E  E  E  E  E     E  E  E  E  E  E  E  E   
--------------------------|--------------------------|
--------------------------|--------------------------|
--3--3--3--3--3--3--3--4--|--5--5--5--5--5--5--5--6--|
--------------------------|--------------------------|


  E  E  E  E  E  E  E  E     E  E  E  E  E  E  E  E   
--------------------------|--------------------------|
--------------------------|--------------------------|
--7--7--7--7--5--5--5--5--|--3--3--3--3--0--0--0--0--|
--------------------------|--------------------------|


  E  E  E  E  E  E  E  E                      
--------------------------|-----|-----|-----||
--------------------------|-----|-----|-----||
--0--0--0--0--0--0--0--0--|-----|-----|-----||
--------------------------|-----|-----|-----||




Duration Legend
---------------
W - whole
H - half
Q - quarter
E - 8th
S - 16th
T - 32nd
X - 64th
. - note dotted
|-n-|  - n-tuplets


Tablature Legend
----------------
L - tied note
x - dead note
g - grace note
(n) - ghost note
> - accentuded note
NH - natural harmonic
AH - artificial harmonic
TH - tapped harmonic
SH - semi harmonic
PH - pitch harmonic
h - hammer on
p - pull off
b - bend
br - bendRelease
pb - preBend
pbr - preBendRelease
brb - bendReleaseBend
\n/ - tremolo bar dip
\n - tremolo bar dive
-/n - tremolo bar Release up
/n\ - tremolo bar inverted dip
/n - tremolo bar return
-\n - tremolo bar Release down
S - shift slide
s - legato slide
/ -  slide into from below or out of upwards
\ -  slide into from above or out of downwards
~ - vibrato
W - wide vibrato
tr - trill
TP - tremolo picking
T - tapping
S - slap
P - pop
< - fade in
^ - brush up
v - brush down
comments
We did not receive enough feedback on this tab! Please rate:
1 2 3 4 5
I want to post or [tab]
guest
You may want to rate the tab now too:
select rating
Please do not post tabs as comments. Select "correction" instead!