Oops, an error
Loading. Please wait.

Welcome To The Family Tab

ver1
ver1
More versions @911Tabs.com
203,677 views 130 this week
7 commentsread comments
1 2 3 4 5
accurate
x 19
Autoscroll
+/-
esc
set tempo
stop
Contributor
Difficulty
Tuning
intermediate
D A D G B E
Hey! There's an official Ultimate Guitar app which is ideal
for learning songs when you're away from computer. Get the app
WARNING: You are trying to view
                                    content from Ultimate-Guitar.com
                                    in an unauthorized application,
                                    which is prohibited.

                                    Please use an official Ultimate
                                    Guitar Tabs application for iPhone,
                                    iPad or Android to access legitimate
                                    chords, guitar, bass, and drum tabs
                                    from Ultimate-Guitar.com database.

                                    Type "ultimate guitar tabs" in Apple
                                    App Store's or Android Market's
                                    search to find the application.
Welcome to The Family
Avenged Sevenfold
Nightmare

Transcribed by Seth Sanders {livetolieanotherday@hotmail.com}
        


D5
0 0 0 x x x     
Bb5
8 8 8 x x x     
A5
7 7 7 x x x     
G5
5 5 5 x x x
F5
3 3 3 x x x     
C/E
2 3 2 x x x

Gtr I (D A D G B E) - 'Rhythm Guitar I'
Gtr II (D A D G B E) - 'Rhythm Guitar II'
Gtr III (D A D G B E) - 'Lead Guitar I'
Gtr IV (D A D G B E) - 'Lead Guitar II'
Gtr V (D A D G B E) - 'Lead Guitar III'
Gtr VI (D A D G B E) - 'Bridge Guitar'

 Intro
  Q=200
  D5
 4/4
  Gtr I
     PM--|     ~~~~~~~~ PM--|     ~~~
  Q  E E E  Q  E   +Q   E E E  Q  E
|----------------|------------------|
|----------------|------------------|
|----------------|------------------|
|----------------|------------------|
|-0--------------|------------------|
|-0--0-0-0-/8S=7-|-(7)--0-0-0-/5S=8-|


 ~~~~~ PM--------------|               ~~~~~
                         |-3-| |-3-|
  +Q   Q  Q  E E   +E  E E E E E E E S S S S
|----------------|----------------------------||
|----------------|----------------------------||
|----------------|----------------------------||
|----------------|----------------------------||
|------0--0--0-0-|-(0)-0----------------------||
|-(8)--0--0--0-0-|-(0)-0-3h5p3-2h3p2-0h2p1p0--||


   Verse
    Gtr I
       PM--|     ~~~~~~~~ PM--|     ~~~
    Q  E E E  Q  E   +Q   E E E  Q  E
||-----------------|------------------|
||o----------------|------------------|
||-----------------|------------------|
||-----------------|------------------|
||o-0--------------|------------------|
||--0--0-0-0-/8S=7-|-(7)--0-0-0-/5S=8-|
|
|   Gtr II
|      PM--|     ~~~~~~~~ PM--|     ~~~
|   Q  E E E  Q  E   +Q   E E E  Q  E
||-----------------|------------------|
||o----------------|------------------|
||-----------------|------------------|
||-----------------|------------------|
||o-0--------------|------------------|
||--0--0-0-0-/8S=7-|-(7)--0-0-0-/5S=8-|


 ~~~~~ PM--------------|                ~~~~~
                         |-3-| |-3-|
  +Q   Q  Q  E E   +E  E E E E E E E S  S S S
|----------------|-----------------------------|
|----------------|-----------------------------|
|----------------|-----------------------------|
|----------------|-----------------------------|
|------0--0--0-0-|-(0)-0-----------------------|
|-(8)--0--0--0-0-|-(0)-0-3h5p3-2h3p2-0h=2p1p0--|
|
|~~~~~ PM--------------|
|                        |-3-| |-3-|
| +Q   Q  Q  E E   +E  E E E E E E E Q
|----------------|-----------------------------|
|----------------|-----------------------------|
|----------------|-----------------------------|
|----------------|-----------------------------|
|------0--0--0-0-|-(0)-0-----------------------|
|-(8)--0--0--0-0-|-(0)-0-3h5p3-2h3p2s7\--------|


  Gtrs I, II
     PM--|     ~~~~~~~~ PM--|     ~~~~~~~~ PM------|
  Q  E E E  Q  E   +Q   E E E  Q  E   +Q   Q  Q  E E   Q.   Q.    Q
|----------------|------------------|----------------|----------------||
|----------------|------------------|----------------|---------------o||
|----------------|------------------|----------------|----------------||
|----------------|------------------|----------------|-3----2----/7---||
|-0--------------|------------------|------0--0------|-3----3----/7--o||
|-0--0-0-0-/8S=7-|-(7)--0-0-0-/5S=8-|-(8)--0--0--0-0-|-3----2----/7---||


 Pre-Chorus
  Gtr V
  Q  Q   E E Q     Q  E E +E  E +Q
|----------------|---------------------|
|-6--6---6-6-6---|-5--5-6-(6)-8-(8)\---|
|-7--7---7-7-7---|-6--6-7-(7)-9-(9)\---|
|-x--x---x-x-x---|-x--x-x-----x--------|
|-5--5---5-5-5---|-4--4-5-(5)-7-(7)\---|
|----------------|---------------------|
|
| Gtrs I, II
| Q  Q.    E E E   Q  E Q     E  E   E
|----------------|---------------------|
|----------------|---------------------|
|----------------|---------------------|
|-8--8-----8-8-8-|-7--7-7-----7--7---7-|
|-8--8-----8-8-8-|-7--7-7-----7--7---7-|
|-8--8-----8-8-8-|-7--7-7-----7--7---7-|


  Gtr I
  PM--------------------------|               ~~~~~
                                |-3-| |-3-|
  E S S E S S E S S E S S   E E E E E E E E S S S S
|-------------------------|--------------------------|
|-------------------------|--------------------------|
|-------------------------|--------------------------|
|-------------------------|--------------------------|
|-------------------------|--------------------------|
|-8-8-8-7-7-7-8-8-8-7-7-7-|-8-8-3h5p3-2h3p2-0h2p1p0--|
|
| Gtr II
| PM--------------------------|               ~~~~~
|                               |-3-| |-3-|
| E S S E S S E S S E S S   E E E E E E E E S S S S
|-------------------------|--------------------------|
|-------------------------|--------------------------|
|-------------------------|--------------------------|
|-------------------------|--------------------------|
|-------4-4-4-5-5-5-------|--------------------------|
|-5-5-5-------------3-3-3-|-5-5-3h5p3-2h3p2-0h2p1p0--|


  Gtr III
  Q  Q   E E Q     Q  E  E  +E   E  +Q
|----------------|-------------------------|
|-6--6---6-6-6---|-5--5--6--(6)--8--(8)\---|
|-7--7---7-7-7---|-6--6--7--(7)--9--(9)\---|
|-x--x---x-x-x---|-x--x--x-------x---------|
|-5--5---5-5-5---|-4--4--5--(5)--7--(7)\---|
|----------------|-------------------------|
|
| Gtrs I, II
| Q  Q.    E E E   Q  E  Q       E   E   E
|----------------|-------------------------|
|----------------|-------------------------|
|----------------|-------------------------|
|-8--8-----8-8-8-|-7--7--7-------7---7---7-|
|-8--8-----8-8-8-|-7--7--7-------7---7---7-|
|-8--8-----8-8-8-|-7--7--7-------7---7---7-|
|
| Gtr IV
| Q  Q   E E Q     Q  E  E  +E   E  +Q
|----------------|-------------------------|
|-6--6---6-6-6---|-8--8-10-(10)-11-(11)\---|
|-7--7---7-7-7---|-9--9-10-(10)-12-(12)\---|
|-x--x---x-x-x---|-x--x--x-------x---------|
|-5--5---5-5-5---|-7--7--8--(8)-10-(10)\---|
|----------------|-------------------------|


  Gtr II
  PM--------------------------|               ~~~~~
                                |-3-| |-3-|
  E S S E S S E S S E S S   E E E E E E E E S S S S
|-------------------------|--------------------------|
|-------------------------|--------------------------|
|-------------------------|--------------------------|
|-------------------------|--------------------------|
|-------------------------|--------------------------|
|-8-8-8-7-7-7-8-8-8-7-7-7-|-8-8-3h5p3-2h3p2-0h2p1p0--|
|
| Gtr I
| PM--------------------------|               ~~~~~
|                               |-3-| |-3-|
| E S S E S S E S S E S S   E E E E E E E E S S S S
|-------------------------|--------------------------|
|-------------------------|--------------------------|
|-------------------------|--------------------------|
|-------------------------|--------------------------|
|-------------------------|--------------------------|
|-5-5-5-3-3-3-5-5-5-3-3-3-|-5-5-3h5p3-2h3p2-0h2p1p0--|
|
| W                         W
|-------------------------|--------------------------|
|-------------------------|--------------------------|
|-------------------------|--------------------------|
|-------------------------|--------------------------|
|-------------------------|--------------------------|
|-------------------------|--------------------------|


  Gtr III
  Q  Q   E E Q     Q.     Q.      Q
|----------------|---------------------|
|----------------|---------------------|
|-7--7---7-7-7---|-7------9------10\---|
|-x--x---x-x-x---|-x------x-------x----|
|-5--5---5-5-5---|-5------7-------8\---|
|----------------|---------------------|
|
| Gtr IV
| Q  Q   E E Q     Q.     Q.      Q
|----------------|---------------------|
|----------------|---------------------|
|-7--7---7-7-7---|-3------5-------7\---|
|-x--x---x-x-x---|-x------x-------x----|
|-5--5---5-5-5---|-1------3-------5\---|
|----------------|---------------------|
|
| Gtrs I, II
| Q  Q.    E E E   E  E E E  E E  E  E
|----------------|---------------------|
|----------------|---------------------|
|----------------|---------------------|
|-8--8-----8-8-8-|-8--8-8-8--8-8--8--8-|
|-8--8-----8-8-8-|-8--8-8-8--8-8--8--8-|
|-8--8-----8-8-8-|-8--8-8-8--8-8--8--8-|


  Q  Q   Q   Q     E  E E E +E   E  E  E
|----------------|-----------------------|
|----------------|-----------------------|
|-6--6---6---6---|-6--6-6-6-(6)--6--6--6-|
|-x--x---x---x---|-x--x-x-x------x--x--x-|
|-4--4---4---4---|-4--4-4-4-(4)--4--4--4-|
|----------------|-----------------------|
|
| Q  Q   Q   Q     E  E E E  E   E  E  E
|----------------|-9------9h10---9--9--9-|
|----------------|---10---------10-10-10-|
|-9--9---9---9---|------9--------9--9--9-|
|-x--x---x---x---|-----------------------|
|-7--7---7---7---|-----------------------|
|----------------|-----------------------|
|
| Q  Q.    E E E   E  E E E  E   E  E  E
|----------------|-----------------------|
|----------------|-----------------------|
|----------------|-----------------------|
|-7--7-----7-7-7-|-7--7-7-7--7---7--7--7-|
|-7--7-----7-7-7-|-7--7-7-7--7---7--7--7-|
|-7--7-----7-7-7-|-7--7-7-7--7---7--7--7-|


  Gtrs I, II
     PM----|    PM----|
  Q  S S S S Q  S S S S   Q  Q  E E Q
|-----------------------|--------------||
|-----------------------|--------------||
|-----------------------|--------------||
|-7----------5----------|-3---------8\-||
|-7----------5----------|-3-------x-8\-||
|-7--7-7-7-7-5--5-5-5-5-|-3-------x-8\-||


   Chorus
                          PM                       PM
      Q   Q.       E  E   E     Q   Q.       E  E  E
||--------------------------|------------------------|
||o-------------------------|------------------------|
||--------------------------|------------------------|
||----0---0--------0--0-----|---8---8--------8--8----|
||o---0---0--------0--0-----|---8---8--------8--8----|
||----0---0--------0--0---0-|---8---8--------8--8--8-|
|
|   Gtr III
|     ~~~~~~~             ~~~~~~~~~
|     Q   Q     E  E  E   E    +Q.      Q    E  E  E
||--------------------------|------------------------|
||o---------------------/11-|-(11)-----11--/10p=8----|
||---/7---7----/7h=9h10-----|---------------------10-|
||--------------------------|------------------------|
||o-------------------------|------------------------|
||--------------------------|------------------------|
|
|   Gtr IV
|     ~~~~~~~             ~~~~~~~~~
|     Q   Q     E  E  E   E    +Q.      Q    E  E  E
||--------------------------|------------------------|
||o---------------------/15-|-(15)-----15--/13p11----|
||--/10--10---/10h12h14-----|---------------------14-|
||--------------------------|------------------------|
||o-------------------------|------------------------|
||--------------------------|------------------------|


                        PM
    Q    Q.       E  E  E    Q     E  Q     E  Q
|-------------------------|--------------------------|
|-------------------------|--------------------------|
|-------------------------|--------------------------|
|---3----3--------3--3----|--2-----2--2-----2--2-----|
|---3----3--------3--3----|--3-----3--3-----3--3-----|
|---3----3--------3--3--3-|--2-----2--2-----2--2-----|
|
|   ~~~~        ~~
|  +Q    E   E  Q    E  E    E  E  E  E  E  E  E  E
|-------------------------|--------------------------|
|--------8----------------|-13----------13----13-----|
|-(10)------10p=9---10h12-|----12p10h12----12----12--|
|-------------------------|--------------------------|
|-------------------------|--------------------------|
|-------------------------|--------------------------|
|
|   ~~~~        ~~
|  +Q    E   E  Q    E  E    E  E  E  E  E  E  E  E
|-------------------------|--------------------------|
|-------11----------------|-17----------17----17-----|
|-(14)------14p12---14h15-|----15p14h15----15----15--|
|-------------------------|--------------------------|
|-------------------------|--------------------------|
|-------------------------|--------------------------|


                        PM                       PM
    Q   Q.       E  E   E     Q   Q.       E  E  E
|-------------------------|------------------------|
|-------------------------|------------------------|
|-------------------------|------------------------|
|---0---0--------0--0-----|---8---8--------8--8----|
|---0---0--------0--0-----|---8---8--------8--8----|
|---0---0--------0--0---0-|---8---8--------8--8--8-|
|
|   ~~~~~~~             ~~~~~~~~~
|   Q   Q     E  E  E   E    +Q.      Q    E  E  E
|-------------------------|------------------------|
|---------------------/11-|-(11)-----11--/10p=8----|
|--/7---7----/7h=9h10-----|---------------------10-|
|-------------------------|------------------------|
|-------------------------|------------------------|
|-------------------------|------------------------|
|
|   ~~~~~~~             ~~~~~~~~~
|   Q   Q     E  E  E   E    +Q.      Q    E  E  E
|-------------------------|------------------------|
|---------------------/15-|-(15)-----15--/13p11----|
|-/10--10---/10h12h14-----|---------------------14-|
|-------------------------|------------------------|
|-------------------------|------------------------|
|-------------------------|------------------------|


  1.
                        PM
    Q    Q.       E  E  E    E  E  E  E  E  E  E  E
|-------------------------|--------------------------||
|-------------------------|-------------------------o||
|-----------------5--5----|--6--6--6--6--6--6--6--6--||
|---3----3--------3--3----|--7--7--7--7--7--7--7--7--||
|---3----3--------3--3----|--4--4--4--4--4--4--4--4-o||
|---3----3--------3--3--3-|--------------------------||
|
|   ~~~~        ~~
|  +Q    E   E  Q    E  E    E  E  E  E  E  E  E  E
|-------------------------|-----9h10p=9h12p=9--------||
|--------8----------------|-10----------------10----o||
|-(10)------10p=9---10h12-|-----------------------9--||
|-------------------------|--------------------------||
|-------------------------|-------------------------o||
|-------------------------|--------------------------||
|
|   ~~~~        ~~
|  +Q    E   E  Q    E  E    E  E  E  E  E  E  E  E
|-------------------------|----12h13p12h15p12--------||
|-------11----------------|-13----------------13----o||
|-(14)------14p12---14h15-|----------------------12--||
|-------------------------|--------------------------||
|-------------------------|-------------------------o||
|-------------------------|--------------------------||


  2.
             PM----------|           PM------|
    Q        S S    S    S  Q        S  S  S  S    Q   Q  H
|-----------------------------------------------|---------------||
|-----------------------------------------------|---------------||
|-----------------------------------------------|---------------||
|---7-----------------------5-------------------|--3------------||
|---7-----------------------5-------------------|--3------------||
|---7--------7-7----7----7--5--------5--5--5--5-|--3------------||
|
|                                                  ~~~
|   |--3--|  |----3----|    |--3--|
|   E  E  E  E    E    E    E  E  E  S  S  S  S    H.        Q
|-/13p10----------------------------------10h15-|-13------------||
|--------10----------------------------10-------|---------------||
|-----------10----------------------10----------|---------------||
|----------------12--------------12-------------|---------------||
|---------------------13p==10h13----------------|---------------||
|-----------------------------------------------|---------------||
|
|                                                  ~~~
|   |--3--|  |----3----|    |--3--|
|   E  E  E  E    E    E    E  E  E  S  S  S  S    H.        Q
|-/17p13----------------------------------13h18-|-17------------||
|--------15----------------------------15-------|---------------||
|-----------14----------------------14----------|---------------||
|----------------15--------------15-------------|---------------||
|---------------------17p==13h17----------------|---------------||
|-----------------------------------------------|---------------||


   Verse
    Gtr I
       PM--|     ~~~~~~~~ PM--|     ~~~
    Q  E E E  Q  E   +Q   E E E  Q  E
||-----------------|------------------|
||o----------------|------------------|
||-----------------|------------------|
||-----------------|------------------|
||o-0--------------|------------------|
||--0--0-0-0-/8S=7-|-(7)--0-0-0-/5S=8-|
|
|   Gtr II
|      PM--|     ~~~~~~~~ PM--|     ~~~
|   Q  E E E  Q  E   +Q   E E E  Q  E
||-----------------|------------------|
||o----------------|------------------|
||-----------------|------------------|
||-----------------|------------------|
||o-0--------------|------------------|
||--0--0-0-0-/8S=7-|-(7)--0-0-0-/5S=8-|


 ~~~~~ PM--------------|               ~~~~~
                         |-3-| |-3-|
  +Q   Q  Q  E E   +E  E E E E E E E S S S S
|----------------|----------------------------|
|----------------|----------------------------|
|----------------|----------------------------|
|----------------|----------------------------|
|------0--0--0-0-|-(0)-0----------------------|
|-(8)--0--0--0-0-|-(0)-0-3h5p3-2h3p2-0h2p1p0--|
|
|~~~~~ PM--------------|               ~~~~~
|                        |-3-| |-3-|
| +Q   Q  Q  E E   +E  E E E E E E E S S S S
|----------------|----------------------------|
|----------------|----------------------------|
|----------------|----------------------------|
|----------------|----------------------------|
|------0--0--0-0-|-(0)-0----------------------|
|-(8)--0--0--0-0-|-(0)-0-3h5p3-2h3p2-0h6p5p0--|


  Gtrs I, II
     PM--|     ~~~~~~~~ PM--|     ~~~~~~~~ PM------|
  Q  E E E  Q  E   +Q   E E E  Q  E   +Q   Q  Q  E E   Q.   Q.    Q   4x
|----------------|------------------|----------------|----------------||
|----------------|------------------|----------------|---------------o||
|----------------|------------------|----------------|----------------||
|----------------|------------------|----------------|-3----2----/7---||
|-0--------------|------------------|------0--0------|-3----3----/7--o||
|-0--0-0-0-/8S=7-|-(7)--0-0-0-/5S=8-|-(8)--0--0--0-0-|-3----2----/7---||


 Pre-Chorus
  Gtr V
  Q  Q   E E Q     Q  E E +E  E +Q
|----------------|---------------------|
|-6--6---6-6-6---|-5--5-6-(6)-8-(8)\---|
|-7--7---7-7-7---|-6--6-7-(7)-9-(9)\---|
|-x--x---x-x-x---|-x--x-x-----x--------|
|-5--5---5-5-5---|-4--4-5-(5)-7-(7)\---|
|----------------|---------------------|
|
| Gtrs I, II
| Q  Q.    E E E   Q  E Q     E  E   E
|----------------|---------------------|
|----------------|---------------------|
|----------------|---------------------|
|-8--8-----8-8-8-|-7--7-7-----7--7---7-|
|-8--8-----8-8-8-|-7--7-7-----7--7---7-|
|-8--8-----8-8-8-|-7--7-7-----7--7---7-|


  Gtr I
  PM--------------------------|               ~~~~~
                                |-3-| |-3-|
  E S S E S S E S S E S S   E E E E E E E E S S S S
|-------------------------|--------------------------|
|-------------------------|--------------------------|
|-------------------------|--------------------------|
|-------------------------|--------------------------|
|-------------------------|--------------------------|
|-8-8-8-7-7-7-8-8-8-7-7-7-|-8-8-3h5p3-2h3p2-0h2p1p0--|
|
| Gtr II
| PM--------------------------|               ~~~~~
|                               |-3-| |-3-|
| E S S E S S E S S E S S   E E E E E E E E S S S S
|-------------------------|--------------------------|
|-------------------------|--------------------------|
|-------------------------|--------------------------|
|-------------------------|--------------------------|
|-------4-4-4-5-5-5-------|--------------------------|
|-5-5-5-------------3-3-3-|-5-5-3h5p3-2h3p2-0h2p1p0--|


  Gtr III
  Q  Q   E E Q     Q  E  E  +E   E  +Q
|----------------|-------------------------|
|-6--6---6-6-6---|-5--5--6--(6)--8--(8)\---|
|-7--7---7-7-7---|-6--6--7--(7)--9--(9)\---|
|-x--x---x-x-x---|-x--x--x-------x---------|
|-5--5---5-5-5---|-4--4--5--(5)--7--(7)\---|
|----------------|-------------------------|
|
| Gtrs I, II
| Q  Q.    E E E   Q  E  Q       E   E   E
|----------------|-------------------------|
|----------------|-------------------------|
|----------------|-------------------------|
|-8--8-----8-8-8-|-7--7--7-------7---7---7-|
|-8--8-----8-8-8-|-7--7--7-------7---7---7-|
|-8--8-----8-8-8-|-7--7--7-------7---7---7-|
|
| Gtr IV
| Q  Q   E E Q     Q  E  E  +E   E  +Q
|----------------|-------------------------|
|----------------|-8--8-10-(10)-11-(11)\---|
|-7--7---7-7-7---|-9--9-10-(10)-12-(12)\---|
|-x--x---x-x-x---|-x--x--x-------x---------|
|-5--5---5-5-5---|-7--7--8--(8)-10-(10)\---|
|----------------|-------------------------|


  Gtr II
  PM--------------------------|               ~~~~~
                                |-3-| |-3-|
  E S S E S S E S S E S S   E E E E E E E E S S S S
|-------------------------|--------------------------|
|-------------------------|--------------------------|
|-------------------------|--------------------------|
|-------------------------|--------------------------|
|-------------------------|--------------------------|
|-8-8-8-7-7-7-8-8-8-7-7-7-|-8-8-3h5p3-2h3p2-0h2p1p0--|
|
| Gtr I
| PM--------------------------|               ~~~~~
|                               |-3-| |-3-|
| E S S E S S E S S E S S   E E E E E E E E S S S S
|-------------------------|--------------------------|
|-------------------------|--------------------------|
|-------------------------|--------------------------|
|-------------------------|--------------------------|
|-------------------------|--------------------------|
|-5-5-5-3-3-3-5-5-5-3-3-3-|-5-5-3h5p3-2h3p2-0h2p1p0--|
|
| W                         W
|-------------------------|--------------------------|
|-------------------------|--------------------------|
|-------------------------|--------------------------|
|-------------------------|--------------------------|
|-------------------------|--------------------------|
|-------------------------|--------------------------|


  Gtr III
  Q  Q   E E Q     Q.     Q.      Q
|----------------|---------------------|
|----------------|---------------------|
|-7--7---7-7-7---|-7------9------10\---|
|-x--x---x-x-x---|-x------x-------x----|
|-5--5---5-5-5---|-5------7-------8\---|
|----------------|---------------------|
|
| Gtr IV
| Q  Q   E E Q     Q.     Q.      Q
|----------------|---------------------|
|----------------|---------------------|
|-7--7---7-7-7---|-3------5-------7\---|
|-x--x---x-x-x---|-x------x-------x----|
|-5--5---5-5-5---|-1------3-------5\---|
|----------------|---------------------|
|
| Gtrs I, II
| Q  Q.    E E E   E  E E E  E E  E  E
|----------------|---------------------|
|----------------|---------------------|
|----------------|---------------------|
|-8--8-----8-8-8-|-8--8-8-8--8-8--8--8-|
|-8--8-----8-8-8-|-8--8-8-8--8-8--8--8-|
|-8--8-----8-8-8-|-8--8-8-8--8-8--8--8-|


  Q  Q   Q   Q     E  E E E +E   E  E  E
|----------------|-----------------------|
|----------------|-----------------------|
|-6--6---6---6---|-6--6-6-6-(6)--6--6--6-|
|-x--x---x---x---|-x--x-x-x------x--x--x-|
|-4--4---4---4---|-4--4-4-4-(4)--4--4--4-|
|----------------|-----------------------|
|
| Q  Q   Q   Q     E  E E E  E   E  E  E
|----------------|-9------9h10---9--9--9-|
|----------------|---10---------10-10-10-|
|-9--9---9---9---|------9--------9--9--9-|
|-x--x---x---x---|-----------------------|
|-7--7---7---7---|-----------------------|
|----------------|-----------------------|
|
| Q  Q.    E E E   E  E E E  E   E  E  E
|----------------|-----------------------|
|----------------|-----------------------|
|----------------|-----------------------|
|-7--7-----7-7-7-|-7--7-7-7--7---7--7--7-|
|-7--7-----7-7-7-|-7--7-7-7--7---7--7--7-|
|-7--7-----7-7-7-|-7--7-7-7--7---7--7--7-|


  Gtrs I, II
     PM----|    PM----|
  Q  S S S S Q  S S S S   Q  Q  E E Q
|-----------------------|--------------||
|-----------------------|--------------||
|-----------------------|--------------||
|-7----------5----------|-3---------8\-||
|-7----------5----------|-3-------x-8\-||
|-7--7-7-7-7-5--5-5-5-5-|-3-------x-8\-||


   Chorus
                          PM                       PM
      Q   Q.       E  E   E     Q   Q.       E  E  E
||--------------------------|------------------------|
||o-------------------------|------------------------|
||--------------------------|------------------------|
||----0---0--------0--0-----|---8---8--------8--8----|
||o---0---0--------0--0-----|---8---8--------8--8----|
||----0---0--------0--0---0-|---8---8--------8--8--8-|
|
|   Gtr III
|     ~~~~~~~             ~~~~~~~~~
|     Q   Q     E  E  E   E    +Q.      Q    E  E  E
||--------------------------|------------------------|
||o---------------------/11-|-(11)-----11--/10p=8----|
||---/7---7----/7h=9h10-----|---------------------10-|
||--------------------------|------------------------|
||o-------------------------|------------------------|
||--------------------------|------------------------|
|
|   Gtr IV
|     ~~~~~~~             ~~~~~~~~~
|     Q   Q     E  E  E   E    +Q.      Q    E  E  E
||--------------------------|------------------------|
||o---------------------/15-|-(15)-----15--/13p11----|
||--/10--10---/10h12h14-----|---------------------14-|
||--------------------------|------------------------|
||o-------------------------|------------------------|
||--------------------------|------------------------|


                        PM
    Q    Q.       E  E  E    Q     E  Q     E  Q
|-------------------------|--------------------------|
|-------------------------|--------------------------|
|-------------------------|--------------------------|
|---3----3--------3--3----|--2-----2--2-----2--2-----|
|---3----3--------3--3----|--3-----3--3-----3--3-----|
|---3----3--------3--3--3-|--2-----2--2-----2--2-----|
|
|   ~~~~        ~~
|  +Q    E   E  Q    E  E    E  E  E  E  E  E  E  E
|-------------------------|--------------------------|
|--------8----------------|-13----------13----13-----|
|-(10)------10p=9---10h12-|----12p10h12----12----12--|
|-------------------------|--------------------------|
|-------------------------|--------------------------|
|-------------------------|--------------------------|
|
|   ~~~~        ~~
|  +Q    E   E  Q    E  E    E  E  E  E  E  E  E  E
|-------------------------|--------------------------|
|-------11----------------|-17----------17----17-----|
|-(14)------14p12---14h15-|----15p14h15----15----15--|
|-------------------------|--------------------------|
|-------------------------|--------------------------|
|-------------------------|--------------------------|


                        PM                       PM
    Q   Q.       E  E   E     Q   Q.       E  E  E
|-------------------------|------------------------|
|-------------------------|------------------------|
|-------------------------|------------------------|
|---0---0--------0--0-----|---8---8--------8--8----|
|---0---0--------0--0-----|---8---8--------8--8----|
|---0---0--------0--0---0-|---8---8--------8--8--8-|
|
|   ~~~~~~~             ~~~~~~~~~
|   Q   Q     E  E  E   E    +Q.      Q    E  E  E
|-------------------------|------------------------|
|---------------------/11-|-(11)-----11--/10p=8----|
|--/7---7----/7h=9h10-----|---------------------10-|
|-------------------------|------------------------|
|-------------------------|------------------------|
|-------------------------|------------------------|
|
|   ~~~~~~~             ~~~~~~~~~
|   Q   Q     E  E  E   E    +Q.      Q    E  E  E
|-------------------------|------------------------|
|---------------------/15-|-(15)-----15--/13p11----|
|-/10--10---/10h12h14-----|---------------------14-|
|-------------------------|------------------------|
|-------------------------|------------------------|
|-------------------------|------------------------|


  1.
                        PM
    Q    Q.       E  E  E    E  E  E  E  E  E  E  E
|-------------------------|--------------------------||
|-------------------------|-------------------------o||
|-----------------5--5----|--6--6--6--6--6--6--6--6--||
|---3----3--------3--3----|--7--7--7--7--7--7--7--7--||
|---3----3--------3--3----|--4--4--4--4--4--4--4--4-o||
|---3----3--------3--3--3-|--------------------------||
|
|   ~~~~        ~~
|  +Q    E   E  Q    E  E    E  E  E  E  E  E  E  E
|-------------------------|-----9h10p=9h12p=9--------||
|--------8----------------|-10----------------10----o||
|-(10)------10p=9---10h12-|-----------------------9--||
|-------------------------|--------------------------||
|-------------------------|-------------------------o||
|-------------------------|--------------------------||
|
|   ~~~~        ~~
|  +Q    E   E  Q    E  E    E  E  E  E  E  E  E  E
|-------------------------|----12h13p12h15p12--------||
|-------11----------------|-13----------------13----o||
|-(14)------14p12---14h15-|----------------------12--||
|-------------------------|--------------------------||
|-------------------------|-------------------------o||
|-------------------------|--------------------------||


  2.
             PM----------|           PM------|
    Q        S S    S    S  Q        S  S  S  S    Q   Q  H
|-----------------------------------------------|---------------||
|-----------------------------------------------|---------------||
|-----------------------------------------------|---------------||
|---7-----------------------5-------------------|--3------------||
|---7-----------------------5-------------------|--3------------||
|---7--------7-7----7----7--5--------5--5--5--5-|--3------------||
|
|                                                  ~~~
|   |--3--|  |----3----|    |--3--|
|   E  E  E  E    E    E    E  E  E  S  S  S  S    H.        Q
|-/13p10----------------------------------10h15-|-13------------||
|--------10----------------------------10-------|---------------||
|-----------10----------------------10----------|---------------||
|----------------12--------------12-------------|---------------||
|---------------------13p==10h13----------------|---------------||
|-----------------------------------------------|---------------||
|
|                                                  ~~~
|   |--3--|  |----3----|    |--3--|
|   E  E  E  E    E    E    E  E  E  S  S  S  S    H.        Q
|-/17p13----------------------------------13h18-|-17------------||
|--------15----------------------------15-------|---------------||
|-----------14----------------------14----------|---------------||
|----------------15--------------15-------------|---------------||
|---------------------17p==13h17----------------|---------------||
|-----------------------------------------------|---------------||


 Pre-Solo
   PM-------|     PM-------|            PM----|        PM----|
   S    S S S q   S    S S S Q     +q   S S S S  q     S S S S
|-------------------------------|------------------------------|
|-------------------------------|------------------------------|
|-------------------------------|------------------------------|
|-------------------------------|------------------------------|
|-------------------------------|------------------------------|
|--0----0-0-0-0---0----0-0-0-0--|--(0)--0-0-0-0--0-----0-0-0-0-|
|
| Gtr III
|                                   ~~~~
|  H              H                +H            H
|-10-------------10-------------|-(10)----------10-------------|
|-13b15----------13b15----------|-(13)----------13b15----------|
|-------------------------------|------------------------------|
|-------------------------------|------------------------------|
|-------------------------------|------------------------------|
|-------------------------------|------------------------------|
|
| Gtr IV
|                                   ~~~~
|  H              H                +H            H
|-13-------------13-------------|-(13)----------13-------------|
|-16b18----------16b18----------|-(16)----------16b18----------|
|-------------------------------|------------------------------|
|-------------------------------|------------------------------|
|-------------------------------|------------------------------|
|-------------------------------|------------------------------|


            PM-------|            PM----|
   h        S    S S S q      Q   S S S S  q     Q
|-------------------------|-------------------------|
|-------------------------|-------------------------|
|-------------------------|-------------------------|
|-------------------------|-------------------------|
|-------------------------|-------------------------|
|--0--------0----0-0-0-0--|-------0-0-0-0--0--------|
|
|                             ~~~~
|  H        H                +H            h
|-13-------13-------------|-(13)----------13--------|
|-16b18----16b18----------|-(16)----------16b18-----|
|-------------------------|-------------------------|
|-------------------------|-------------------------|
|-------------------------|-------------------------|
|-------------------------|-------------------------|
|
|                             ~~~~
|  H        H                +H            h
|-10-------10-------------|-(10)----------10--------|
|-13b15----13b15----------|-(13)----------13b15-----|
|-------------------------|-------------------------|
|-------------------------|-------------------------|
|-------------------------|-------------------------|
|-------------------------|-------------------------|


   PM-------|     PM-------|            PM----|        PM----|
   S    S S S q   S    S S S Q     +q   S S S S  q     S S S S
|-------------------------------|------------------------------|
|-------------------------------|------------------------------|
|-------------------------------|------------------------------|
|-------------------------------|------------------------------|
|-------------------------------|------------------------------|
|--0----0-0-0-0---0----0-0-0-0--|--(0)--0-0-0-0--0-----0-0-0-0-|
|
|                                   ~~~~
|  H              H                +H            H
|-10-------------10-------------|-(10)----------10-------------|
|-13b15----------13b15----------|-(13)----------13b15----------|
|-------------------------------|------------------------------|
|-------------------------------|------------------------------|
|-------------------------------|------------------------------|
|-------------------------------|------------------------------|
|
|                                   ~~~~
|  H              H                +H            H
|-13-------------13-------------|-(13)----------13-------------|
|-16b18----------16b18----------|-(16)----------16b18----------|
|-------------------------------|------------------------------|
|-------------------------------|------------------------------|
|-------------------------------|------------------------------|
|-------------------------------|------------------------------|


         PM------------|
   q     E E  E    E E E     E    E E E H
|------------------------|-------------------||
|------------------------|-------------------||
|------------------------|-------------------||
|------------------------|-------------------||
|------------------------|-------------------||
|--0-----0-0--3----0-0-0-|---3p===0h3p0------||
|
|  H          H             +w
|-10---------10----------|-(10)--------------||
|-13b15------13b15-------|-(13)--------------||
|------------------------|-------------------||
|------------------------|-------------------||
|------------------------|-------------------||
|------------------------|-------------------||
|
|  W                         w
|-13---------------------|--13---------------||
|-16b18------------------|--16b18------------||
|------------------------|-------------------||
|------------------------|-------------------||
|------------------------|-------------------||
|------------------------|-------------------||


 Guitar Solo - take it away, Mr. Gates.
  Bb5                 A5
  Gtrs I, II
    Q   Q.   E  E E   Q   E  Q   E  E E
    |   |    |  | |   |   |  |   |  | |
    /   /    /  / /   /   /  /   /  / /

  Gtr III
    ~~~~~~~~~~~~~~~~~~~~~~~~~~~~~~~~~~
    H.          Q     Q.     Q.     Q
|-------------------|-------------------|
|-------------------|-------------------|
|--/7-----------7---|-6------7------9---|
|-------------------|-------------------|
|-------------------|-------------------|
|-------------------|-------------------|
|
| Gtr IV
|   ~~~~~~~~~~~~~~~~~~~~~~~~~~~~~~~~~~
|   H.          Q     Q.     Q.     Q
|-------------------|-------------------|
|-------------------|-------------------|
|-/10----------10---|-9-----10-----12---|
|-------------------|-------------------|
|-------------------|-------------------|
|-------------------|-------------------|
|
| Gtr V
|   W                 W
|-------------------|-------------------|
|-------------------|-------------------|
|-------------------|-------------------|
|-------------------|-------------------|
|-------------------|-------------------|
|-------------------|-------------------|


  D5                 D
    Q                 E     E     E           E     E     E
    |                 |     |     |           |     |     |
    /                 o     /     /           /     /     /

    ~~~~
    W
|--------------------------------------------------------------|
|--------------------------------------------------------------|
|--10----------------------------------------------------------|
|--------------------------------------------------------------|
|--------------------------------------------------------------|
|--------------------------------------------------------------|
|
|   ~~~~
|   W
|--------------------------------------------------------------|
|--------------------------------------------------------------|
|--14----------------------------------------------------------|
|--------------------------------------------------------------|
|--------------------------------------------------------------|
|--------------------------------------------------------------|
| Relentless, don't stop.
|   S  S  T  T  T  T  S  S  S  S  T  T  T  T  S  S  S  S  S  S
|-/15p13----------12h13h15-16p15p13----------------15p13-------|
|--------15p13h15-------------------15p13h15-------------15p13-|
|--------------------------------------------14----------------|
|-----------------------------------------------15-------------|
|--------------------------------------------------------------|
|--------------------------------------------------------------|


                 F           E           Eb
   S  S  E        S  S  S  S  S  S  S  S  S  S  S  S
   |  |  |        |  |  |  |  |  |  |  |  |  |  |  |
   /  /  /        o  /  /  /  o  /  /  /  o  /  /  /

   W
|-----------------------------------------------------|
|-----------------------------------------------------|
|-----------------------------------------------------|
|-----------------------------------------------------|
|-----------------------------------------------------|
|-----------------------------------------------------|
|
|  W
|-----------------------------------------------------|
|-----------------------------------------------------|
|-----------------------------------------------------|
|-----------------------------------------------------|
|-----------------------------------------------------|
|-----------------------------------------------------|
|
|  S  S  T  T  S  S  S  S  S  S  S  S  S  S  S  S  S
|-------12h13p12--------------------------------------|
|----15----------15-----------------------------------|
|-14----------------14p12h14--------------------------|
|----------------------------15p14p12-14p12p10h12-----|
|-------------------------------------------------12--|
|-----------------------------------------------------|


  Bb5                    A5
    Q   Q.   E   E   E   Q   E  Q   E  E E
    |   |    |   |   |   |   |  |   |  | |
    /   /    /   /   /   /   /  /   /  / /

    ~~~~~~~~~~~~~~~~~~~~~~~~~~~~~~~~~~~~~
    H.           Q       Q.     Q.     Q
|----------------------|-------------------|
|----------------------|-------------------|
|--/7------------7-----|-6------7------9---|
|----------------------|-------------------|
|----------------------|-------------------|
|----------------------|-------------------|
|
|   ~~~~~~~~~~~~~~~~~~~~~~~~~~~~~~~~~~~~~
|   H.           Q       Q.     Q.     Q
|----------------------|-------------------|
|----------------------|-------------------|
|-/10-----------10-----|-9-----10-----12---|
|----------------------|-------------------|
|----------------------|-------------------|
|----------------------|-------------------|
|
|   ~~~~
|   H.          +Q       W
|----------------------|-------------------|
|----------------------|-------------------|
|----------------------|-------------------|
|--12----------(12)\---|-------------------|
|----------------------|-------------------|
|----------------------|-------------------|


  D5          D
   Q           E     E     E     E     E     E
   |           |     |     |     |     |     |
   /           o     /     /     /     /     /

   ~~
   W
|-------------------------------------------------|
|-------------------------------------------------|
|-10----------------------------------------------|
|-------------------------------------------------|
|-------------------------------------------------|
|-------------------------------------------------|
|
|  ~~
|  W
|-------------------------------------------------|
|-------------------------------------------------|
|-------------------------------------------------|
|-12----------------------------------------------|
|-------------------------------------------------|
|-------------------------------------------------|
|Alternate Picked
|  S  S  S  S  S  S  S  S  S  S  S  S  S  S  S  S
|-------------------------------------------------|
|-------------------------------------------------|
|-14-12-10----------14-12-10----------14-12-10----|
|----------12-10-12----------12-10-12----------12-|
|-------------------------------------------------|
|-------------------------------------------------|


              F           E           Eb
   S  S  E     S  S  S  S  S  S  S  S  S  S  S  S
   |  |  |     |  |  |  |  |  |  |  |  |  |  |  |
   /  /  /     o  /  /  /  o  /  /  /  o  /  /  /

   W
|-------------------------------------------------|
|-------------------------------------------------|
|-------------------------------------------------|
|-------------------------------------------------|
|-------------------------------------------------|
|-------------------------------------------------|
|
|  W
|-------------------------------------------------|
|-------------------------------------------------|
|-------------------------------------------------|
|-------------------------------------------------|
|-------------------------------------------------|
|-------------------------------------------------|
|
|  S  S  S  S  S  S  S  S  S  S  S  S  S  S  S  S
|-------------------------------------------------|
|----------------------------------------11h13p11-|
|-------14-12-10----------14-12-10-12-14----------|
|-10-12----------14-12-10-------------------------|
|-------------------------------------------------|
|-------------------------------------------------|


  Bb5                          A5
    Q     Q.       E   E   E   Q   E  Q    E  E E
    |     |        |   |   |   |   |  |    |  | |
    /     /        /   /   /   /   /  /    /  / /

    ~~~~~~~~~~~~~~~~~~~~~~~~~~~~~~~~~~~~~~~~~~~~
    H.                 Q       Q.     E  Q    Q
|----------------------------|--------------------|
|----------------------------|--------------------|
|--/7------------------7-----|-6-----10s14---12---|
|----------------------------|--------------------|
|----------------------------|--------------------|
|----------------------------|--------------------|
|
|   ~~~~~~~~~~~~~~~~~~~~~~~~~~~~~~~~~~~~~~~~~~~~
|   H.                 Q       Q.     E  Q    Q
|----------------------------|--------------------|
|----------------------------|--------------------|
|-/10-----------------10-----|-9-----14s17---15---|
|----------------------------|--------------------|
|----------------------------|--------------------|
|----------------------------|--------------------|
|
|               ~~~~
|   H          +Q     +Q       W
|----------------------------|--------------------|
|--13b15------(13)---(13)\---|--------------------|
|----------------------------|--------------------|
|----------------------------|--------------------|
|----------------------------|--------------------|
|----------------------------|--------------------|


  D5                      D
   Q                       E        E     E     E        E      E
   |                       |        |     |     |        |      |
   /                       o        /     /     /        /      /

   ~~~
   W
|--------------------------------------------------------------------|
|--------------------------------------------------------------------|
|-10-----------------------------------------------------------------|
|--------------------------------------------------------------------|
|--------------------------------------------------------------------|
|--------------------------------------------------------------------|
|
|  ~~~
|  W
|--------------------------------------------------------------------|
|--------------------------------------------------------------------|
|-14-----------------------------------------------------------------|
|--------------------------------------------------------------------|
|--------------------------------------------------------------------|
|--------------------------------------------------------------------|
|Do it fast. Don't stop.
|  T  T  S  S  S  a  a  a  T  T  S  S  S  S  S  S  T  T  S   S  S  S
|-13h17p13-------------13h15h17p13-------------15h18p17p15-/20S15----|
|----------17-13----15-------------17-13--------------------------17S|
|----------------14----------------------14s17-----------------------|
|--------------------------------------------------------------------|
|--------------------------------------------------------------------|
|--------------------------------------------------------------------|


                      F                     E             Eb
   S    S     E        S    S     S    S     S   S   S  S  S  S  S  S
   |    |     |        |    |     |    |     |   |   |  |  |  |  |  |
   /    /     /        o    /     /    /     o   /   /  /  o  /  /  /

   W
|----------------------------------------------------------------------|
|----------------------------------------------------------------------|
|----------------------------------------------------------------------|
|----------------------------------------------------------------------|
|----------------------------------------------------------------------|
|----------------------------------------------------------------------|
|
|  W
|----------------------------------------------------------------------|
|----------------------------------------------------------------------|
|----------------------------------------------------------------------|
|----------------------------------------------------------------------|
|----------------------------------------------------------------------|
|----------------------------------------------------------------------|
| All Four fingers now.
|  |---3---|  |--3--|  |---3---|  |---3---|
|  S  S    S  S  S  S  S  S    S  S  S    S  S  +S   S  S  S  S  S  S
|----18h==22p18----18h22p18------18h22p==18s15-(15)s18s15--------------|
|-20------------20------------20--------------------------18p15--------|
|---------------------------------------------------------------17s14--|
|----------------------------------------------------------------------|
|----------------------------------------------------------------------|
|----------------------------------------------------------------------|


  Bb5                 A5
    Q   Q.   E  E E   Q   E  Q   E  E E
    |   |    |  | |   |   |  |   |  | |
    /   /    /  / /   /   /  /   /  / /

    ~~~~~~~~~~~~~~~~~~~~~~~~~~~~~~~~~~
    H.          Q     Q.     Q.     Q
|-------------------|-------------------|
|-------------------|-------------------|
|--/7-----------7---|-6------7------9---|
|-------------------|-------------------|
|-------------------|-------------------|
|-------------------|-------------------|
|
|   ~~~~~~~~~~~~~~~~~~~~~~~~~~~~~~~~~~
|   H.          Q     Q.     Q.     Q
|-------------------|-------------------|
|-------------------|-------------------|
|-/10----------10---|-9-----10-----12---|
|-------------------|-------------------|
|-------------------|-------------------|
|-------------------|-------------------|
|
|   ~~~~
|   W                 W
|-------------------|-------------------|
|-------------------|-------------------|
|--14---------------|-------------------|
|-------------------|-------------------|
|-------------------|-------------------|
|-------------------|-------------------|


  D5          D
   Q           E    E   E     E      E     E
   |           |    |   |     |      |     |
   /           o    /   /     /      /     /

   ~~~              ~~~
   E    +E     E    Q        +E      E     E
|-----------------------------------------------|
|-----------------------------------------------|
|--7----(7)S==10---10-------(10)S===14----14----|
|-----------------------------------------------|
|-----------------------------------------------|
|-----------------------------------------------|
|
|  ~~~              ~~~
|  E    +E     E    Q        +E      E     E
|-----------------------------------------------|
|-----------------------------------------------|
|-10---(10)S==14---14-------(14)S===17----17----|
|-----------------------------------------------|
|-----------------------------------------------|
|-----------------------------------------------|
| toooo easy.
|  S S   S  S  S S  S S S S   S   S  S  S  S  S
|-----------------------------------------------|
|--8p5-------------10p8p6-----------11p10p=8----|
|--------7p=5-------------9p==7--------------10p|
|--------------8p5---------------10-------------|
|-----------------------------------------------|
|-----------------------------------------------|


               F          E            Eb
    S   S  E    S S   S S  S  S   S  S   S   S  S  S
    |   |  |    | |   | |  |  |   |  |   |   |  |  |
    /   /  /    o /   / /  o  /   /  /   o   /  /  /

           ~~~~~~~~~~~~~~~~~~~~~~~~~~
   +E      Q          Q           E     +E      E
|--------------------12----------13----(13)S===10----|
|---------15-----------------------------------------|
|-(14)-----------------------------------------------|
|----------------------------------------------------|
|----------------------------------------------------|
|----------------------------------------------------|
|
|          ~~~~~~~~~~~~~~~~~~~~~~~~~~
|  +E      Q          Q           E     +E      E
|--------------------15----------17----(17)S===13----|
|---------18-----------------------------------------|
|-(17)-----------------------------------------------|
|----------------------------------------------------|
|----------------------------------------------------|
|----------------------------------------------------|
|
|   S   S  S S  S S   S S  S  S   S  S   S   S  S  S
|----------8p6------/10p8-------/12p10---------------|
|--------------10p8-------11p10---------10-----10h11-|
|---9---------------------------------------10-------|
|------12--------------------------------------------|
|----------------------------------------------------|
|----------------------------------------------------|


  Bb5
  Gtrs I, II
    Q     Q.        E  E  E     E  +E   E   E +E  E E +E
    |     |         |  |  |     |   |   |   |  |  | |  |
    /     /         /  /  /     /   /   /   /  /  / /  /

  Gtr III
    ~~~~~~                ~~~~~~~~~~~~~~~~~~~~~~~~~~
   +H          +E   E  E  E    +Q      +E   Q     Q    E
|-(10)--------(10)h12h13p12-|-(12)----(12)-13----12------|
|---------------------------|-------------------------15S|
|---------------------------|----------------------------|
|---------------------------|----------------------------|
|---------------------------|----------------------------|
|---------------------------|----------------------------|
|
| Gtr IV
|   ~~~~~~                ~~~~~~~~~~~~~~~~~~~~~~~~~~
|  +H          +E   E  E  E    +Q      +E   Q     Q    E
|-(13)--------(13)h15h17p15-|-(15)----(15)-17----15------|
|---------------------------|-------------------------18S|
|---------------------------|----------------------------|
|---------------------------|----------------------------|
|---------------------------|----------------------------|
|---------------------------|----------------------------|
|
|               ~~~~~
|   H          +H               W
|---------------------------|----------------------------|
|--13b15------(13)----------|----------------------------|
|---------------------------|----------------------------|
|---------------------------|----------------------------|
|---------------------------|----------------------------|
|---------------------------|----------------------------|


  A5
   Q   Q.      E  E E     E  +E  E     E  +E  E E  +E
   |   |       |  | |     |   |  |     |   |  | |   |
   /   /       /  / /     /   /  /     /   /  / /   /

   ~~~~~~~~~~     ~~~~~~~~~~~              ~~~~~~~~~~~~
   Q.      Q   E  Q      +Q      Q        +Q.      +E
|---------------------|--------------------------------|
|-14------15--17S14---|-(14)----14b15====(14)-----(14)-|
|---------------------|--------------------------------|
|---------------------|--------------------------------|
|---------------------|--------------------------------|
|---------------------|--------------------------------|
|
|  ~~~~~~~~~~     ~~~~~~~~~~~              ~~~~~~~~~~~~
|  Q.      Q   E  Q      +Q      Q        +Q.      +E
|---------------------|--------------------------------|
|-17------18--20S17---|-(17)----17b18====(17)-----(17)-|
|---------------------|--------------------------------|
|---------------------|--------------------------------|
|---------------------|--------------------------------|
|---------------------|--------------------------------|
|
|  W                      H.               q
|---------------------|------------------/17-----------|
|---------------------|--------------------------------|
|---------------------|--------------------------------|
|---------------------|--------------------------------|
|---------------------|--------------------------------|
|---------------------|--------------------------------|


  Bb5
  Gtrs I, II
    Q     Q.              E  E  E     E  +E  E  E  +E   E   E   +E
    |     |               |  |  |     |   |  |  |   |   |   |    |
    /     /               /  /  /     /   /  /  /   /   /   /    /

  Gtr III
   +H            +H                  +H            +Q      +Q
|---------------------------------|--------------------------------|
|-(14)----------(14)b17===========|=(14)----------(14)r===(14)\----|
|---------------------------------|--------------------------------|
|---------------------------------|--------------------------------|
|---------------------------------|--------------------------------|
|---------------------------------|--------------------------------|
|
| Gtr IV
|  +H            +H                  +H            +Q      +Q
|---------------------------------|--------------------------------|
|-(17)----------(17)b20===========|=(17)----------(17)r===(17)\----|
|---------------------------------|--------------------------------|
|---------------------------------|--------------------------------|
|---------------------------------|--------------------------------|
|---------------------------------|--------------------------------|
|
|   E  E  E   E   E       E  E  E     E   E  E  E   E   E   E    E
|-/18p17p15-----------------------|--------------------------------|
|------------15-------------------|--------------------------------|
|----------------15p=====14-------|--------------------------------|
|---------------------------17----|--------------------14h=15h==17-|
|------------------------------17-|--13------------15--------------|
|---------------------------------|------17p14h17------------------|


  A5                                                 A5          G5          F5          C/E
   Q           Q.                 E     E     E       Q           Q           Q           Q
   |           |                  |     |     |       |           |           |           |
   /           /                  /     /     /       /           /           /           /

   W                                                  W
|--------------------------------------------------|--------------------------------------------||
|--------------------------------------------------|--------------------------------------------||
|--------------------------------------------------|--------------------------------------------||
|--------------------------------------------------|--------------------------------------------||
|--------------------------------------------------|--------------------------------------------||
|--------------------------------------------------|--------------------------------------------||
|
|  W                                                  W
|--------------------------------------------------|--------------------------------------------||
|--------------------------------------------------|--------------------------------------------||
|--------------------------------------------------|--------------------------------------------||
|--------------------------------------------------|--------------------------------------------||
|--------------------------------------------------|--------------------------------------------||
|--------------------------------------------------|--------------------------------------------||
|
|  S  S  S  S  S   S  S  S  S  S  S  S  S  S  S  S    
|--------------------------------------------------|
|--------------------------------------------15h17p|
|-14h15h17-15-14-----------------------14h17-------|
|-----------------17p15p14----14h15h17-------------|
|--------------------------17----------------------|
|--------------------------------------------------|

  S  S  S  S  S  S  S  S  S  S  S  S  S  S  S  S
----------------------------------15----15h17h18----||
=15----------------------15h17h18----18-------------||
----14----------------14----------------------------||
-------15p14----14h15-------------------------------||
-------------17-------------------------------------||
----------------------------------------------------||

 Bridge
 3/4
  Gtrs I, II
   Q.          Q       E   H.             Q.       Q    E   H.
|------------------------|--------------|-----------------|-----------------|
|------------------------|--------------|-----------------|-----------------|
|------------------------|--------------|-----------------|-----------------|
|--0-----------0-------0-|-0------------|-2--------2----2-|-2---------------|
|--0-----------0-------0-|-0------------|-3--------3----3-|-3---------------|
|--0-----------0-------0-|-0------------|-2--------2----2-|-2---------------|
|
| Gtr V
|           ~~~~
|  Q       +Q     +Q       W              W                 W
|-20b22---(20)---(20)\---|--------------|-----------------|-----------------|
|------------------------|--------------|-----------------|-----------------|
|------------------------|--------------|-----------------|-----------------|
|------------------------|--------------|-----------------|-----------------|
|------------------------|--------------|-----------------|-----------------|
|------------------------|--------------|-----------------|-----------------|
|
| Gtr VI
|  E    E   E  E   E   E   E  E E E E E   E   E E  E E  E   E   E E  E E  E
|------------------------|--------------|-----------------|-----------------|
|------------------------|--------------|-----------------|-----------------|
|-----------7------------|-7--------7---|-------9---------|-9----------9----|
|-------7------7-------7-|----7---7---7-|----10---10---10-|----10---10---10-|
|--5---------------5-----|------5-------|-7----------7----|-------7---------|
|------------------------|--------------|-----------------|-----------------|


  Q.        Q     E    H.                  Q.     Q   E     H.
|-------------------|--------------------|--------------|------------------:
|-------------------|--------------------|-3------3---3-|---3--------------:
|-------------------|--------------------|-3------3---3-|---3--------------:
|-3---------3-----3-|--3-----------------|-0------0---0-|---0--------------:
|-3---------3-----3-|--3-----------------|-1------1---1-|---1--------------:
|-3---------3-----3-|--3-----------------|--------------|------------------:
|
| W                    W                   W                Q     Q    Q
|-------------------|--------------------|--------------|-/18----17--------:
|-------------------|--------------------|--------------|------------------:
|-------------------|--------------------|--------------|-------------17---:
|-------------------|--------------------|--------------|------------------:
|-------------------|--------------------|--------------|------------------:
|-------------------|--------------------|--------------|------------------:
|
| Gtr VI
| E   E  E  E  E  E    E   E  E  E  E  E   E  E E E E E     E  E  E E  E E
|-------------------|--------------------|--------------|------------------:
|-------10----10----|--------10----10----|------3---3---|---------3--------:
|----------10----10-|-----10----10----10-|--------3---3-|------3----3------:
|----10-------------|-10-----------------|----3---------|---3----------3---:
|-8-----------------|--------------------|-1------------|----------------1-:
|-------------------|--------------------|--------------|------------------:


     Q.          Q       E   H.             Q.     Q   E   H.
||-------------------------|--------------|--------------|---------------|
||o------------------------|--------------|--------------|---------------|
||---3-----------3-------3-|-3------------|-5------5---5-|-5-------------|
||---3-----------3-------3-|-3------------|-5------5---5-|-5-------------|
||o--1-----------1-------1-|-1------------|-3------3---3-|-3-------------|
||-------------------------|--------------|--------------|---------------|
|
|             ~~~~
|    Q       +Q     +Q       W              W              W
||-------------------------|--------------|--------------|---------------|
||o------------------------|--------------|--------------|---------------|
||--17b19---(17)---(17)\---|--------------|--------------|---------------|
||-------------------------|--------------|--------------|---------------|
||o------------------------|--------------|--------------|---------------|
||-------------------------|--------------|--------------|---------------|
|
|    E    E   E  E   E   E   E  E E E E E   E  E E E E E   E  E E E E E
||-------------------------|--------------|--------------|---------------|
||o------------------------|--------------|--------------|---------------|
||------------3------------|-3--------3---|------5-------|-5----5---5----|
||--------3------3-------3-|----3---3---3-|----5---5---5-|----5---5---5--|
||o--1---------------1-----|------1-------|-3--------3---|---------------|
||-------------------------|--------------|--------------|---------------|


  1.,2.
  Q.        Q     E    H.                  Q.     Q   E     H.              3x
|-------------------|--------------------|--------------|-------------------||
|-------------------|--------------------|-3------3---3-|---3--------------o||
|-------------------|--------------------|-3------3---3-|---3---------------||
|-3---------3-----3-|--3-----------------|-0------0---0-|---0---------------||
|-3---------3-----3-|--3-----------------|-1------1---1-|---1--------------o||
|-3---------3-----3-|--3-----------------|--------------|-------------------||
|
| W                    W                   W                Q     Q    Q    3x
|-------------------|--------------------|--------------|-/18----17---------||
|-------------------|--------------------|--------------|------------------o||
|-------------------|--------------------|--------------|-------------17----||
|-------------------|--------------------|--------------|-------------------||
|-------------------|--------------------|--------------|------------------o||
|-------------------|--------------------|--------------|-------------------||
|
| E   E  E  E  E  E    E   E  E  E  E  E   E  E E E E E     E  E  E E  E E  3x
|-------------------|--------------------|--------------|-------------------||
|-------10----10----|--------10----10----|------3---3---|---------3--------o||
|----------10----10-|-----10----10----10-|--------3---3-|------3----3-------||
|----10-------------|-10-----------------|----3---------|---3----------3----||
|-8-----------------|--------------------|-1------------|----------------1-o||
|-------------------|--------------------|--------------|-------------------||


  2.
  Q.        Q     E   Q.       Q     E
|-------------------|------------------|
|-------------------|------------------|
|-------------------|------------------|
|-3---------3-----3-|-2--------2-----2-|
|-3---------3-----3-|-3--------3-----3-|
|-3---------3-----3-|-2--------2-----2-|
|
| Gtr VI
| E   E  E  E  E  E   E   E  E E  E  E
|-------------------|------------------|
|----------10-13-10-|------------------|
|-------10----------|-9----------------|
|----10-------------|----10---------10-|
|-8-----------------|-------10-7-10----|
|-------------------|------------------|


   Q.        Q     E    Q.       Q     E
|--------------------|-------------------||
|--------------------|--5--------5-----5-||
|--------------------|--5--------5-----5-||
|--0---------0-----0-|--5--------5-----5-||
|--0---------0-----0-|--3--------3-----3-||
|--0---------0-----0-|-------------------||
|
|  E   E  E  E  E  E    E  E  E  E  E  E
|-----------------10h|=13p12p10----------||
|--------------11----|----------13-11-10-||
|-----------10-------|-------------------||
|-12-----12----------|-------------------||
|-----12-------------|-------------------||
|--------------------|-------------------||


 Pre-Chorus
 4/4
  PM|    PM|      PM|    PM|      PM----------------------|
  E E Q  E E Q    E E Q  E E Q    E E E E E E E E   E E E E Q  Q
|---------------|---------------|-----------------|---------------||
|---------------|---------------|-----------------|---------------||
|-----3------3--|-----3------3--|-----------------|---------2-----||
|-----3------3--|-----3------3--|-----------------|-2-2-2-2-2-----||
|-1-1-1--1-1-1--|-1-1-1--1-1-1--|-0-0-0-0-0-0-0-0-|-0-0-0-0-0-----||
|---------------|---------------|-----------------|---------------||


   Chorus
                          PM                       PM
      Q   Q.       E  E   E     Q   Q.       E  E  E
||--------------------------|------------------------|
||o-------------------------|------------------------|
||--------------------------|------------------------|
||----0---0--------0--0-----|---8---8--------8--8----|
||o---0---0--------0--0-----|---8---8--------8--8----|
||----0---0--------0--0---0-|---8---8--------8--8--8-|
|
|   Gtr III
|     ~~~~~~~             ~~~~~~~~~
|     Q   Q     E  E  E   E    +Q.      Q    E  E  E
||--------------------------|------------------------|
||o---------------------/11-|-(11)-----11--/10p=8----|
||---/7---7----/7h=9h10-----|---------------------10-|
||--------------------------|------------------------|
||o-------------------------|------------------------|
||--------------------------|------------------------|
|
|   Gtr IV
|     ~~~~~~~             ~~~~~~~~~
|     Q   Q     E  E  E   E    +Q.      Q    E  E  E
||--------------------------|------------------------|
||o---------------------/15-|-(15)-----15--/13p11----|
||--/10--10---/10h12h14-----|---------------------14-|
||--------------------------|------------------------|
||o-------------------------|------------------------|
||--------------------------|------------------------|


                        PM
    Q    Q.       E  E  E    Q     E  Q     E  Q
|-------------------------|--------------------------|
|-------------------------|--------------------------|
|-------------------------|--------------------------|
|---3----3--------3--3----|--2-----2--2-----2--2-----|
|---3----3--------3--3----|--3-----3--3-----3--3-----|
|---3----3--------3--3--3-|--2-----2--2-----2--2-----|
|
|   ~~~~        ~~
|  +Q    E   E  Q    E  E    E  E  E  E  E  E  E  E
|-------------------------|--------------------------|
|--------8----------------|-13----------13----13-----|
|-(10)------10p=9---10h12-|----12p10h12----12----12--|
|-------------------------|--------------------------|
|-------------------------|--------------------------|
|-------------------------|--------------------------|
|
|   ~~~~        ~~
|  +Q    E   E  Q    E  E    E  E  E  E  E  E  E  E
|-------------------------|--------------------------|
|-------11----------------|-17----------17----17-----|
|-(14)------14p12---14h15-|----15p14h15----15----15--|
|-------------------------|--------------------------|
|-------------------------|--------------------------|
|-------------------------|--------------------------|


                        PM                       PM
    Q   Q.       E  E   E     Q   Q.       E  E  E
|-------------------------|------------------------|
|-------------------------|------------------------|
|-------------------------|------------------------|
|---0---0--------0--0-----|---8---8--------8--8----|
|---0---0--------0--0-----|---8---8--------8--8----|
|---0---0--------0--0---0-|---8---8--------8--8--8-|
|
|   ~~~~~~~             ~~~~~~~~~
|   Q   Q     E  E  E   E    +Q.      Q    E  E  E
|-------------------------|------------------------|
|---------------------/11-|-(11)-----11--/10p=8----|
|--/7---7----/7h=9h10-----|---------------------10-|
|-------------------------|------------------------|
|-------------------------|------------------------|
|-------------------------|------------------------|
|
|   ~~~~~~~             ~~~~~~~~~
|   Q   Q     E  E  E   E    +Q.      Q    E  E  E
|-------------------------|------------------------|
|---------------------/15-|-(15)-----15--/13p11----|
|-/10--10---/10h12h14-----|---------------------14-|
|-------------------------|------------------------|
|-------------------------|------------------------|
|-------------------------|------------------------|


  1.
                        PM
    Q    Q.       E  E  E    E  E  E  E  E  E  E  E
|-------------------------|--------------------------||
|-------------------------|-------------------------o||
|-----------------5--5----|--6--6--6--6--6--6--6--6--||
|---3----3--------3--3----|--7--7--7--7--7--7--7--7--||
|---3----3--------3--3----|--4--4--4--4--4--4--4--4-o||
|---3----3--------3--3--3-|--------------------------||
|
|   ~~~~        ~~
|  +Q    E   E  Q    E  E    E  E  E  E  E  E  E  E
|-------------------------|-----9h10p=9h12p=9--------||
|--------8----------------|-10----------------10----o||
|-(10)------10p=9---10h12-|-----------------------9--||
|-------------------------|--------------------------||
|-------------------------|-------------------------o||
|-------------------------|--------------------------||
|
|   ~~~~        ~~
|  +Q    E   E  Q    E  E    E  E  E  E  E  E  E  E
|-------------------------|----12h13p12h15p12--------||
|-------11----------------|-13----------------13----o||
|-(14)------14p12---14h15-|----------------------12--||
|-------------------------|--------------------------||
|-------------------------|-------------------------o||
|-------------------------|--------------------------||


  2.
 6/4
   Q     Q     Q     Q     Q     Q       Q     Q     Q     Q     Q     Q
|-------------------------------------|-------------------------------------||
|-------------------------------------|-------------------------------------||
|-------------------------------------|-------------------------------------||
|--7-----7-----7-----5-----5-----5----|--3-----3-----3-----2-----2-----2----||
|--7-----7-----7-----5-----5-----5----|--3-----3-----3-----3-----3-----3----||
|--7-----7-----7-----5-----5-----5----|--3-----3-----3-----2-----2-----2----||
|
|  E  E  E  E  E  E  E  E  E  E  E  E    E  E  E  E  E  E  E  E  E  E  E  E
|-17p13-------------18p15-------------|-17p13----------13h15p12----------12-||
|-------15----------------15----------|-------15----15----------13----13----||
|----------14----------------15-------|----------14----------------12-------||
|-------------15----------------17----|-------------------------------------||
|----------------17----------------17-|-------------------------------------||
|-------------------------------------|-------------------------------------||
|
|  E  E  E  E  E  E  E  E  E  E  E  E    E  E  E  E  E  E  E  E  E  E  E  E
|-13p10-------------15p12-------------|-13p10----------10h12p=8-----------8-||
|-------11----------------13----------|-------11----11----------10----10----||
|----------10----------------12-------|----------10-----------------9-------||
|-------------12----------------14-15-|-------------------------------------||
|----------------13-------------------|-------------------------------------||
|-------------------------------------|-------------------------------------||


   Outro
   4/4
     PM-------|     PM-------|            PM----|
     S    S S S q   S    S S S Q     +q   S S S S  q     E E
||--------------------------------|--------------------------|
||o-------------------------------|--------------------------|
||--------------------------------|--------------------------|
||--------------------------------|----------------------3-6-|
||o-------------------------------|----------------------3-6-|
||---0----0-0-0-0---0----0-0-0-0--|--(0)--0-0-0-0--0-----3-6-|
|
|   Gtr III
|                                     ~~~~
|    H              H                +H            H
||--10-------------10-------------|-(10)----------10---------|
||o-13b15----------13b15----------|-(13)----------13b15------|
||--------------------------------|--------------------------|
||--------------------------------|--------------------------|
||o-------------------------------|--------------------------|
||--------------------------------|--------------------------|
|
|   Gtr IV
|                                     ~~~~
|    H              H                +H            H
||--13-------------13-------------|-(13)----------13---------|
||o-16b18----------16b18----------|-(16)----------16b18------|
||--------------------------------|--------------------------|
||--------------------------------|--------------------------|
||o-------------------------------|--------------------------|
||--------------------------------|--------------------------|


   PM-------|     PM-------|            PM----|
   S    S S S q   S    S S S Q     +q   S S S S  q     E E
|-------------------------------|----------------------------||
|-------------------------------|---------------------------o||
|-------------------------------|----------------------------||
|-------------------------------|----------------------3-6---||
|-------------------------------|----------------------3-6--o||
|--0----0-0-0-0---0----0-0-0-0--|--(0)--0-0-0-0--0-----3-6---||
|
|                                   ~~~~
|  H              H                +H            h
|-13-------------13-------------|-(13)----------13-----------||
|-16b18----------16b18----------|-(16)----------16b18-------o||
|-------------------------------|----------------------------||
|-------------------------------|----------------------------||
|-------------------------------|---------------------------o||
|-------------------------------|----------------------------||
|
|                                   ~~~~
|  H              H                +H            h
|-10-------------10-------------|-(10)----------10-----------||
|-13b15----------13b15----------|-(13)----------13b15-------o||
|-------------------------------|----------------------------||
|-------------------------------|----------------------------||
|-------------------------------|---------------------------o||
|-------------------------------|----------------------------||



Duration Legend
---------------
W - whole; H - half; Q - quarter; E - 8th; S - 16th; T - 32nd; X - 64th; a - acciaccatura
+ - note tied to previous; . - note dotted; .. - note double dotted
Uncapitalized letters represent notes that are staccato (1/2 duration)
Irregular groupings are notated above the duration line
Duration letters will always appear directly above the note/fret number it represents the
duration for.  Duration letters with no fret number below them represent rests.  Multi-
bar rests are notated in the form Wxn, where n is the number of bars to rest for.  Low
melody durations appear below the staff

Tablature Legend
----------------
 h   - hammer-on
 p   - pull-off
 b   - bend
 pb  - pre-bend
 r   - bend release (if no number after the r, then release immediately)
 /\  - slide into or out of (from/to "nowhere")
 s   - legato slide
 S   - shift slide
<n> - natural harmonic
[n]  - artificial harmonic
n(n) - tapped harmonic
 ~   - vibrato
 tr  - trill
 T   - tap
 TP  - trem. picking
 PM  - palm muting
\n/  - tremolo bar dip; n = amount to dip
 \n  - tremolo bar down
 n/  - tremolo bar up
/n\  - tremolo bar inverted dip
 =   - hold bend; also acts as connecting device for hammers/pulls
 <> - volume swell (louder/softer)
 x   - on rhythm slash represents muted slash
 o   - on rhythm slash represents single note slash

Misc Legend
-----------
 |  - bar
||  - double bar
||o - repeat start
o|| - repeat end
*|  - double bar (ending)
 :  - bar (freetime)
 $  - Segno
 &  - Coda
Tempo markers - <E/E./Q/Q./H/H.> = BPM(8/16=s8/s16), where s8 = swing 8ths, s16 = swing 16ths
comments
print report bad tab
7 comments total. Showing first comments.
+1 reply
dippy_444 wrote on July 27 2010, 06:33 am

As always good job :)

0 reply
Seth Shadows wrote on July 28 2010, 06:12 pm

thanks dude.

0 reply
M039 wrote on August 12 2010, 06:44 pm

Right in the end of the riff, I think there's something wrong, look:

E|----------------|----------------------||
B|----------------|----------------------||
G|----------------|----------------------||
D|----------------|----------------------||
A|------0--0--0-0-|-(0)-0----------------||
D|-(8)--0--0--0-0-|-(0)-0-3h5p3-2h3p2h0--||


I think that it should be like this, but thank you so much for the tab, the rest is great!

I want to post or [tab]
guest
You may want to rate the tab now too:
select rating
Please do not post tabs as comments. Select "correction" instead!