Oops, an error
Loading. Please wait.

Welcome To The Family Tab

ver2
ver2
More versions @911Tabs.com
119,635 views 353 this week
2 commentsread comments
1 2 3 4 5
excellent!
x 23
Autoscroll
+/-
esc
set tempo
stop
Contributor
Tuning
D A D G B E
Hey! There's an official Ultimate Guitar app which is ideal
for learning songs when you're away from computer. Get the app
WARNING: You are trying to view
                                    content from Ultimate-Guitar.com
                                    in an unauthorized application,
                                    which is prohibited.

                                    Please use an official Ultimate
                                    Guitar Tabs application for iPhone,
                                    iPad or Android to access legitimate
                                    chords, guitar, bass, and drum tabs
                                    from Ultimate-Guitar.com database.

                                    Type "ultimate guitar tabs" in Apple
                                    App Store's or Android Market's
                                    search to find the application.
I tabbed out Welcome to the Family since I saw that people we're requesting it.
I pretty I got right down to every note, on the exception of a few in the solo.
So its like 99% right. Enjoy and please rate it!




Legend:  /    = slide from lower frets
         \    = slide from higher frets
         ~    = virbato
         ^    = accented note
         `    = re-pick the note that is being held
         .    = palm mute
         *    = artificial harmonic/pinch harmonic
        [ ]   = natural harmonic
         b    = bend string
         r    = release bend
        sb    = slow bend
         V    = heavy vibrato
         w\   = drop the pitch of the note using the whammy bar
         x/   = slide pick from left to right (ascending scratchy noise)
         x\   = slide pick from right to left (descending scratchy noise)
        ===   = tremelo pick
        X2    = play multiple times
        ( )   = ghost note (does not need to be picked)
        { }   = just to group up the notes
        '''   = hold note (usually only applied if something changes
                in the note after being held for a while)

______________________________________________________________________________



All Guitars are tuned to Drop D.


Guitar 1 - Left ear guitar and Lead during Bridge
Guitar 2 - Right ear guitar and Rythym during  Bridge
Guitar 3 - Overdubbed Rythyms
Guitar 4 - Overdubbed Solo




INTRO


Guitar 1
E|---------------------------------------------------------------------------------|
B|---------------------------------------------------------------------------------|
G|---------------------------------------------------------------------------------|
D|---------------------------------------------------------------------------------|
A|-0----0--0--0-------------0--0--0--------------0---0---0-0---0-------------------|
D|-0----0--0--0--3/8--7~----0--0--0--3/7--7~-----0---0---0-0---0-3h5p3-2h3p2-2h3p2-|
        .  .  .             .  .  .              .   .   . .   .




VERSE I


Guitars 1 & 2
E|---------------------------------------------------------------------------------|-----|
B|---------------------------------------------------------------------------------|     |
G|---------------------------------------------------------------------------------|     |
D|---------------------------------------------------------------------------------|     |
A|-0----0--0--0-------------0--0--0--------------0---0---0-0---0-------------------|     |
D|-0----0--0--0--3/8--7~----0--0--0--3/7--7~-----0---0---0-0---0-3h5p3-2h3p2-2h3p2-|     |
        .  .  .             .  .  .              .   .   . .   .                         |
                                                                                        X2
                                                                                         |
E|-------------------------------------------------------------------------|             |
B|-------------------------------------------------------------------------|             |
G|-------------------------------------------------------------------------|             |
D|-------------------------------------------------------------------------|             |
A|-0----0--0--0-------------0--0--0--------------0---0---0-0-3----2---/7---|             |
D|-0----0--0--0--3/8--7~----0--0--0--3/7--7~-----0---0---0-0-3----2---/7---|-------------|
        .  .  .             .  .  .              .   .   . .



Guitar 1
E|----------------------------------------------------------------------|
B|----------------------------------------------------------------------|
G|----------------------------------------------------------------------|
D|-8---8----8-8---7---7-7---7-7-7---------------------------------------|
A|-8---8----8-8---7---7-7---7-7-7---------------------------------------|
D|-8---8----8-8---7---7-7---7-7-7-3-5-3-3-3-5-3-3-3-5-3h5p3-2h3p2-2h3p2-|
                                  . . . . . . . . . .

Guitar 2
E|----------------------------------------------------------------------|
B|----------------------------------------------------------------------|
G|----------------------------------------------------------------------|
D|-8---8----8-8---7---7-7---7-7-7---------------------------------------|
A|-8---8----8-8---7---7-7---7-7-7---------------------------------------|
D|-8---8----8-8---7---7-7---7-7-7-7-8-7-6-7-8-7-6-7-8-3h5p3-2h3p2-2h3p2-|
                                  . . . . . . . . . .

Guitar 3
E|--------------------------------------------------|
B|--------------------------------------------------|
G|-7--7---7-7\6-6--/7-7--/9-9---7\------------------|
D|--------------------------------------------------|
A|-5--5---5-5\4-4--/5-5--/7-7---5\------------------|
D|--------------------------------------------------|




Guitar 1
E|----------------------------------------------------------------------|
B|----------------------------------------------------------------------|
G|----------------------------------------------------------------------|
D|-8---8----8-8---7---7-7---7-7-7---------------------------------------|
A|-8---8----8-8---7---7-7---7-7-7---------------------------------------|
D|-8---8----8-8---7---7-7---7-7-7-3-5-3-3-3-5-3-3-3-5-3h5p3-2h3p2-2h3p2-|
                                  . . . . . . . . . .

Guitar 2
E|----------------------------------------------------------------------|
B|----------------------------------------------------------------------|
G|----------------------------------------------------------------------|
D|-8---8----8-8---7---7-7---7-7-7---------------------------------------|
A|-8---8----8-8---7---7-7---7-7-7---------------------------------------|
D|-8---8----8-8---7---7-7---7-7-7-7-8-7-6-7-8-7-6-7-8-3h5p3-2h3p2-2h3p2-|
                                  . . . . . . . . . .

Guitar 3
E|---------------------------------------------------|
B|---------------------------------------------------|
G|-7--7---7-7\6-6--/7-7--/9-9---10\------------------|
D|---------------------------------------------------|
A|-5--5---5-5\4-4--/5-5--/7-7----8\------------------|
D|---------------------------------------------------|




Guitars 1 & 2
E|--------------------------------------------------------------------------------|
B|--------------------------------------------------------------------------------|
G|----------------^-----^-------------------^-----^-------------------------------|
D|-8---8----8-8-8-8-8-8-8---8-8\7-7---7-7-7-7-7-7-7---7-7-7-7-----5-----3---------|
A|-8---8----8-8-8-8-8-8-8---8-8\7-7---7-7-7-7-7-7-7---7-7-7-7-----5-----3---------|
D|-8---8----8-8-8-8-8-8-8---8-8\7-7---7-7-7-7-7-7-7---7-7-7-7-----5-----3---------|
                                                             \           \ These lines are just
Guitar 3 (can be substituted with Guitar 1 or 2)              \           \ to synchronize the
E|-------------------------------------------------------------\-----------\--------| chords.
B|--------------------------------------------------------------\-----------\-------|
G|-7--7----7-7-7-7-7-7-7/9--/10-10\-6--6---6-6-6-6---6-6---6-6-6-6-----------5------|
D|----------------------------------------------------------------------------------|
A|-5--5----5-5-5-5-5-5-5/7---/8--8\-4--4---4-4-4-4---4-4---4-4-4-4-----------3------|
D|----------------------------------------------------------------------------------|





CHORUS


Guitar 1
E|------------------------------------------------------8-------------|
B|---------------/11~---11--10-8------------8------------------8------|
G|-/7~---/7-9-10-----------------10~----10----10---9-10---9-10---9-10-|
D|--------------------------------------------------------------------|
A|--------------------------------------------------------------------|
D|--------------------------------------------------------------------|


Guitar 2
E|--------------------------------------------------------12-------12-------|
B|-/6~---/6-8-10-/15~---15--13-11-----------11------------------------------|
G|--------------------------------14~---14-----14---12-14----12-14----12-14-|
D|--------------------------------------------------------------------------|
A|--------------------------------------------------------------------------|
D|--------------------------------------------------------------------------|


Guitar 3
E|-----------------------------------------------------------------|
B|-----------------------------------------------------------------|
G|-----------------------------------------------------------------|
D|-0---0---0-0-0/8---8-8---8-8-8-3---3-3---3-3-3-3-2-2-2-2-2-2-2-2-|
A|-0---0---0-0-0/8---8-8---8-8-8-3---3-3---3-3-3-3-3-3-3-3-3-3-3-3-|
D|-0---0---0-0-0/8---8-8---8-8-8-3---3-3---3-3-3-3-2-2-2-2-2-2-2-2-|




Guitar 1
E|-----------------------------------------------------9----9-12-9----10~---|
B|--------------/11~---11--10-8------------8--------10---10--------10-------|
G|-7~---/7-9-10-----------------10~----10----10---9-------------------------|
D|--------------------------------------------------------------------------|
A|--------------------------------------------------------------------------|
D|--------------------------------------------------------------------------|


Guitar 2
E|---------------------------------------------------------12----12-17-12----13~---|
B|------/10-8-10-/15~---15--13-11-----------11----------14----14----------14-------|
G|-10~----------------------------14~---14-----14\---14----------------------------|
D|---------------------------------------------------------------------------------|
A|---------------------------------------------------------------------------------|
D|---------------------------------------------------------------------------------|


Guitar 3
E|-------------------------------------------------------------------------|
B|-------------------------------------------------------------------------|
G|-------------------------------------------------------------------------|
D|-0---0---0-0-0/8---8-8---8-8-8-3---3-3---3-3-3-3/11-11-11-11-11-11-11-11-|
A|-0---0---0-0-0/8---8-8---8-8-8-3---3-3---3-3-3-3/12-12-12-12-12-12-12-12-|
D|-0---0---0-0-0/8---8-8---8-8-8-3---3-3---3-3-3-3/11-11-11-11-11-11-11-11-|




Guitar 1
E|--------------------------------------------------------8--------------|
B|-----------------/11~---11--10-8------------8----------------8---------|
G|-(7~\)---/7-9-10-----------------10~----10----10---9-10---10---10-9-10-|
D|-----------------------------------------------------------------------|
A|-----------------------------------------------------------------------|
D|-----------------------------------------------------------------------|


Guitar 2
E|----------------------------------------------------------12-------12-------|
B|-(6~\)---/6-8-10-/15~---15--13-11-----------11------------------------------|
G|----------------------------------14~---14-----14---12-14----12-14----12-14-|
D|----------------------------------------------------------------------------|
A|----------------------------------------------------------------------------|
D|----------------------------------------------------------------------------|


Guitar 3
E|-----------------------------------------------------------------|
B|-----------------------------------------------------------------|
G|-----------------------------------------------------------------|
D|-0---0---0-0-0/8---8-8---8-8-8-3---3-3---3-3-3-3-2-2-2-2-2-2-2-2-|
A|-0---0---0-0-0/8---8-8---8-8-8-3---3-3---3-3-3-3-3-3-3-3-3-3-3-3-|
D|-0---0---0-0-0/8---8-8---8-8-8-3---3-3---3-3-3-3-2-2-2-2-2-2-2-2-|




Guitar 1
E|---------------------------------17-12-------------------------13-18-17~---|
B|--------------/11~---11--10-8----------14-------------------15-------------|
G|-7~---/7-9-10-----------------10----------14-------------15----------------|
D|---------------------------------------------14-------15-------------------|
A|------------------------------------------------14-17----------------------|
D|---------------------------------------------------------------------------|


Guitar 2
E|-----------------------------------12-9------------------------10-15-13~---|
B|------/10-8-10-/15~---15--13-11---------10------------------11-------------|
G|-10~----------------------------14---------9-------------12----------------|
D|---------------------------------------------11-------12-------------------|
A|------------------------------------------------12-13----------------------|
D|---------------------------------------------------------------------------|


Guitar 3
E|----------------------------------------------------|
B|----------------------------------------------------|
G|----------------------------------------------------|
D|-0---0---0-0-0/8---8-8---8-8-8-8-7----5----3--------|
A|-0---0---0-0-0/8---8-8---8-8-8-8-7----5----3--------|
D|-0---0---0-0-0/8---8-8---8-8-8-8-7----5----3--------|





VERSE II


Guitars 1 & 2
E|---------------------------------------------------------------------------------|-----|
B|---------------------------------------------------------------------------------|     |
G|---------------------------------------------------------------------------------|     |
D|---------------------------------------------------------------------------------|     |
A|-0----0--0--0-------------0--0--0--------------0---0---0-0---0-------------------|     |
D|-0----0--0--0--3/8--7~----0--0--0--3/7--7~-----0---0---0-0---0-3h5p3-2h3p2-2h3p2-|     |
        .  .  .             .  .  .              .   .   . .   .                         |
                                                                                        X2
                                                                                         |
E|-------------------------------------------------------------------------|             |
B|-------------------------------------------------------------------------|             |
G|-------------------------------------------------------------------------|             |
D|-------------------------------------------------------------------------|             |
A|-0----0--0--0-------------0--0--0--------------0---0---0-0-3----2---/7---|             |
D|-0----0--0--0--3/8--7~----0--0--0--3/7--7~-----0---0---0-0-3----2---/7---|-------------|
        .  .  .             .  .  .              .   .   . .



Guitar 1
E|----------------------------------------------------------------------|
B|----------------------------------------------------------------------|
G|----------------------------------------------------------------------|
D|-8---8----8-8---7---7-7---7-7-7---------------------------------------|
A|-8---8----8-8---7---7-7---7-7-7---------------------------------------|
D|-8---8----8-8---7---7-7---7-7-7-3-5-3-3-3-5-3-3-3-5-3h5p3-2h3p2-2h3p2-|
                                  . . . . . . . . . .

Guitar 2
E|----------------------------------------------------------------------|
B|----------------------------------------------------------------------|
G|----------------------------------------------------------------------|
D|-8---8----8-8---7---7-7---7-7-7---------------------------------------|
A|-8---8----8-8---7---7-7---7-7-7---------------------------------------|
D|-8---8----8-8---7---7-7---7-7-7-7-8-7-6-7-8-7-6-7-8-3h5p3-2h3p2-2h3p2-|
                                  . . . . . . . . . .

Guitar 3
E|--------------------------------------------------|
B|--------------------------------------------------|
G|-7--7---7-7\6-6--/7-7--/9-9---7\------------------|
D|--------------------------------------------------|
A|-5--5---5-5\4-4--/5-5--/7-7---5\------------------|
D|--------------------------------------------------|




Guitar 1
E|----------------------------------------------------------------------|
B|----------------------------------------------------------------------|
G|----------------------------------------------------------------------|
D|-8---8----8-8---7---7-7---7-7-7---------------------------------------|
A|-8---8----8-8---7---7-7---7-7-7---------------------------------------|
D|-8---8----8-8---7---7-7---7-7-7-3-5-3-3-3-5-3-3-3-5-3h5p3-2h3p2-2h3p2-|
                                  . . . . . . . . . .

Guitar 2
E|----------------------------------------------------------------------|
B|----------------------------------------------------------------------|
G|----------------------------------------------------------------------|
D|-8---8----8-8---7---7-7---7-7-7---------------------------------------|
A|-8---8----8-8---7---7-7---7-7-7---------------------------------------|
D|-8---8----8-8---7---7-7---7-7-7-7-8-7-6-7-8-7-6-7-8-3h5p3-2h3p2-2h3p2-|
                                  . . . . . . . . . .

Guitar 3
E|---------------------------------------------------|
B|---------------------------------------------------|
G|-7--7---7-7\6-6--/7-7--/9-9---10\------------------|
D|---------------------------------------------------|
A|-5--5---5-5\4-4--/5-5--/7-7----8\------------------|
D|---------------------------------------------------|




Guitars 1 & 2
E|--------------------------------------------------------------------------------|
B|--------------------------------------------------------------------------------|
G|----------------^-----^-------------------^-----^-------------------------------|
D|-8---8----8-8-8-8-8-8-8---8-8\7-7---7-7-7-7-7-7-7---7-7-7-7-----5-----3---------|
A|-8---8----8-8-8-8-8-8-8---8-8\7-7---7-7-7-7-7-7-7---7-7-7-7-----5-----3---------|
D|-8---8----8-8-8-8-8-8-8---8-8\7-7---7-7-7-7-7-7-7---7-7-7-7-----5-----3---------|
                                                             \           \ These lines are just
Guitar 3 (can be substituted with Guitar 1 or 2)              \           \ to synchronize the
E|-------------------------------------------------------------\-----------\--------| chords.
B|--------------------------------------------------------------\-----------\-------|
G|-7--7----7-7-7-7-7-7-7/9--/10-10\-6--6---6-6-6-6---6-6---6-6-6-6-----------5------|
D|----------------------------------------------------------------------------------|
A|-5--5----5-5-5-5-5-5-5/7---/8--8\-4--4---4-4-4-4---4-4---4-4-4-4-----------3------|
D|----------------------------------------------------------------------------------|





CHORUS


Guitar 1
E|------------------------------------------------------8-------------|
B|---------------/11~---11--10-8------------8------------------8------|
G|-/7~---/7-9-10-----------------10~----10----10---9-10---9-10---9-10-|
D|--------------------------------------------------------------------|
A|--------------------------------------------------------------------|
D|--------------------------------------------------------------------|


Guitar 2
E|--------------------------------------------------------12-------12-------|
B|-/6~---/6-8-10-/15~---15--13-11-----------11------------------------------|
G|--------------------------------14~---14-----14---12-14----12-14----12-14-|
D|--------------------------------------------------------------------------|
A|--------------------------------------------------------------------------|
D|--------------------------------------------------------------------------|


Guitar 3
E|-----------------------------------------------------------------|
B|-----------------------------------------------------------------|
G|-----------------------------------------------------------------|
D|-0---0---0-0-0/8---8-8---8-8-8-3---3-3---3-3-3-3-2-2-2-2-2-2-2-2-|
A|-0---0---0-0-0/8---8-8---8-8-8-3---3-3---3-3-3-3-3-3-3-3-3-3-3-3-|
D|-0---0---0-0-0/8---8-8---8-8-8-3---3-3---3-3-3-3-2-2-2-2-2-2-2-2-|




Guitar 1
E|-----------------------------------------------------9----9-12-9----10~---|
B|--------------/11~---11--10-8------------8--------10---10--------10-------|
G|-7~---/7-9-10-----------------10~----10----10---9-------------------------|
D|--------------------------------------------------------------------------|
A|--------------------------------------------------------------------------|
D|--------------------------------------------------------------------------|


Guitar 2
E|---------------------------------------------------------12----12-17-12----13~---|
B|------/10-8-10-/15~---15--13-11-----------11----------14----14----------14-------|
G|-10~----------------------------14~---14-----14\---14----------------------------|
D|---------------------------------------------------------------------------------|
A|---------------------------------------------------------------------------------|
D|---------------------------------------------------------------------------------|


Guitar 3
E|-------------------------------------------------------------------------|
B|-------------------------------------------------------------------------|
G|-------------------------------------------------------------------------|
D|-0---0---0-0-0/8---8-8---8-8-8-3---3-3---3-3-3-3/11-11-11-11-11-11-11-11-|
A|-0---0---0-0-0/8---8-8---8-8-8-3---3-3---3-3-3-3/12-12-12-12-12-12-12-12-|
D|-0---0---0-0-0/8---8-8---8-8-8-3---3-3---3-3-3-3/11-11-11-11-11-11-11-11-|




Guitar 1
E|--------------------------------------------------------8--------------|
B|-----------------/11~---11--10-8------------8----------------8---------|
G|-(7~\)---/7-9-10-----------------10~----10----10---9-10---10---10-9-10-|
D|-----------------------------------------------------------------------|
A|-----------------------------------------------------------------------|
D|-----------------------------------------------------------------------|


Guitar 2
E|----------------------------------------------------------12-------12-------|
B|-(6~\)---/6-8-10-/15~---15--13-11-----------11------------------------------|
G|----------------------------------14~---14-----14---12-14----12-14----12-14-|
D|----------------------------------------------------------------------------|
A|----------------------------------------------------------------------------|
D|----------------------------------------------------------------------------|


Guitar 3
E|-----------------------------------------------------------------|
B|-----------------------------------------------------------------|
G|-----------------------------------------------------------------|
D|-0---0---0-0-0/8---8-8---8-8-8-3---3-3---3-3-3-3-2-2-2-2-2-2-2-2-|
A|-0---0---0-0-0/8---8-8---8-8-8-3---3-3---3-3-3-3-3-3-3-3-3-3-3-3-|
D|-0---0---0-0-0/8---8-8---8-8-8-3---3-3---3-3-3-3-2-2-2-2-2-2-2-2-|




Guitar 1
E|---------------------------------17-12-------------------------13-18-17~---|
B|--------------/11~---11--10-8----------14-------------------15-------------|
G|-7~---/7-9-10-----------------10----------14-------------15----------------|
D|---------------------------------------------14-------15-------------------|
A|------------------------------------------------14-17----------------------|
D|---------------------------------------------------------------------------|


Guitar 2
E|-----------------------------------12-9------------------------10-15-13~---|
B|------/10-8-10-/15~---15--13-11---------10------------------11-------------|
G|-10~----------------------------14---------9-------------12----------------|
D|---------------------------------------------11-------12-------------------|
A|------------------------------------------------12-13----------------------|
D|---------------------------------------------------------------------------|


Guitar 3
E|----------------------------------------------------|
B|----------------------------------------------------|
G|----------------------------------------------------|
D|-0---0---0-0-0/8---8-8---8-8-8-8-7----5----3--------|
A|-0---0---0-0-0/8---8-8---8-8-8-8-7----5----3--------|
D|-0---0---0-0-0/8---8-8---8-8-8-8-7----5----3--------|




BREAKDOWN


Guitar 1
E|----------------------------------------------------|
B|-15----15-15----15-15--15-15----15-15---15\---------|
G|-17b------17b------17b----17b------17b--17b19\------|
D|----------------------------------------------------|
A|----------------------------------------------------|
D|----------------------------------------------------|


Guitar 2
E|-13----13-----13---13-13----13----13\----------|
B|-16b~~~~~~`~`~~~~`~---16b~~~~~~`~`~~\----------|
G|-----------------------------------------------|
D|-----------------------------------------------|
A|-----------------------------------------------|
D|-----------------------------------------------|


Guitar 3
E|------------------------------------------------|
B|------------------------------------------------|
G|------------------------------------------------|
D|------------------------------------------------|
A|------------------------------------------------|
D|00000--00000----00000--00000----00000----0000---|
  .....  .....    .....  .....    .....    ....


Guitar 1
E|----------------------------------------------------|
B|-15----15-15----15-15--15-15----15-15\--------------|
G|-17b------17b------17b----17b------17b19\-----------|
D|----------------------------------------------------|
A|----------------------------------------------------|
D|----------------------------------------------------|


Guitar 2
E|-13----13-------13-------13-----13-----|
B|-16b------16b------16b~~~~~~`~`~-------|
G|---------------------------------------|
D|---------------------------------------|
A|---------------------------------------|
D|---------------------------------------|


Guitar 3
E|--------------------------------------------------|
B|--------------------------------------------------|
G|--------------------------------------------------|
D|--------------------------------------------------|
A|--------------------------------------------------|
D|-00000--0-000----0000000088007700550033005500-----|
   .....  . ...    ............................





Solo Instructions: I thought there might be some confusion when it came to Guitar 4
                   so I thought I'd clarify things.

Guitar 1 - Left ear guitar

Guitar 2 - Right ear guitar

Guitar 3 - Rythym guitar (See bottom of Solo)

Guitar 4 - The solo shreds that you hear during the harmonies
           I was able to figure out how long each note was by slowing the song down.
           I marked them so that you can know where to to play faster and where to play slower.
           All the unmarked notes are sixteenth notes, the ones that are marked change in speed.


         W    = whole note
         H    = half note
         Q    = quarter note
         E    = eighth note
         S    = sixteenth note
         T    = thirty-second note
         +    = add half of the note value to the note (Q+ = quarter note plus an eighth note)
      |--3--| = all notes with this symbol are triplets (E3 = eighth note triplets
                                                         S3 = sixteenth note triplets, etc)




SOLO


Guitar 1
E|--------------------------------------------------------|
B|--------------------------------------------------------|
G|--/7---7---7-7-7p6-6-6-6-7---9----/10~------------------|
D|--------------------------------------------------------|
A|--------------------------------------------------------|
D|--------------------------------------------------------|

Guitar 2
E|--------------------------------------------------------|
B|--/6---6---6-6-6p5-5-5-5-6---8----/10~------------------|
G|--------------------------------------------------------|
D|--------------------------------------------------------|
A|--------------------------------------------------------|
D|--------------------------------------------------------|



Guitar 4
E|-15-13-------------16-15-13----------15-13-------|
B|-------15-13----13----------15-------------15-15-|
G|-------------15----------------14-14-------------|
D|-------------------------------------------------|
A|-------------------------------------------------|
D|-------------------------------------------------|

                                                   W
E|-------------------------------------------------------|
B|-13----15-13-------------------------------------------|
G|----14-------14-13-------13-13-------------------------|
D|-------------------17-15-------17-15-------------------|
A|-------------------------------------17-17-15----17~---|
D|----------------------------------------------19-------|





Guitar 1
E|-------------------------------------------------------|
B|-------------------------------------------------------|
G|--/7---7---7-7-7p6-6-6-6-7---9-----7~------------------|
D|-------------------------------------------------------|
A|-------------------------------------------------------|
D|-------------------------------------------------------|

Guitar 2
E|-------------------------------------------------------|
B|--/6---6---6-6-6p5-5-5-5-6---8-----6~------------------|
G|-------------------------------------------------------|
D|-------------------------------------------------------|
A|-------------------------------------------------------|
D|-------------------------------------------------------|



Guitar 4             S+ S+ S+ S+          S+ S+          S+ S+              S         W
E|-----------------------------------------|--------------------------------------------------|
B|-----------------------------------------|-----------------------------------12-13-13b15~---|
G|-13-12-10----------12-10-------13-12-10--|----13-12-10-------13-12-10-12/13-----------------|
D|----------12-10-12-------12-10----------12-10----------12-10--------------------------------|
A|-----------------------------------------|--------------------------------------------------|
D|-----------------------------------------|--------------------------------------------------|
  The reason for the 12 being shared between both sections is that the note is split between
  both bars. The E ends the 1st bar and the + begins the 2nd bar.




Guitar 1
E|---------------------------------------------------------|
B|---------------------------------------------------------|
G|--/7---7---7-7-7p6-6-6-6/14---12'''\-10~-----------------|
D|---------------------------------------------------------|
A|---------------------------------------------------------|
D|---------------------------------------------------------|

Guitar 2
E|---------------------------------------------------------|
B|--/6---6---6-6-6p5-5-5-5/13---11-----10~-----------------|
G|---------------------------------------------------------|
D|---------------------------------------------------------|
A|---------------------------------------------------------|
D|---------------------------------------------------------|



Guitar 4       S+ T+    T+ T+ S+ T+   |---S3---|---S3---| 
E|-15h16p15-13----13-16-13/15\13/15-20-18-17-15\13----13-|
B|-------------15----------------------------------15----|
G|-------------------------------------------------------|
D|-------------------------------------------------------|
A|-------------------------------------------------------|
D|-------------------------------------------------------|

  |---S3---|---S3---|---S3---|---S3---|---S3---|---S3---|---E3---|W
E|-17-14-15-13/15-15-20-17-15\13-------------------------13-------------|
B|-------------------------------15-------------------15----15----------|
G|----------------------------------14-17-------14-17----------14-------|
D|----------------------------------------15----------------------15~---|
A|-------------------------------------------15-------------------------|
D|----------------------------------------------------------------------|





Guitar 1
E|--------------------------------------------------------------------|
B|----------------------------------\3h5-/6''''/10''''/15''/17-/18''\-|
G|--/7---7---7-7-7p6-6-6-6-7---9--------------------------------------|
D|--------------------------------------------------------------------|
A|--------------------------------------------------------------------|
D|--------------------------------------------------------------------|

Guitar 2
E|---------------------------------------------------------------------|
B|--/6---6---6-6-6p5-5-5-5-6---8-----5/10--10''''/15''''/18--/20--22---|
G|---------------------------------------------------------------------|
D|---------------------------------------------------------------------|
A|---------------------------------------------------------------------|
D|---------------------------------------------------------------------|



Guitar 4
E|------------------------------------------------|
B|------------------------------------------------|
G|-------------------12---------------14-12-------|
D|-15-14-12-15----------15-14-12------------15-14-|
A|-------------------------------13---------------|
D|-------------12-12----------------12------------|

                                            |---S3---|
E|-------------------------------------------------------------|
B|-------------------------------------------------------------|
G|----------12-14-12-------------------------13----13-17b19~---|
D|-12-14-15----------15-14-12----------12-15----15-------------|
A|----------------------------15-14/15-------------------------|
D|-------------------------------------------------------------|




Guitar 1
E|-----------12-13-12~---13--12--10-9----10--12-9~----9''b10~---------|
B|-13b15~-------------------------------------------------------------|
G|--------------------------------------------------------------------|
D|--------------------------------------------------------------------|
A|--------------------------------------------------------------------|
D|--------------------------------------------------------------------|

Guitar 2
E|------------------------------------------------------------------|
B|-18~----20-22-20~---22--20--18-17----18--20-17~~~~~~~b18~---------|
G|------------------------------------------------------------------|
D|------------------------------------------------------------------|
A|------------------------------------------------------------------|
D|------------------------------------------------------------------|



Guitar 4                                E  E  E  E  E  E  E  E  E  E  E  E  E  E  E  
E|-------------------------------------/18-17-13-------------------------------------------|
B|-----------------------------------------------15----------------------------------------|
G|--------------------------------------------------15-14-15-14-------------------15-------|
D|--------------------------------------------------------------15-------------15-------14\|
A|-----------------------------------------------------------------15-13-15-17-------17----|
D|-----------------------------------------------------------------------------------------|

   T  T           S+ T  T        S+ T  T                                         H
E|-------------------------------------13-17p13-14-------------------------17-18-20b22-----|
B|----------------------17-18-------15-------------------------15/17-18-20-----------------|
G|-14-15-17-15-14----15-------17-15----------------15-14-15-17-----------------------------|
D|----------------17-----------------------------------------------------------------------|
A|-----------------------------------------------------------------------------------------|
D|-----------------------------------------------------------------------------------------|



Guitar 3
E|-------------------------------------------------------------------|
B|-------------------------------------------------------------------|
G|-10--10--10--10\9-9---9-9---9-9-9----------------------------------|
D|--8---8---8---8\7-7---7-7---7-7-7----------------------------------|
A|--8---8---8---8\7-7---7-7---7-7-7-0-0-0-0-0-0-0-0-0-0--------------|
D|--8---8---8---8\7-7---7-7---7-7-7-0-0-0-0-0-0-0-0-0-0-333-222-111--|
                                    . . . . . . . . . . ... ... ...
                                  X4

E|--------------------------------------------------------------------------|
B|--------------------------------------------------------------------------|
G|-10----10---10-10----10---10-10---10----9----9---9-9----9---9-9---9---9---|
D|--8-----8----8--8-----8----8--8----8----7----7---7-7----7---7-7---7---7---|
A|--8-----8----8--8-----8----8--8----8----7----7---7-7----7---7-7---7---7---|
D|--8-----8----8--8-----8----8--8----8----7----7---7-7----7---7-7---7---7---|


E|----------------------------------------------------------------|
B|----------------------------------------------------------------|
G|-10----10---10-10----10---10-10---10----------------------------|
D|--8-----8----8--8-----8----8--8----8----------------------------|
A|--8-----8----8--8-----8----8--8----8----7-----5-----3-----3-----|
D|--8-----8----8--8-----8----8--8----8----7-----5-----3-----2-----|





BRIDGE


Guitar 1
E|------------------------------------------------------------------------/18--17----------------|
B|---------------------------------------------------------------------------------15--13/15~~~\-|
G|-----------------------------------------------------------------------------------------------|
D|-----------------------------------------------------------------------------------------------|
A|-----------------------------------------------------------------------------------------------|
D|-----------------------------------------------------------------------------------------------|

Guitar 2
E|-----------------------------------------------------------------------------------------------|
B|-----------------------------------------------------------------------------------------------|
G|-----------------------------------------------------------------------------------------------|
D|-0---0-0-0-0-0---0-0-0-0-2---2-2-2-2-2---2-2-2-2-3---3-3-3-3-3---3-3-3-3/8---8-8-8-8-8--8-8-8-8|
A|-0---0-0-0-0-0---0-0-0-0-3---3-3-3-3-3---3-3-3-3-3---3-3-3-3-3---3-3-3-3/8---8-8-8-8-8--8-8-8-8|
D|-0---0-0-0-0-0---0-0-0-0-2---2-2-2-2-2---2-2-2-2-3---3-3-3-3-3---3-3-3-3/8---8-8-8-8-8--8-8-8-8|


Guitar 1
E|-------------------------------------------------------------|-----|
B|-------------------------------------------------------------|     |
G|--------Has no part, but can play along with Guitar 2--------|     |
D|-------------------------------------------------------------|     |
A|-------------------------------------------------------------|     |
D|-------------------------------------------------------------|     |
                                                                     |
Guitar 2                                                             |
E|-----------------------------------------------------------|       |
B|-----------------------------------------------------------|       |
G|-----------------------------------------------------------|       |
D|-8---8-8-8-8-8---8-8-8-8-10---10-10-10-10-10---10-10-10-10-|       |
A|-8---8-8-8-8-8---8-8-8-8-10---10-10-10-10-10---10-10-10-10-|       |
D|-8---8-8-8-8-8---8-8-8-8-10---10-10-10-10-10---10-10-10-10-|       |
                                                                     |
                                                                     X2
                                                                     |
Guitar 1                                                             |
E|-----------------------------------/18--17------------------|      |
B|--------------------------------------------15--13/15~~~\---|      |
G|------------------------------------------------------------|      |
D|------------------------------------------------------------|      |
A|------------------------------------------------------------|      |
D|------------------------------------------------------------|      |
                                                                     |
Guitar 2                                                             |
E|------------------------------------------------|                  |
B|------------------------------------------------|                  |
G|------------------------------------------------|                  |
D|-3---3-3-3-3-3--3-3-3-3/8---8-8-8-8-8---8-8-8-8-|                  |
A|-3---3-3-3-3-3--3-3-3-3/8---8-8-8-8-8---8-8-8-8-|                  |
D|-3---3-3-3-3-3--3-3-3-3/8---8-8-8-8-8---8-8-8-8-|------------------|




Guitar 2
E|-----------------------------------------------------------|
B|-----------------------------------------------------------|
G|-----------------------------------------------------------|
D|-8---8-8-8-8-8---8-8-8-8-10---10-10-10-10-10---10-10-10-10-|
A|-8---8-8-8-8-8---8-8-8-8-10---10-10-10-10-10---10-10-10-10-|
D|-8---8-8-8-8-8---8-8-8-8-10---10-10-10-10-10---10-10-10-10-|


Guitars 1 & 2
E|------------------------------------------------------|
B|------------------------------------------------------|
G|------------------------------------------------------|
D|-3---3-3-3-3-2---2-2-2-2-0---0-0-0-0/10---10-10-10-10-|
A|-3---3-3-3-3-3---3-3-3-3-0---0-0-0-0/10---10-10-10-10-|
D|-3---3-3-3-3-2---2-2-2-2-0---0-0-0-0/10---10-10-10-10-|



E|---------------------------------------------------------------------------------------|
B|---------------------------------------------------------------------------------------|
G|---------------------------------------------------------------------------------------|
D|---------------------------------------------------------------------------------------|
A|-------8----------8----------8----------8----------------------7--7--7--7--7--7--7-----|
D|-8--8--8----8--8--8----8--8--8----8--8--8----7--7--7--7--7--7--7--7--7--7--7--7--7-----|
   .  .       .  .       .  .       .  .       .  .  .  .  .  .
                                                   Gradually release palm mute
                                                    and gradually strum harder.



CHORUS


Guitar 1
E|------------------------------------------------------8-------------|
B|---------------/11~---11--10-8------------8------------------8------|
G|-/7~---/7-9-10-----------------10~----10----10---9-10---9-10---9-10-|
D|--------------------------------------------------------------------|
A|--------------------------------------------------------------------|
D|--------------------------------------------------------------------|


Guitar 2
E|--------------------------------------------------------12-------12-------|
B|-/6~---/6-8-10-/15~---15--13-11-----------11------------------------------|
G|--------------------------------14~---14-----14---12-14----12-14----12-14-|
D|--------------------------------------------------------------------------|
A|--------------------------------------------------------------------------|
D|--------------------------------------------------------------------------|


Guitar 3
E|-----------------------------------------------------------------|
B|-----------------------------------------------------------------|
G|-----------------------------------------------------------------|
D|-0---0---0-0-0/8---8-8---8-8-8-3---3-3---3-3-3-3-2-2-2-2-2-2-2-2-|
A|-0---0---0-0-0/8---8-8---8-8-8-3---3-3---3-3-3-3-3-3-3-3-3-3-3-3-|
D|-0---0---0-0-0/8---8-8---8-8-8-3---3-3---3-3-3-3-2-2-2-2-2-2-2-2-|




Guitar 1
E|-----------------------------------------------------9----9-12-9----10~---|
B|--------------/11~---11--10-8------------8--------10---10--------10-------|
G|-7~---/7-9-10-----------------10~----10----10---9-------------------------|
D|--------------------------------------------------------------------------|
A|--------------------------------------------------------------------------|
D|--------------------------------------------------------------------------|


Guitar 2
E|---------------------------------------------------------12----12-17-12----13~---|
B|------/10-8-10-/15~---15--13-11-----------11----------14----14----------14-------|
G|-10~----------------------------14~---14-----14\---14----------------------------|
D|---------------------------------------------------------------------------------|
A|---------------------------------------------------------------------------------|
D|---------------------------------------------------------------------------------|


Guitar 3
E|-------------------------------------------------------------------------|
B|-------------------------------------------------------------------------|
G|-------------------------------------------------------------------------|
D|-0---0---0-0-0/8---8-8---8-8-8-3---3-3---3-3-3-3/11-11-11-11-11-11-11-11-|
A|-0---0---0-0-0/8---8-8---8-8-8-3---3-3---3-3-3-3/12-12-12-12-12-12-12-12-|
D|-0---0---0-0-0/8---8-8---8-8-8-3---3-3---3-3-3-3/11-11-11-11-11-11-11-11-|




Guitar 1
E|--------------------------------------------------------8--------------|
B|-----------------/11~---11--10-8------------8----------------8---------|
G|-(7~\)---/7-9-10-----------------10~----10----10---9-10---10---10-9-10-|
D|-----------------------------------------------------------------------|
A|-----------------------------------------------------------------------|
D|-----------------------------------------------------------------------|


Guitar 2
E|----------------------------------------------------------12-------12-------|
B|-(6~\)---/6-8-10-/15~---15--13-11-----------11------------------------------|
G|----------------------------------14~---14-----14---12-14----12-14----12-14-|
D|----------------------------------------------------------------------------|
A|----------------------------------------------------------------------------|
D|----------------------------------------------------------------------------|


Guitar 3
E|-----------------------------------------------------------------|
B|-----------------------------------------------------------------|
G|-----------------------------------------------------------------|
D|-0---0---0-0-0/8---8-8---8-8-8-3---3-3---3-3-3-3-2-2-2-2-2-2-2-2-|
A|-0---0---0-0-0/8---8-8---8-8-8-3---3-3---3-3-3-3-3-3-3-3-3-3-3-3-|
D|-0---0---0-0-0/8---8-8---8-8-8-3---3-3---3-3-3-3-2-2-2-2-2-2-2-2-|




Guitar 1
E|-------------------------12-9-----------15-10-------------13-10-------------12-8---------|
B|-------------/11~-------------10--------------11----------------10---------------8-------|
G|-\7~-------7---------------------9----9----------12----12----------10----12--------9---9-|
D|--------10-------------------------11---------------12----------------12-------------10--|
A|-----------------------------------------------------------------------------------------|
D|-----------------------------------------------------------------------------------------|


Guitar 2
E|-----------/10~--------17-12-------------18-13-------------17-13-------------15-12-------------|
B|-6~------6-------------------14----------------15----------------15----------------13----------|
G|-------9------------------------14----14----------15----15----------14----14----------12----12-|
D|-----------------------------------14----------------15----------------15----------------14----|
A|-----------------------------------------------------------------------------------------------|
D|-----------------------------------------------------------------------------------------------|


Guitar 3
E|--------------------------------------------------|
B|--------------------------------------------------|
G|--------------------------------------------------|
D|-8----8---8-8----8--------------------------------|
A|-8----8---8-8----8----7------5------3------3------|
D|-8----8---8-8----8----7------5------3------2------|




OUTRO


Guitar 1  Just repeat the pattern and switch it up until it stops
E|----------------------------------------------------------------|
B|-15------15-15------15-15------15-15------15-15------15-15------|
G|-17b19------17b19------17b19------17b19------17b19------17b19---|
D|----------------------------------------------------------------|
A|----------------------------------------------------------------|
D|----------------------------------------------------------------|


Guitar 2  Just repeat the pattern and switch it up until it stops
E|----------------------------------------------------------------|
B|-18------18-18------18-18------18-18------18-18------18-18------|
G|-20b22------20b22------20b22------20b22------20b22------20b22---|
D|----------------------------------------------------------------|
A|----------------------------------------------------------------|
D|----------------------------------------------------------------|



Guitar 3
E|----------------------------------------------------|
B|----------------------------------------------------|
G|----------------------------------------------------|
D|----------------------------------------------------|
A|---------------------------------------------1/-6---|
D|00000--00000----00000--00000----00000----00001/-6---|
  .....  .....    .....  .....    .....    ....
                         X4

comments
print report bad tab
2 comments total.
+4 reply
slash.r0cks wrote on March 28 2011, 10:36 pm

Very good quality tab as always. Just a few minor touches needed for the solo, but it's extremely fast picking so I'll let it slide. One question though: Can you play it? :D

5*

+2 reply
Jon_09 wrote on April 12 2011, 10:20 pm

yeah thanks. i know that the solo might have been off for a couple of notes in the 3rd and 4th shredding parts of the solo. but that was the best i could do. and no i cant play it, haha. i've been playing for almost 2 years and i just havent gotten there yet. i use guitar pro to see if it sounds right.

I want to post or [tab]
guest
You may want to rate the tab now too:
select rating
Please do not post tabs as comments. Select "correction" instead!