Oops, an error
Loading. Please wait.

Welcome To The Family Tab

ver3
ver3
More versions @911Tabs.com
14,467 views 18 this week
2 commentsread comments
1 2 3 4 5
excellent!
x 4
Autoscroll
+/-
esc
set tempo
stop
Contributor
Difficulty
Tuning
advanced
D A D G B E
Hey! There's an official Ultimate Guitar app which is ideal
for learning songs when you're away from computer. Get the app
WARNING: You are trying to view
                                    content from Ultimate-Guitar.com
                                    in an unauthorized application,
                                    which is prohibited.

                                    Please use an official Ultimate
                                    Guitar Tabs application for iPhone,
                                    iPad or Android to access legitimate
                                    chords, guitar, bass, and drum tabs
                                    from Ultimate-Guitar.com database.

                                    Type "ultimate guitar tabs" in Apple
                                    App Store's or Android Market's
                                    search to find the application.
#----------------------------------PLEASE NOTE---------------------------------#
#This file is the author's own work and represents their interpretation of the #
#song. You may only use this file for private study, scholarship, or research. #
#------------------------------------------------------------------------------##

                              WELCOME TO THE FAMILY
                        As recorded by Avenged Sevenfold
                         (From the 2010 Album NIGHTMARE)

Words and Music by Matthew Sanders, Jonathan Seward, James Sullivan, Brian Haner, 
Jr. and Zachary Baker
Transcribed by Liam Briggs - lb.guitar.boy@gmail.com

          D5                   Bb5                  A5                   G5
      0 0 x x x x          8 8 x x x x          7 7 x x x x          5 5 5 x x x

          F5               F5(type 2)               C/E                  A/E
      3 3 3 5 6 x          3 3 x x x x          2 3 x x x x          2 4 x x x x

      G5(type 2)           D5(type 2)           C/E(type 2)          F5(type 3)
      5 5 x x x x          0 0 0 x x x          2 3 2 5 x x          3 3 3 x x x

      Bb5(type 2)              C5
      x 1 3 3 x x          x 3 5 5 x x

Gtr I (D A D G B E) - 'Guitar 1'
Gtr II (D A D G B E) - 'Guitar 2'
Gtr III (D A D G B E) - 'Guitar 3'
Gtr IV (D A D G B E) - 'Guitar 4'
Gtr V (D A D G B E) - 'Guitar 5'
Gtr VI (D A D G B E) - 'Guitar 6'

 Intro
  Moderate Rock H=95
  D5           A5       D5        A5       D5
 4/4
  Gtr I
     PM--|     ~~~~~~~~ PM--|     ~~~~~~~~ PM----------|
                                                             |-3-|     |-3-|
  Q  E E E E E E   +Q   E E E E E E   +Q   Q  Q  E E   +E  E E E E E E E E E
|----------------|------------------|----------------|-----------------------||
|----------------|------------------|----------------|-----------------------||
|----------------|------------------|----------------|-----------------------||
|----------------|------------------|----------------|-----------------------||
|-0--0-0-0-------|------0-0-0-------|------0--0--0-0-|-(0)-0-----------------||
|-0--0-0-0-3s8-7-|-(7)--0-0-0-3s6-7-|-(7)--0--0--0-0-|-(0)-0-3h5p3-2h3-2h3p2-||


   Verse
    $
    D5           A5       D5        A5
    Gtrs I, II
       PM--|     ~~~~~~~~ PM--|     ~~~
    Q  E E E E E E   +Q   E E E E E E
||-----------------|------------------|
||o----------------|------------------|
||-----------------|------------------|
||-----------------|------------------|
||o-0--0-0-0-------|------0-0-0-------|
||--0--0-0-0-3s8-7-|-(7)--0-0-0-3s6-7-|


       D5
 ~~~~~ PM----------|
                         |-3-|     |-3-|
  +Q   Q  Q  E E   +E  E E E E E E E E E
|----------------|------------------------|
|----------------|------------------------|
|----------------|------------------------|
|----------------|------------------------|
|------0--0--0-0-|-(0)-0------------------|
|-(7)--0--0--0-0-|-(0)-0-3h5p3-2h3-2h3p2--|


  D5           A5       D5        A5       D5          F5   E5     A5
     PM--|     ~~~~~~~~ PM--|     ~~~~~~~~ PM------|
  Q  E E E E E E   +Q   E E E E E E   +Q   Q  Q  E E   Q.   E +Q   Q
|----------------|------------------|----------------|-----------------||
|----------------|------------------|----------------|----------------o||
|----------------|------------------|----------------|-----------------||
|----------------|------------------|----------------|-------------7---||
|-0--0-0-0-------|------0-0-0-------|------0--0--0-0-|-3----2-(2)S=7--o||
|-0--0-0-0-3s8-7-|-(7)--0-0-0-3s6-7-|-(7)--0--0--0-0-|-3----2-(2)S=7---||


   Pre-Chorus
    Bb5                     A5
    Gtrs I, II
     Q   Q   +E   E  E  E   Q  Q   +E  E E  E
||------------------------|-------------------|
||o-----------------------|-------------------|
||------------------------|-------------------|
||------------------------|-------------------|
||o--8---8---(8)--8--8--8-|-7--7---(7)-7-7--7-|
||---8---8---(8)--8--8--8-|-7--7---(7)-7-7--7-|
|
|   Gtr III
|    Q   Q   +E   E  E  E   Q  E E +Q    Q
||------------------------|-------------------|
||o-----------------------|-------------------|
||---7---7---(7)--7--7--7-|-6--6-7-(7)---9\---|
||---x---x--------x--x--x-|-x--x-x-------x----|
||o--5---5---(5)--5--5--5-|-4--4-5-(5)---7\---|
||------------------------|-------------------|
|
|   Gtr IV
|    Q   Q   +E   E  E  E   Q  E E +Q    Q
||------------------------|-------------------|
||o-----------------------|-------------------|
||--10--10--(10)-10-10-10-|-9--9-9-(9)---9\---|
||---x---x--------x--x--x-|-x--x-x-------x----|
||o--8---8---(8)--8--8--8-|-7--7-7-(7)---7\---|
||------------------------|-------------------|


  D5
  PM------------------|
                        |-3-|     |-3-|
  E E E E E E E E   E E E E E E E E E E
|-----------------|-----------------------||
|-----------------|----------------------o||
|-----------------|-----------------------||
|-----------------|-----------------------||
|-0-0-0-0-0-0-0-0-|-0-0------------------o||
|-0-0-0-0-0-0-0-0-|-0-0-3h5p3-2h3-2h3p2---||
|
| PM------------------|
| E E E E E E E E   E E Q     H
|-----------------|-----------------------||
|-----------------|----------------------o||
|-----------------|-----------------------||
|-3-5-3---3-5-3---|-3-5-------------------||
|-------5-------5-|----------------------o||
|-----------------|-----------------------||
|
| PM------------------|
| E E E E E E E E   E E Q     H
|-----------------|-----------------------||
|-----------------|----------------------o||
|-----------------|-----------------------||
|-7-8-7---7-8-7---|-7-8-------------------||
|-------8-------8-|----------------------o||
|-----------------|-----------------------||


  Bb5                                            A5
   Q   Q   +E   E  Q     E  E  E  E  +E  E  Q    Q  Q  +E  E Q
|---------------------|------------------------|----------------|
|---------------------|------------------------|----------------|
|---------------------|------------------------|----------------|
|---------------------|------------------------|----------------|
|--8---8---(8)--8--8--|--8--8--8--8--(8)-8--8--|-7--7--(7)-7-7--|
|--8---8---(8)--8--8--|--8--8--8--8--(8)-8--8--|-7--7--(7)-7-7--|
|
|  Q   Q   +E   E  Q     E  E  E  E  +Q     Q    Q  Q  +E  E Q
|---------------------|------------------------|----------------|
|---------------------|------------------------|----------------|
|--7---7---(7)--7--7--|--7--7--7--9--(9)---10--|-6--6--(6)-6-6--|
|--x---x--------x--x--|--x--x--x--x---------x--|-x--x------x-x--|
|--5---5---(5)--5--5--|--5--5--5--7--(7)----8--|-4--4--(4)-4-4--|
|---------------------|------------------------|----------------|
|
|  Q   Q   +E   E  Q     E  E  E  E  +Q     Q    Q  Q  +E  E Q
|---------------------|------------------------|----------------|
|---------------------|------------------------|----------------|
|-10--10--(10)-10-10--|-10-10-10-10-(10)---10--|-9--9--(9)-9-9--|
|--x---x--------x--x--|--x--x--x--x---------x--|-x--x------x-x--|
|--8---8---(8)--8--8--|--8--8--8--8--(8)----8--|-7--7--(7)-7-7--|
|---------------------|------------------------|----------------|


                          G5      F5
  E E E E E E E E   Q  Q  Q  Q    Q  Q  H
|-----------------|-------------|------------||
|-----------------|-------------|-6----------||
|-----------------|-------------|-5----------||
|-----------------|-------5-----|-3----------||
|-7-7-7-7-7-7-7-7-|-7-----5-----|-3----------||
|-7-7-7-7-7-7-7-7-|-7-----5-----|-3----------||
|
| E E E E E E E E   Q  Q  H       W
|-----------------|-------------|------------||
|-----------------|-------------|------------||
|-6-6-6-6-6-6-6-6-|-6-----------|------------||
|-x-x-x-x-x-x-x-x-|-x-----------|------------||
|-4-4-4-4-4-4-4-4-|-4-----------|------------||
|-----------------|-------------|------------||
|
| E E E E E E E E   Q  Q  H       W
|-----------------|-------------|------------||
|-----------------|-------------|------------||
|-9-9-9-9-9-9-9-9-|-9-----------|------------||
|-x-x-x-x-x-x-x-x-|-x-----------|------------||
|-7-7-7-7-7-7-7-7-|-7-----------|------------||
|-----------------|-------------|------------||


 Chorus
  $$
    D5                 Bb5
  Gtrs I, II
     Q  Q     E  E  E   E    +E  E E  E   E   E  Q
     |  |     |  |  |   |     |  | |  |   |   |  |
     /  /     /  /  /   /     /  / /  /   /   /  /

  Gtr III
     ~~                 ~~~~~~~~~                   ~~~
  a  H     a  E  E  E   E    +Q.      E  +E   E  E  E
|-------------------------|---------------------------|
|----------------------11-|-(11)-----11-(11)-10--8----|
|-5s=7-----5s=7--9-10-----|------------------------10-|
|-------------------------|---------------------------|
|-------------------------|---------------------------|
|-------------------------|---------------------------|
|
| Gtr IV
|    ~~                 ~~~~~~~~~                   ~~~
| a  H     a  E  E  E   E    +Q.      E  +E   E  E  E
|-------------------------|---------------------------|
|------------------10--15-|-(15)-----15-(15)-13-------|
|-9s10-----9s10-12--------|---------------------15p14-|
|-------------------------|---------------------------|
|-------------------------|---------------------------|
|-------------------------|---------------------------|


  F5(type 2)                 C/E
    Q   E  E   E   E  E  E    E  E  E  E  E  E  E  E
    |   |  |   |   |  |  |    |  |  |  |  |  |  |  |
    /   /  /   /   /  /  /    /  /  /  /  /  /  /  /

 ~~~~~~
   +Q.     E  +E   E  E  E    E  E  E  E  E  E  E  E
|--------------------------|--------8--------8--------|
|--------------------------|--------------------------|
|-(10)----10-(10)-12-10s=9-|--9h10-----9h10-----9h10--|
|--------------------------|--------------------------|
|--------------------------|--------------------------|
|--------------------------|--------------------------|
|
|~~~~~~
|  +Q.     E  +E   E  E  E    E  E  E  E  E  E  E  E
|--------------------------|-------12-------12--------|
|--------------------------|--------------------------|
|-(14)----14-(14)-15-14s12-|-12h14----12h14----12h14--|
|--------------------------|--------------------------|
|--------------------------|--------------------------|
|--------------------------|--------------------------|


  D5                       Bb5
   Q    Q       E  E  E     E    +E  E E  E   E   E  Q
   |    |       |  |  |     |     |  | |  |   |   |  |
   /    /       /  /  /     /     /  / /  /   /   /  /

   ~~                       ~~~~~~~~~                   ~~~
   H         a  E  E  E     E    +Q.      E  +E   E  E  E
|-----------------------------|---------------------------|
|--------------------------11-|-(11)-----11-(11)-10--8----|
|--7---------5s=7--9-10-------|------------------------10-|
|-----------------------------|---------------------------|
|-----------------------------|---------------------------|
|-----------------------------|---------------------------|
|
|                           ~~~~~~~~~                   ~~~
|  Q   +Q    a  E  E  E  a  E    +Q.      E  +E   E  E  E
|-----------------------------|---------------------------|
|--------------------10-13s15-|-(15)-----15-(15)-13-------|
|-10--(10)\--9s10-12----------|---------------------15p14-|
|-----------------------------|---------------------------|
|-----------------------------|---------------------------|
|-----------------------------|---------------------------|


  F5(type 2)            A/E
    Q   E  E   E   E  E E    E  E  E  E  E  E  E  E
    |   |  |   |   |  | |    |  |  |  |  |  |  |  |
    /   /  /   /   /  / /    /  /  /  /  /  /  /  /

 ~~~~~~
   +Q.     E  +E   E  E E    E  E  E  E  E  E  E  E
|-------------------------|--------9-----9-12--9------|
|-------------------------|----10----10----------10---|
|-(10)----10-(10)-12-10s9-|--9------------------------|
|-------------------------|---------------------------|
|-------------------------|---------------------------|
|-------------------------|---------------------------|
|
|~~~~~~
|  +Q.     E  +E   E  Q      E  E  E  E  E  E  E  E
|-------------------------|----------------15---------|
|-------------------------|----14-17-14-17----17-14---|
|-(14)----14-(14)h15-14---|-14------------------------|
|-------------------------|---------------------------|
|-------------------------|---------------------------|
|-------------------------|---------------------------|


  D5                       Bb5
   Q    Q       E  E  E     E    +E  E E  E   E   E  Q
   |    |       |  |  |     |     |  | |  |   |   |  |
   /    /       /  /  /     /     /  / /  /   /   /  /

                            ~~~~~~~~~                   ~~~
   Q   +Q    a  E  E  E     E    +Q.      E  +E   E  E  E
|-----------------------------|---------------------------|
|--------------------------11-|-(11)-----11-(11)-10--8----|
|--7---(7)\--5s=7--9-10-------|------------------------10-|
|-----------------------------|---------------------------|
|-----------------------------|---------------------------|
|-----------------------------|---------------------------|
|
|                           ~~~~~~~~~                   ~~~
|  Q   +Q    a  E  E  E  a  E    +Q.      E  +E   E  E  E
|-----------------------------|---------------------------|
|--------------------10-13s15-|-(15)-----15-(15)-13-------|
|-10--(10)\--9s10-12----------|---------------------15p14-|
|-----------------------------|---------------------------|
|-----------------------------|---------------------------|
|-----------------------------|---------------------------|


                                              To Coda
                                              To Coda
  F5(type 2)                 C/E
    Q   E  E   E   E  E  E    E  E  E  E  E  E  E  E
    |   |  |   |   |  |  |    |  |  |  |  |  |  |  |
    /   /  /   /   /  /  /    /  /  /  /  /  /  /  /

 ~~~~~~
   +Q.     E  +E   E  E  E    E  E  E  E  E  E  E  E
|--------------------------|--------8--------8---------|
|--------------------------|---------------------------|
|-(10)----10-(10)-12-10s=9-|--9h10-----9h10-----9h10---|
|--------------------------|---------------------------|
|--------------------------|---------------------------|
|--------------------------|---------------------------|
|
|~~~~~~
|  +Q.     E  +E   E  E  E    E  E  E  E  E  E  E  E
|--------------------------|-------12-------12---------|
|--------------------------|---------------------------|
|-(14)----14-(14)-15-14s12-|-12h14----12h14----12h14---|
|--------------------------|---------------------------|
|--------------------------|---------------------------|
|--------------------------|---------------------------|


  D5                           Bb5
   Q     Q          E  E  E     E    +E  E E  E   E   E  Q
   |     |          |  |  |     |     |  | |  |   |   |  |
   /     /          /  /  /     /     /  / /  /   /   /  /

                                ~~~~~~~~~
   E Q       +E  a  E  E  E     E    +Q.      E  +E   E  E  E
|---------------------------------|---------------------------|
|------------------------------11-|-(11)-----11-(11)-10--8----|
|--9s7-------(7)-5s=7--9-10-------|------------------------10-|
|---------------------------------|---------------------------|
|---------------------------------|---------------------------|
|---------------------------------|---------------------------|
|
|                               ~~~~~~~~~
|  Q    +Q       a  E  E  E  a  E    +Q.      E  +E   E  E  E
|---------------------------------|---------------------------|
|------------------------10-13s15-|-(15)-----15-(15)-13-------|
|-10---(10)\-----9s10-12----------|---------------------15p14-|
|---------------------------------|---------------------------|
|---------------------------------|---------------------------|
|---------------------------------|---------------------------|


                                     D.S. al Coda
  A5                G5                  F5
   Q        Q        Q        Q          Q  Q  H
   |                 |                   |
   /                 /                   /

                                         ~~
   |--3--|  |--3--|  |--3--|  |--3--|
   E  E  E  E  E  E  E  E  E  E  E  E    Q  Q  H
|-17p12-------------------------13-18-|-17----------||
|-------14-------------------15-------|-------------||
|----------14-------------15----------|-------------||
|-------------14-------15-------------|-------------||
|----------------14-17----------------|-------------||
|-------------------------------------|-------------||
|
|                                        ~~
|  |--3--|  |--3--|  |--3--|  |--3--|
|  E  E  E  E  E  E  E  E  E  E  E  E    Q  Q  H
|----------------------------------15-|-13----------||
|----14-------------------------15----|-------------||
|-14----14-------------------15-------|-------------||
|----------14-------------15----------|-------------||
|-------------16-12-13-17-------------|-------------||
|-------------------------------------|-------------||


  &
  D5                           Bb5
  Gtrs I, II
   Q     Q          E  E  E     E    +E  E E  E   E   E  Q
   |     |          |  |  |     |     |  | |  |   |   |  |
   /     /          /  /  /     /     /  / /  /   /   /  /

  Gtr III
                                ~~~~~~~~~
   E Q       +E  a  E  E  E     E    +Q.      E  +E   E  E  E
|---------------------------------|---------------------------|
|------------------------------11-|-(11)-----11-(11)-10--8----|
|--9s7-------(7)-5s=7--9-10-------|------------------------10-|
|---------------------------------|---------------------------|
|---------------------------------|---------------------------|
|---------------------------------|---------------------------|
|
| Gtr IV
|                               ~~~~~~~~~
|  Q    +Q       a  E  E  E  a  E    +Q.      E  +E   E  E  E
|---------------------------------|---------------------------|
|------------------------10-13s15-|-(15)-----15-(15)-13-------|
|-10---(10)\-----9s10-12----------|---------------------15p14-|
|---------------------------------|---------------------------|
|---------------------------------|---------------------------|
|---------------------------------|---------------------------|
|
| Gtr V
|  W                                  W
|---------------------------------|---------------------------|
|---------------------------------|---------------------------|
|---------------------------------|---------------------------|
|---------------------------------|---------------------------|
|---------------------------------|---------------------------|
|---------------------------------|---------------------------|


  A5                G5                  F5
   Q        Q        Q        Q          Q        Q    H
   |                 |                   |
   /                 /                   /

                                         ~~~~~~~~
   |--3--|  |--3--|  |--3--|  |--3--|
   E  E  E  E  E  E  E  E  E  E  E  E    Q        Q    H
|-17p12-------------------------13-18-|-17--------------------------------||
|-------14-------------------15-------|-----------------------------------||
|----------14-------------15----------|-----------------------------------||
|-------------14-------15-------------|-----------------------------------||
|----------------14-17----------------|-----------------------------------||
|-------------------------------------|-----------------------------------||
|
|                                        ~~~~~~~~
|  |--3--|  |--3--|  |--3--|  |--3--|
|  E  E  E  E  E  E  E  E  E  E  E  E    Q        Q    H
|-12-------------------------------15-|-13--------------------------------||
|----14-------------------------15----|-----------------------------------||
|-------14-------------------15-------|-----------------------------------||
|----------14-------------15----------|-----------------------------------||
|-------------16-12-13-17-------------|-----------------------------------||
|-------------------------------------|-----------------------------------||
|
|  W                                     H            +Q        +E   +E
|-------------------------------------|-----------------------------------||
|-------------------------------------|-13b14.5======(13)b15===(13)-(13)r-||
|-------------------------------------|-13b15========(13)b16===(13)-(13)r-||
|-------------------------------------|-----------------------------------||
|-------------------------------------|-----------------------------------||
|-------------------------------------|-----------------------------------||


 Interlude
  D5
  Gtrs I, II
   PM----------|       PM------|              PM----------|     PM--------
   S     S S S E   E   S S S S  E E     Q     S     S S S  E E  S  S S S
|-----------------------------------|------------------------------------|
|-----------------------------------|------------------------------------|
|-----------------------------------|------------------------------------|
|-----------------------------------|------------------------------------|
|-----------------------------------|------------------------------------|
|--0-----0-0-0-0-------0-0-0-0--0---|---------0-----0-0-0--0----0--0-0-0-|
|
| Gtr III
|  Q.             +E   Q        Q      +Q     Q            Q    Q
|-10-------------(10)-10-------10---|-(10)---10-----------10---10--------|
|-13b15==========(13)-13-------13---|-(13)---13-----------13---13r-------|
|-----------------------------------|------------------------------------|
|-----------------------------------|------------------------------------|
|-----------------------------------|------------------------------------|
|-----------------------------------|------------------------------------|
|
| Gtr IV
|  Q.             +E   Q        Q      +Q     Q            Q    Q
|-13-------------(13)-13-------13---|-(13)--(13)----------13---13--------|
|-16b18==========(16)-16-------16r==|=(16)---16b18========16---16r-------|
|-----------------------------------|------------------------------------|
|-----------------------------------|------------------------------------|
|-----------------------------------|------------------------------------|
|-----------------------------------|------------------------------------|


 -|                PM----------|             PM-------|
   E     E   Q     S     S S S  E E     Q    S  S S S  E    E Q
|-----------------------------------|----------------------------|
|-----------------------------------|----------------------------|
|-----------------------------------|----------------------------|
|-----------------------------------|----------------------------|
|-----------------------------------|----------------------------|
|--0---------------0-----0-0-0--0---|--------0--0-0-0--0---------|
|
|  Q        +Q     Q            Q      +Q    Q         H
|-10-------(10)---10-----------10---|-(10)--10-------------------|
|-13b15----(13)---13b15========13---|-(13)--13r------------------|
|-----------------------------------|----------------------------|
|-----------------------------------|----------------------------|
|-----------------------------------|----------------------------|
|-----------------------------------|----------------------------|
|
|  H              +Q            Q       Q    Q         q      Q
|-13-------------(13)----------13---|--13---13--------13---------|
|-16b18==========(16)----------16---|--16---16r-------16b18------|
|-----------------------------------|----------------------------|
|-----------------------------------|----------------------------|
|-----------------------------------|----------------------------|
|-----------------------------------|----------------------------|


                                                                            Bb5    D5
  Gtrs I, II
   PM----------|           PM-------|                  PM-------------------------------
   S     S S S   E    E    S  S S S  E     E     Q     S  S S S  S    S S S   S  S S S
|--------------------------------------------|-----------------------------------------|
|--------------------------------------------|-----------------------------------------|
|--------------------------------------------|-----------------------------------------|
|--------------------------------------------|-----------------------------------------|
|--------------------------------------------|-----------------------------------------|
|--0-----0-0-0---0---------0--0-0-0--0-------|---------0--0-0-0--0----0-0-0---8--8-0-0-|
|
| Gtr III
|  Q.                +E    Q         Q          +Q     Q         Q            Q
|-10----------------(10)--10--------10-------|-(10)---10--------10-----------10--------|
|-13b15=============(13)--13r-------13b15====|=(13)---13--------13-----------13r-------|
|--------------------------------------------|-----------------------------------------|
|--------------------------------------------|-----------------------------------------|
|--------------------------------------------|-----------------------------------------|
|--------------------------------------------|-----------------------------------------|
|
| Gtr IV
|  Q            +Q        +Q         Q          +Q    +Q         Q           +Q
|-13-----------(13)------(13)-------13-------|-(13)--(13)-------13----------(13)-------|
|-16b18========(16)r=====(16)-------16b18====|=(16)r=(16)-------16b18-------(16)-------|
|--------------------------------------------|-----------------------------------------|
|--------------------------------------------|-----------------------------------------|
|--------------------------------------------|-----------------------------------------|
|--------------------------------------------|-----------------------------------------|


  A5       D5  G5    D5  F5      D5  G5      D5
 ----------------------------------------------|
   S     S S S  S  S S S  S    S S S  S    S S S    Q  Q   H
|------------------------------------------------|---------------||
|------------------------------------------------|---------------||
|------------------------------------------------|---------------||
|------------------------------------------------|---------------||
|------------------------------------------------|--0------------||
|--7-----7-0-0--5--5-0-0--3----3-0-0--5----5-0-0-|--0------------||
|
|                                                  Gtr V
|  H.                                 Q             H      H
|-10---------------------------------10----------|-10s====14/----||
|-13b15------------------------------13b15-------|-10s====14/----||
|------------------------------------------------|---------------||
|------------------------------------------------|---------------||
|------------------------------------------------|---------------||
|------------------------------------------------|---------------||
|
|  Q            Q         Q           Q             W
|-13-----------13--------13----------13----------|---------------||
|-16b18========16r-------16b18-------16b18-------|---------------||
|------------------------------------------------|---------------||
|------------------------------------------------|---------------||
|------------------------------------------------|---------------||
|------------------------------------------------|---------------||


 Guitar Solo
    Bb5             A5                     D5
  Gtrs I, II
    Q  Q  E E E E    Q    Q    E  E E  E     Q            E     E      E       E     E     E
    |  |  | | | |    |    |    |  | |  |     |            |     |      |       |     |     |
    /  /  / / / /    /    /    /  / /  /     /            /     /      /       /     /     /

  Gtr III
  a Q  Q  E E E E   +E  Q   E +E  Q    E    +H                        +E       E     Q
|-----------------|----------------------|------------------------------------------------------|
|-----------------|----------------------|------------------------------------------------------|
|-5s7--7--7-7-7-6-|-(6)-6---7-(7)-9---10-|-(10)----------------------(10)\----------------------|
|-----------------|----------------------|------------------------------------------------------|
|-----------------|----------------------|------------------------------------------------------|
|-----------------|----------------------|------------------------------------------------------|
|
| Gtr IV
| a Q  Q  E E E E   +E  E E E +E  Q    E    +H                        +E       E     Q
|-----------------|----------------------|------------------------------------------------------|
|-3s6--6--6-6-6-5-|-(5)-5-5-6-(6)-8---10-|-(10)----------------------(10)\----------------------|
|-----------------|----------------------|------------------------------------------------------|
|-----------------|----------------------|------------------------------------------------------|
|-----------------|----------------------|------------------------------------------------------|
|-----------------|----------------------|------------------------------------------------------|
|
| Gtr V
|   W                W                       S   S  S  S  S  S  S  S   S    S  S  S  S  S  S  S
|-----------------|----------------------|--15--13-------------16-15--13------------15-13-------|
|-----------------|----------------------|---------15-15-------------------15-13----------15-15-|
|-----------------|----------------------|---------------15-16-------------------14-------------|
|-----------------|----------------------|------------------------------------------------------|
|-----------------|----------------------|------------------------------------------------------|
|-----------------|----------------------|------------------------------------------------------|


              F           E           Eb
   E     E     S  S  E     S  S  E     S  S  E
   |     |     |  |  |     |  |  |     |  |  |
   /     /     o  /  /     o  /  /     o  /  /

   W
|---------------------------------------------------|
|---------------------------------------------------|
|---------------------------------------------------|
|---------------------------------------------------|
|---------------------------------------------------|
|---------------------------------------------------|
|
|  W
|---------------------------------------------------|
|---------------------------------------------------|
|---------------------------------------------------|
|---------------------------------------------------|
|---------------------------------------------------|
|---------------------------------------------------|
|
|  S  S  S  S  S  S  S  S  S  S  S  S  S  S  S  S
|---------------------------------------------------|
|-13----15-13---------------------------------------|
|----14-------14-13-12----13-12---------------------|
|----------------------15-------15-12----12---------|
|-------------------------------------16----16-12---|
|---------------------------------------------------|


    Bb5              A5                      D5
     Q  Q  E E E E     Q     Q    E  E E E    Q            E     E     E       E     E     E
     |  |  | | | |     |     |    |  | | |    |            |     |     |       |     |     |
     /  /  / / / /     /     /    /  / / /    /            /     /     /       /     /     /

  a  Q  Q  E E E E    +E   Q   E +E  Q   E   +H                       +E       E     Q
|------------------|-----------------------|----------------------------------------------------|
|------------------|-----------------------|----------------------------------------------------|
|-5s=7--7--7-7-7-6-|--(6)--6---7-(7)-9---7-|-(7)----------------------(7)\----------------------|
|------------------|-----------------------|----------------------------------------------------|
|------------------|-----------------------|----------------------------------------------------|
|------------------|-----------------------|----------------------------------------------------|
|
| a  Q  Q  E E E E    +E   E E E +E  Q   E   +H                       +E       E     Q
|------------------|-----------------------|----------------------------------------------------|
|-5s=6--6--6-6-6-5-|--(5)--5-5-6-(6)-8---6-|-(6)----------------------(6)\----------------------|
|------------------|-----------------------|----------------------------------------------------|
|------------------|-----------------------|----------------------------------------------------|
|------------------|-----------------------|----------------------------------------------------|
|------------------|-----------------------|----------------------------------------------------|
|
|    ~~
|    W                +E   E Q    H           S   S  S  S  S  S  S  S  S    S  S  S  S  S  S  S
|------------------|-----------------------|----------------------------------------------------|
|------------------|-----------------------|----------------------------------------------------|
|------------------|-----------------------|-13--12-10----------12-12-10------------13-12-10----|
|---12-------------|-(12)\-----------------|-----------12-10-10------------12-10-10----------12-|
|------------------|-----------------------|----------------------------------------------------|
|------------------|-----------------------|----------------------------------------------------|


              F           E                  Eb
   E     E     S  S  E     S    S    E        S  S  E
   |     |     |  |  |     |    |    |        |  |  |
   /     /     o  /  /     o    /    /        o  /  /

   W
|-----------------------------------------------------------|
|-----------------------------------------------------------|
|-----------------------------------------------------------|
|-----------------------------------------------------------|
|-----------------------------------------------------------|
|-----------------------------------------------------------|
|
|  W
|-----------------------------------------------------------|
|-----------------------------------------------------------|
|-----------------------------------------------------------|
|-----------------------------------------------------------|
|-----------------------------------------------------------|
|-----------------------------------------------------------|
|
|                          |-------5-------|
|  S  S  S  S  S  S  S  S  S  S    S    S  S  S  S  S  S
|-----------------------------------------------------------|
|-----------------------------------------------11-12-13----|
|-------13-12-10----------13-12---10---12-13-13-------------|
|-10-10----------12-10-10-----------------------------------|
|-----------------------------------------------------------|
|-----------------------------------------------------------|


    Bb5                         A5
     Q          Q    E  E E E     Q      Q        E   E E  E
     |          |    |  | | |     |      |        |   | |  |
     /          /    /  / / /     /      /        /   / /  /

                                                           ~~~
  a  Q          Q    E  E E E    +E    Q   a  E  +E   Q    E
|-----------------------------|------------------------------|
|-----------------------------|------------------------------|
|-5s=7----------7----7--7-7-6-|--(6)---7---7s14-(14)-12---10-|
|-----------------------------|------------------------------|
|-----------------------------|------------------------------|
|-----------------------------|------------------------------|
|
|                                                          ~~~
| a  Q          Q    E  E E E    +E    Q   a  E  +E   Q    E
|-----------------------------|------------5s=8--(8)--6----5-|
|-5s=6----------6----6--6-6-5-|--(5)---6---------------------|
|-----------------------------|------------------------------|
|-----------------------------|------------------------------|
|-----------------------------|------------------------------|
|-----------------------------|------------------------------|
|
|            ~~~~~~~~~~~
|    E      +Q.     +H           +E    E Q        H
|-----------------------------|------------------------------|
|---13b15==(13)----(13)-------|-(13)r\-----------------------|
|-----------------------------|------------------------------|
|-----------------------------|------------------------------|
|-----------------------------|------------------------------|
|-----------------------------|------------------------------|


  D5                                                                      
    Q           E     E      E       E     E        E          
    |           |     |      |       |     |        |          
    /           /     /      /       /     /        /          

 ~~~~~~
   +H                       +E       E     Q                   W
|-----------------------------------------------------------|
|-----------------------------------------------------------|
|-(10)---------------------(10)\----------------------------|
|-----------------------------------------------------------|
|-----------------------------------------------------------|
|-----------------------------------------------------------|

E     E     S    S    E        S  S  E        S  S  E
|     |     |    |    |        |  |  |        |  |  |
/     /     o    /    /        o  /  /        o  /  /
F                  E              Eb
-----------------------------------------------------------|
-----------------------------------------------------------|
-----------------------------------------------------------|
-----------------------------------------------------------|
-----------------------------------------------------------|
-----------------------------------------------------------|
|
|~~~~~~
|  +H                       +E       E     Q                   
|--(5)----------------------(5)\----------------------------|
|-----------------------------------------------------------|
|-----------------------------------------------------------|
|-----------------------------------------------------------|
|-----------------------------------------------------------|
|-----------------------------------------------------------|
|
W
-----------------------------------------------------------|
-----------------------------------------------------------|
-----------------------------------------------------------|
-----------------------------------------------------------|
-----------------------------------------------------------|
-----------------------------------------------------------|

|                                          |------6-------|                
|   S  S  S  S  S  S  S  S   S    S  S  S  S  S  S  S  S  S    
|--15h16p15p13----13-16-14--15---13-15-20-17-16-15-13----13-|
|--------------15-------------------------------------15----|
|-----------------------------------------------------------|
|-----------------------------------------------------------|
|-----------------------------------------------------------|
|-----------------------------------------------------------|

|-------5-------|        |--3--|
S  S  S  S  S  S    S    S  S  S  S  S  S  S  S  S  S  S
-17-14-14-14-20-14---13------------------------13----------|
--------------------------14----13----13-13h15----15-13----|
-----------------------------14----14-------------------13-|
-----------------------------------------------------------|
-----------------------------------------------------------|
-----------------------------------------------------------|

      Q  Q    E   E E E    Q    Q    E  E E E    Q            E    E      E     E     E         E
      |  |    |   | | |    |    |    |  | | |    |            |    |      |     |     |         |
      /  /    /   / / /    /    /    /  / / /    /            /    /      /     /     /         /

   a  Q  Q    E   E E E   +E  Q   E +E  Q   E   +E     E      E    E     +Q           Q
|-----------------------|---------------------|----------------------------------------------------|
|-----------------------|---------------------|----------------------------------------------------|
|--5s=7--7----7---7-7-6-|-(6)-6---7-(7)-9---7-|-(7)S==10-----10---10----(10)s========14------------|
|-----------------------|---------------------|----------------------------------------------------|
|-----------------------|---------------------|----------------------------------------------------|
|-----------------------|---------------------|----------------------------------------------------|
|
|                                                                                     |-----3------|
|  a  Q  Q    E   E E E   +E  E E E +E  Q   E   +E     Q.                +Q          +E      E     E
|----------------------|---------------------|-----------------------------------------------------|
|-5s=6--6----6---6-6-5-|-(5)-5-5-6-(6)-8---6-|-(6)s==10----------------(10)--------(10)s===15----15|
|----------------------|---------------------|-----------------------------------------------------|
|----------------------|---------------------|-----------------------------------------------------|
|----------------------|---------------------|-----------------------------------------------------|
|----------------------|---------------------|-----------------------------------------------------|
|
|     ~~
|  a  H      +E   E Q      W                     S  S  S   S  S S  S  S   S   S S S   S   S     S S
|-----------------------|----------------|---------------------------------------------------------|
|-----------------------|----------------|---------------------------------------------------------|
|-----------------------|----------------|-10--9--7----------12-10---9----------14--12----10-------|
|-13s15-----(15)\-------|----------------|-----------10--9-9------------12-9-9------------------14-|
|-----------------------|----------------|---------------------------------------------------------|
|-----------------------|----------------|---------------------------------------------------------|


    E   E     S  S  E      S   S  E     S S     E
    |   |     |  |  |      |   |  |     | |     |
    /   /     o  /  /      o   /  /     o /     /

    E   Q           E     +E      Q             E
|----------------------------------------------------|
|------------------17----(17)----18------------------|
|--14s=19--------------------------------------19----|
|----------------------------------------------------|
|----------------------------------------------------|
|----------------------------------------------------|
|
|  +E   Q           E     +E      Q             E
|--------------------------------17------------------|
|-(15)s18----------20----(20)------------------18----|
|----------------------------------------------------|
|----------------------------------------------------|
|----------------------------------------------------|
|----------------------------------------------------|
|
|                                       |----3-----|
|   E   S  S  S  S  S  S   S   S  S  S  E    E     E
|----------------------------------------------------|
|----------------------------------------------------|
|------17-15-14--------------------------------------|
|--12-----------17-15-14--------------------15----15-|
|-------------------------17--15-14-15-17------------|
|----------------------------------------------------|


  Bb5
    Q.          E  +E   E  Q       +E    Q    E   E   E E  E
    |           |   |   |  |        |    |    |   |   | |  |
    /           /   /   /  /        /    /    /   /   / /  /

   +H              +E   E  E  E    +Q.        E  +E   Q    E
|-------------------------------|----------------------------|
|----------------------17-18----|------------18-(18)-17------|
|-(19)------------(19)----------|-------------------------19-|
|----------------------------19-|-(19)-----------------------|
|-------------------------------|----------------------------|
|-------------------------------|----------------------------|
|
|  +H              +E   E  E  E    +Q.        E  +E   Q    E
|----------------------15-17-15-|-(15)-------17-(17)-15------|
|-(18)------------(18)----------|-------------------------18-|
|-------------------------------|----------------------------|
|-------------------------------|----------------------------|
|-------------------------------|----------------------------|
|-------------------------------|----------------------------|
|
|           ~~~~~~~~~~~
|   E      +Q.     +H              +E    E Q      H
|-------------------------------|----------------------------|
|-------------------------------|----------------------------|
|--17b19==(17)----(17)----------|-(17)r\---------------------|
|-------------------------------|----------------------------|
|-------------------------------|----------------------------|
|-------------------------------|----------------------------|


  A5
   Q.    E  +E   E  Q     +E  Q  E  E E   E       E
   |     |   |   |  |      |  |  |  | |   |       |
   /     /   /   /  /      /  /  /  / /   /       /

                    ~~~~~~~~~~
   Q.    E  +E   E  Q     +H        H
|----------------------|-----------------------------|
|---------------17-----|-----------------------------|
|-18----19-(19)----18--|-(18)------18----------------|
|----------------------|-----------------------------|
|----------------------|-----------------------------|
|----------------------|-----------------------------|
|
|                   ~~~~~~~~~~
|  Q.    E  +E   E  Q     +H.            +Q
|---------------15-----|-----------------------------|
|-17----18-(18)----17--|-(17)-----------(17)b18======|
|----------------------|-----------------------------|
|----------------------|-----------------------------|
|----------------------|-----------------------------|
|----------------------|-----------------------------|
|
|  W                       H        Q     E       E
|----------------------|-------------------------10S=|
|----------------------|-----------------------------|
|----------------------|-----------------------------|
|----------------------|-----------------------------|
|----------------------|-----------------------------|
|----------------------|-----------------------------|


  Bb5
    Q.              E +E  E  Q       +E   Q     E   E     E  E  E
    |               |  |  |  |        |   |     |   |     |  |  |
    /               /  /  /  /        /   /     /   /     /  /  /

   +Q          +H.                   +H            +Q        Q
|---------------------------------|-------------------------------|
|---------------------------------|-------------------------------|
|-(18)b19=====(18)----------------|-(18)----------(18)r\----------|
|---------------------------------|-------------------------------|
|---------------------------------|-------------------------------|
|---------------------------------|-------------------------------|
|
|  +W                                +H            +Q        Q
|---------------------------------|-------------------------------|
|-(17)----------------------------|-(17)----------(17)r\----------|
|---------------------------------|-------------------------------|
|---------------------------------|-------------------------------|
|---------------------------------|-------------------------------|
|---------------------------------|-------------------------------|
|
|   E       E   E   E  E  E  E  E     E   E  E  E   E     E  E  E
|--18p=====17---------------------|-------------------------------|
|--------------18-----------------|-------------------------------|
|------------------19-15s14-15p14-|-------------------------15----|
|---------------------------------|--15------------------15-------|
|---------------------------------|------15-13-15s=17----------17-|
|---------------------------------|-------------------------------|


  A5             G5(type 2)               F5(type 2)        C/E
 3/4
   Q        E     E    +E       E          Q           E     E    +E     E
   |        |     |     |       |          |           |     |     |     |
   /        /     /     /       /          /           /     /     /     /

   W                                       W
|---------------------------------------|--------------------------------------||
|---------------------------------------|--------------------------------------||
|---------------------------------------|--------------------------------------||
|---------------------------------------|--------------------------------------||
|---------------------------------------|--------------------------------------||
|---------------------------------------|--------------------------------------||
|
|  W                                       W
|---------------------------------------|--------------------------------------||
|---------------------------------------|--------------------------------------||
|---------------------------------------|--------------------------------------||
|---------------------------------------|--------------------------------------||
|---------------------------------------|--------------------------------------||
|---------------------------------------|--------------------------------------||
|
|  |--3--|              |------5------|
|  E  E  E  S  S  S  S  S  S  S    S  S    S  S  S  S  S  S  S  S  S  S  S  S
|---------------------------------------|----17----------------------------17--||
|-------------------15-18-15---------15-|-18----18-18-------------17-18-20-----||
|-14-17-15-14----17----------17---17----|-------------17-------19--------------||
|-------------17------------------------|----------------19-20-----------------||
|---------------------------------------|--------------------------------------||
|---------------------------------------|--------------------------------------||


 Bridge
  D5(type 2)                          C/E(type 2)
  Gtrs I, II
   Q       E E  E E     Q    Q   Q      Q      E E  E E    Q   Q   Q
   |       | |  | |     |    |   |      |      | |  | |    |   |   |
   /       / /  / /     /    /   /      /      / /  / /    /   /   /

  Gtr V
                        ~~~~
   H.                  +H.             +Q      Q    Q      W
|-20b22=============|=(20)----------|-(20)r\------------|-------------|
|-------------------|---------------|-------------------|-------------|
|-------------------|---------------|-------------------|-------------|
|-------------------|---------------|-------------------|-------------|
|-------------------|---------------|-------------------|-------------|
|-------------------|---------------|-------------------|-------------|
|
| Gtr VI
|  Q       Q    Q       Q    Q   Q      Q      Q    Q      Q   Q   Q
|-10----------------|---------------|--12---------------|-------------|
|---------10--------|-----------10--|---------13--------|---------13--|
|--------------10---|-------10------|--------------12---|-----12------|
|-------------------|--12-----------|-------------------|-14----------|
|-------------------|---------------|-------------------|-------------|
|-------------------|---------------|-------------------|-------------|


  F5(type 3)                    Bb5(type 2)
   Q   E E  E E    Q   Q   Q     Q   E E  E E       Q   Q   Q
   |   | |  | |    |   |   |     |   | |  | |       |   |   |
   /   / /  / /    /   /   /     /   / /  / /       /   /   /

   W               W             W               a  Q   Q   Q
|---------------|-------------|---------------|-13s18--17-------|
|---------------|-------------|---------------|------------13---|
|---------------|-------------|---------------|-----------------|
|---------------|-------------|---------------|-----------------|
|---------------|-------------|---------------|-----------------|
|---------------|-------------|---------------|-----------------|
|
|  Q   Q    Q      Q   Q   Q     Q   Q    Q         Q   Q   Q
|-13------------|-------------|-10------------|-----------------|
|-----13--------|---------13--|-----11--------|------------11---|
|----------14---|-----14------|----------10---|--------10-------|
|---------------|-15----------|---------------|----12-----------|
|---------------|-------------|---------------|-----------------|
|---------------|-------------|---------------|-----------------|


     Bb5(type 2)                      C5
      Q    E E  E E     Q    Q   Q      Q     E E  E E    Q   Q   Q
      |    | |  | |     |    |   |      |     | |  | |    |   |   |
      /    / /  / /     /    /   /      /     / /  / /    /   /   /

      ~~~~~~~~~~~~~~~~~~~~~
   a  H.               +H.             +Q     Q    Q      W
|-------------------|---------------|------------------|--------------|
|-13h15-------------|-(15)----------|-(15)\------------|--------------|
|-------------------|---------------|------------------|--------------|
|-------------------|---------------|------------------|--------------|
|-------------------|---------------|------------------|--------------|
|-------------------|---------------|------------------|--------------|
|
|     Q    Q    Q       Q    Q   Q      Q     Q    Q      Q   Q   Q
|----10-------------|---------------|--12--------------|--------------|
|---------11--------|-----------11--|--------13--------|---------13---|
|--------------10---|-------10------|-------------12---|-----12-------|
|-------------------|--12-----------|------------------|-14-----------|
|-------------------|---------------|------------------|--------------|
|-------------------|---------------|------------------|--------------|


  F5(type 3)                     Bb5(type 2)
   Q   E E  E E    Q   E E  Q     Q   E E  Q        Q   E E  Q
   |   | |  | |    |   | |  |     |   | |  |        |   | |  |
   /   / /  / /    /   / /  /     /   / /  /        /   / /  /

   W               W              W              a  Q   Q    Q
|---------------|--------------|--------------|-13s18--17--------|
|---------------|--------------|--------------|-------------13---|
|---------------|--------------|--------------|------------------|
|---------------|--------------|--------------|------------------|
|---------------|--------------|--------------|------------------|
|---------------|--------------|--------------|------------------|
|
|  Q   Q    Q      Q   Q    Q     Q   Q    Q        Q   Q    Q
|-13------------|--------------|-10-----------|------------------|
|-----13--------|----------13--|-----11-------|-------------11---|
|----------14---|-----14-------|----------10--|--------10--------|
|---------------|-15-----------|--------------|----12------------|
|---------------|--------------|--------------|------------------|
|---------------|--------------|--------------|------------------|


  Bb5(type 2)                          C5
       Q    E E  E E     Q    Q   Q      Q     E E  Q     Q   E E  E E
       |    | |  | |     |    |   |      |     | |  |     |   | |  | |
       /    / /  / /     /    /   /      /     / /  /     /   / /  / /

       ~~~~~~~~~~~~~~~~~~~~~
   a   H.               +H.             +Q     Q    Q     W
|--------------------|---------------|-----------------|----------------|
|-13h[15]------------|-(15)----------|-(15)\-----------|----------------|
|--------------------|---------------|-----------------|----------------|
|--------------------|---------------|-----------------|----------------|
|--------------------|---------------|-----------------|----------------|
|--------------------|---------------|-----------------|----------------|
|
|      Q    Q    Q       Q    Q   Q      Q     Q    Q     Q   Q    Q
|-----10-------------|---------------|--12-------------|----------------|
|----------11--------|-----------11--|--------13-------|----------13----|
|---------------10---|-------10------|-------------12--|-----12---------|
|--------------------|--12-----------|-----------------|-14-------------|
|--------------------|---------------|-----------------|----------------|
|--------------------|---------------|-----------------|----------------|


  F5(type 3)                     Bb5(type 2)
   Q   E Q    E    Q   E E  Q     Q   E E  E E       Q   E E  Q
   |   | |    |    |   | |  |     |   | |  | |       |   | |  |
   /   / /    /    /   / /  /     /   / /  / /       /   / /  /

   W               W              W               a  Q   Q    Q
|---------------|--------------|---------------|-13s18--17--------|
|---------------|--------------|---------------|-------------13---|
|---------------|--------------|---------------|------------------|
|---------------|--------------|---------------|------------------|
|---------------|--------------|---------------|------------------|
|---------------|--------------|---------------|------------------|
|
|  Q   Q    Q      Q   Q    Q     Q   Q    Q         Q   Q    Q
|-13------------|--------------|-10------------|------------------|
|-----13--------|----------13--|-----11--------|-------------11---|
|----------14---|-----14-------|----------10---|--------10--------|
|---------------|-15-----------|---------------|----12------------|
|---------------|--------------|---------------|------------------|
|---------------|--------------|---------------|------------------|


  Bb5(type 2)                          C5
      Q    E E  E E     Q    E E  Q      Q     E E  E E    Q   Q   Q
      |    | |  | |     |    | |  |      |     | |  | |    |   |   |
      /    / /  / /     /    / /  /      /     / /  / /    /   /   /

      ~~~~~~~~~~~~~~~~~~~~~
   a  H.               +H.              +Q     Q    Q      W
|-------------------|----------------|------------------|--------------|
|-13h15-------------|-(15)-----------|-(15)\------------|--------------|
|-------------------|----------------|------------------|--------------|
|-------------------|----------------|------------------|--------------|
|-------------------|----------------|------------------|--------------|
|-------------------|----------------|------------------|--------------|
|
|     Q    Q    Q       Q    Q    Q      Q     Q    Q      Q   Q   Q
|----10-------------|----------------|--12--------------|--------------|
|---------11--------|------------11--|--------13--------|---------13---|
|--------------10---|-------10-------|-------------12---|-----12-------|
|-------------------|--12------------|------------------|-14-----------|
|-------------------|----------------|------------------|--------------|
|-------------------|----------------|------------------|--------------|


  F5(type 3)     C/E(type 2)    D5(type 2)     C5
  Gtrs I, II
   H.             H.             H.             Q   E E  Q
   |              |              |              |   | |  |
   /              /              /              /   / /  /

  Gtr VI
   Q    Q   Q     Q    Q   Q     Q    Q   Q     Q   Q    Q
|-13-----------|--------------|-10-----------|-12-----------|
|------13------|----------13--|------10------|-----13-------|
|----------14--|------12------|----------10--|----------12--|
|--------------|-14-----------|--------------|--------------|
|--------------|--------------|--------------|--------------|
|--------------|--------------|--------------|--------------|


                                               D.S.S. al Dbl. Coda
  Bb5                             A5
 4/4
  Gtrs I, II
  PM|    PM|      PM|    PM|      PM--------|
  E E Q  E E Q    E E Q  E E Q    E E E E E E E E   E E E E E E Q
|---------------|---------------|-----------------|----------------||
|---------------|---------------|-----------------|----------------||
|---------------|---------------|-----------------|----------------||
|-----3------3--|-----3------3--|-------------2-2-|-2-2-2-2-2------||
|-1-1-1--1-1-1--|-1-1-1--1-1-1--|-0-0-0-0-0-0-0-0-|-0-0-0-0-0------||
|---------------|---------------|-----------------|----------------||


  &&
  Bb5                                        A5
                                            3/4
  Gtrs I, II
   Q  Q    E  E  E    E    +E  E Q  E E Q     Q.       E +Q
   |  |    |  |  |    |     |  | |  | | |     |        |  |
   /  /    /  /  /    /     /  / /  / / /     /        /  /

  Gtr III
   ~~                 ~~~~~~~~~
   H      +E  E  E a  E    +H.          Q     E  E  E  E  E  E
|-----------------------|------------------|-12p=9-------------|
|-----------------------|------------------|-------10----------|
|--7------(7)-5--7-7s15-|-(15)-------------|-----------9-----9-|
|-----------------------|------------------|-------------11----|
|-----------------------|------------------|-------------------|
|-----------------------|------------------|-------------------|
|
| Gtr IV
|  ~~                       ~~~~
|  H      +E  E  E    E     H.          Q     E  E  E  E  E  E
|-----------------------|------------------|-17-12-------------|
|--------------------13s|==15--------------|-------14----------|
|-10-----(10)-9-10------|------------------|----------14----14-|
|-----------------------|------------------|-------------14----|
|-----------------------|------------------|-------------------|
|-----------------------|------------------|-------------------|


  G5(type 2)          F5(type 2)          C/E
   Q.       E +Q       Q.       E +Q       Q.       E +Q
   |        |  |       |        |  |       |        |  |
   /        /  /       /        /  /       /        /  /

   E  E  E  E  E  E    E  E  E  E  E  E    E  E  E  E  E  E
|-15p10-------------|-13p10-------------|-12p=8-------------||
|-------11----------|-------10----------|--------8----------||
|----------12----12-|----------10----10-|-----------9-----9-||
|-------------12----|-------------12----|-------------10----||
|-------------------|-------------------|-------------------||
|-------------------|-------------------|-------------------||
|
|  E  E  E  E  E  E    E  E  E  E  E  E    E  E  E  E  E  E
|-18p15-------------|-17p13-------------|-15p12-------------||
|-------15----------|-------15----------|-------13----------||
|----------15----15-|----------14----14-|----------12----12-||
|-------------17----|-------------15----|-------------14----||
|-------------------|-------------------|-------------------||
|-------------------|-------------------|-------------------||


 Outro
  D5
 4/4
  Gtrs I, II
   PM----------|        PM-------|                  PM--------|         PM--------
   S     S S S   E  E   S  S S S  E     E     Q     S   S S S  E    E   S  S S S
|-----------------------------------------|--------------------------------------|
|-----------------------------------------|--------------------------------------|
|-----------------------------------------|--------------------------------------|
|-----------------------------------------|--------------------------------------|
|-----------------------------------------|--------------------------------------|
|--0-----0-0-0---0------0--0-0-0--0-------|---------0---0-0-0--0--------0--0-0-0-|
|
| Gtr III
|  H                   +Q         Q          +Q     Q          Q       +Q
|-10------------------(10)-------10-------|-(10)---10---------10------(10)-------|
|-13b15---------------(13)-------13b15====|=(13)---13r--------13b15---(13)-------|
|-----------------------------------------|--------------------------------------|
|-----------------------------------------|--------------------------------------|
|-----------------------------------------|--------------------------------------|
|-----------------------------------------|--------------------------------------|
|
| Gtr IV
|  Q            +Q      Q         Q          +Q     Q          Q       +Q
|-13-----------(13)----13--------13-------|-(13)---13---------13------(13)-------|
|-16b18========(16)---(16)-------16-------|-(16)--(16)r-------16b18---(16)-------|
|-----------------------------------------|--------------------------------------|
|-----------------------------------------|--------------------------------------|
|-----------------------------------------|--------------------------------------|
|-----------------------------------------|--------------------------------------|


                                                            Eb5   Ab5
 -|                   PM-------|                   PM-----|
   E     E   Q        S  S S S   E   E    Q        S  S S S   Q     Q
|--------------------------------------|-----------------------------------|
|--------------------------------------|-----------------------------------|
|--------------------------------------|-----------------------------------|
|--------------------------------------|-----------------------------------|
|--------------------------------------|----------------------1S====6------|
|--0------------------0--0-0-0---0-----|-----------0--0-0-0---1S====6------|
|
|  Q         Q       +Q          Q        H.                        Q
|-10-------(10)-----(10)--------10-----|-10------------------------10------|
|-----------13b15===(13)-------(13)r---|-13b15=====================13------|
|--------------------------------------|-----------------------------------|
|--------------------------------------|-----------------------------------|
|--------------------------------------|-----------------------------------|
|--------------------------------------|-----------------------------------|
|
|  H.                            Q        Q        Q          Q     Q
|-13----------------------------13-----|-13------(13)-------(13)---13------|
|-16b18=========================16-----|----------16---------16---(16)r----|
|--------------------------------------|-----------------------------------|
|--------------------------------------|-----------------------------------|
|--------------------------------------|-----------------------------------|
|--------------------------------------|-----------------------------------|


  D5
   PM----------|           PM----------|              PM--------|         PM--------
   S     S S S   E    E    S     S S S  E E     Q     S   S S S  E     E  S  S S S
|-------------------------------------------|--------------------------------------|
|-------------------------------------------|--------------------------------------|
|-------------------------------------------|--------------------------------------|
|-------------------------------------------|--------------------------------------|
|-------------------------------------------|--------------------------------------|
|--0-----0-0-0---0---------0-----0-0-0--0---|---------0---0-0-0--0--------0--0-0-0-|
|
|  Q             E   +E    H                   +Q     Q          Q        Q
|-------------------------10----------------|-(10)---10---------10-------10--------|
|-13------------13r=(13)--13b15=============|=(13)---13---------13-------13r-------|
|-------------------------------------------|--------------------------------------|
|-------------------------------------------|--------------------------------------|
|-------------------------------------------|--------------------------------------|
|-------------------------------------------|--------------------------------------|
|
|  Q            +Q         Q            Q      +Q     Q          H
|-13-----------(13)-------13-----------13---|-(13)---13---------13-----------------|
|-16b18========(16)------(16)----------16---|-(16)--(16)r-------16b18==============|
|-------------------------------------------|--------------------------------------|
|-------------------------------------------|--------------------------------------|
|-------------------------------------------|--------------------------------------|
|-------------------------------------------|--------------------------------------|


                                                        Eb5    Ab5
 -|                 PM----------|              PM-----|
    E     E   Q     S     S S S  E E     Q     S  S S S  Q     Q
|------------------------------------|----------------------------|
|------------------------------------|----------------------------|
|------------------------------------|----------------------------|
|------------------------------------|----------------------------|
|------------------------------------|-------------------1S====6--|
|---0---------------0-----0-0-0--0---|---------0--0-0-0--1S====6--|
|
|   Q        +Q     Q            Q      +Q     Q         H
|--10-------(10)---10-----------10---|-(10)---10--------10--------|
|--13b15====(13)---13-----------13---|-(13)---13r-------13b15-----|
|------------------------------------|----------------------------|
|------------------------------------|----------------------------|
|------------------------------------|----------------------------|
|------------------------------------|----------------------------|
|
|  +Q         Q     H                    H               H
|-(13)-------13----13----------------|--13--------------13--------|
|-(16)------(16)r--16b18=============|=(16)r------------16b18-----|
|------------------------------------|----------------------------|
|------------------------------------|----------------------------|
|------------------------------------|----------------------------|
|------------------------------------|----------------------------|


  D5
   PM---------|        PM-------|                  PM--------|          PM--------
   S    S S S   E  E   S  S S S  E     E     Q     S   S S S  E     E   S  S S S
|----------------------------------------|---------------------------------------|
|----------------------------------------|---------------------------------------|
|----------------------------------------|---------------------------------------|
|----------------------------------------|---------------------------------------|
|----------------------------------------|---------------------------------------|
|--0----0-0-0---0------0--0-0-0--0-------|---------0---0-0-0--0---------0--0-0-0-|
|
|  H.                            Q          +Q     Q          H
|-10----------------------------10-------|-(10)---10---------10------------------|
|-13b15-------------------------13b15====|=(13)--(13)r-------13b15===============|
|----------------------------------------|---------------------------------------|
|----------------------------------------|---------------------------------------|
|----------------------------------------|---------------------------------------|
|----------------------------------------|---------------------------------------|
|
|  Q           +Q      Q         Q          +Q     Q          Q        +Q
|-13----------(13)----13--------13-------|-(13)---13---------13-------(13)-------|
|-16b18-------(16)---(16)-------16b18====|=(16)--(16)r-------16b18====(16)-------|
|----------------------------------------|---------------------------------------|
|----------------------------------------|---------------------------------------|
|----------------------------------------|---------------------------------------|
|----------------------------------------|---------------------------------------|


                                                           Eb5    Ab5
 -|                  PM-------|                  PM------|
    E   E   Q        S  S S S   E  E     Q       S   S S S  Q     Q
|------------------------------------|-------------------------------|
|------------------------------------|-------------------------------|
|------------------------------------|-------------------------------|
|------------------------------------|-------------------------------|
|------------------------------------|----------------------1S====6--|
|---0----------------0--0-0-0---0----|-----------0---0-0-0--1S====6--|
|
|  +Q       H                   Q        H                  H
|-(10)----(10)-----------------10----|--10-----------------10--------|
|-(13)r----13b15==============(13)---|--13b15--------------13b15-----|
|------------------------------------|-------------------------------|
|------------------------------------|-------------------------------|
|------------------------------------|-------------------------------|
|------------------------------------|-------------------------------|
|
|   Q       Q        Q          Q       +Q       Q          H
|--13-----(13)------13--------(13)---|-(13)-----13---------13--------|
|-(16)-----16------(16)--------16----|-(16)----(16)r-------16b18-----|
|------------------------------------|-------------------------------|
|------------------------------------|-------------------------------|
|------------------------------------|-------------------------------|
|------------------------------------|-------------------------------|


  D5
   PM----------|        PM--------|                   PM--------|           PM---------
   S     S S S   E  E   S   S S S  E     E     Q      S   S S S   E     E   S   S S S
|------------------------------------------|------------------------------------------|
|------------------------------------------|------------------------------------------|
|------------------------------------------|------------------------------------------|
|------------------------------------------|------------------------------------------|
|------------------------------------------|------------------------------------------|
|--0-----0-0-0---0------0---0-0-0--0-------|----------0---0-0-0---0---------0---0-0-0-|
|
|  H                    Q          Q           H                  Q        +Q
|-10-------------------10---------10-------|--10----------------(10)------(10)--------|
|-13b15===============(13)r-------13b15====|=(13)r---------------13b15====(13)--------|
|------------------------------------------|------------------------------------------|
|------------------------------------------|------------------------------------------|
|------------------------------------------|------------------------------------------|
|------------------------------------------|------------------------------------------|
|
|  Q            +Q      Q          Q          +Q      Q           Q         Q
|-13-----------(13)----13---------13-------|-(13)----13---------(13)-------13---------|
|-16b18========(16)---(16)r-------16b18====|=(16)---(16)r--------16b18====(16)r-------|
|------------------------------------------|------------------------------------------|
|------------------------------------------|------------------------------------------|
|------------------------------------------|------------------------------------------|
|------------------------------------------|------------------------------------------|


                                                  Eb5    Ab5
 -|           PM----------|              PM-----|
   E    E Q   S     S S S  E E     Q     S  S S S  Q      Q
|------------------------------|--------------------------------*|
|------------------------------|--------------------------------*|
|------------------------------|--------------------------------*|
|------------------------------|--------------------------------*|
|------------------------------|-------------------1S=====6-----*|
|--0----------0-----0-0-0--0---|---------0--0-0-0--1S=====6-----*|
|
|  H.                      Q       H               Q      Q
|-10----------------------10---|--10--------------10-----10-----*|
|-13----------------------13---|--13r-------------13b15--13b15--*|
|------------------------------|--------------------------------*|
|------------------------------|--------------------------------*|
|------------------------------|--------------------------------*|
|------------------------------|--------------------------------*|
|
|  H          H                    Q     Q         Q      Q
|-13---------13----------------|--13---(13)-------13-----13-----*|
|-16b18------16b18=============|=(16)---16r-------16b18--16b18--*|
|------------------------------|--------------------------------*|
|------------------------------|--------------------------------*|
|------------------------------|--------------------------------*|
|------------------------------|--------------------------------*|


Duration Legend
---------------
W - whole; H - half; Q - quarter; E - 8th; S - 16th; T - 32nd; X - 64th; a - acciaccatura
+ - note tied to previous; . - note dotted; .. - note double dotted
Uncapitalized letters represent notes that are staccato (1/2 duration)
Irregular groupings are notated above the duration line
Duration letters will always appear directly above the note/fret number it represents the
duration for.  Duration letters with no fret number below them represent rests.  Multi-
bar rests are notated in the form Wxn, where n is the number of bars to rest for.  Low
melody durations appear below the staff

Tablature Legend
----------------
 h   - hammer-on
 p   - pull-off
 b   - bend
 pb  - pre-bend
 r   - bend release (if no number after the r, then release immediately)
 /\  - slide into or out of (from/to "nowhere")
 s   - legato slide
 S   - shift slide
  - natural harmonic
[n]  - artificial harmonic
n(n) - tapped harmonic
 ~   - vibrato
 tr  - trill
 T   - tap
 TP  - trem. picking
 PM  - palm muting
\n/  - tremolo bar dip; n = amount to dip
 \n  - tremolo bar down
 n/  - tremolo bar up
/n\  - tremolo bar inverted dip
 =   - hold bend; also acts as connecting device for hammers/pulls
 <>  - volume swell (louder/softer)
 x   - on rhythm slash represents muted slash
 o   - on rhythm slash represents single note slash

Misc Legend
-----------
 |  - bar
||  - double bar
||o - repeat start
o|| - repeat end
*|  - double bar (ending)
 :  - bar (freetime)
 $  - Segno
 &  - Coda
Tempo markers -  = BPM(8/16=s8/s16), where s8 = swing 8ths, s16 = swing 16ths


***************************************************************************************
* Generated using Power Tab Editor by Brad Larsen - http://powertab.guitarnetwork.org *
***************************************************************************************
comments
print report bad tab
2 comments total.
+1 reply
Claudio95 wrote on April 19 2011, 01:30 pm

Great tab 5*

0 reply
slash.r0cks wrote on April 20 2011, 12:16 am

Thank you. :D

I want to post or [tab]
guest
You may want to rate the tab now too:
select rating
Please do not post tabs as comments. Select "correction" instead!