Oops, an error
Loading. Please wait.

Welcome To The Family Bass Tab

ver4
ver4

Whole song

More versions @911Tabs.com
569 views 30 this week
no commentswrite comment
1 2 3 4 5
excellent!
x 1
Autoscroll
+/-
esc
set tempo
stop
Contributor
Tuning
D A D G B E
WARNING: You are trying to view
                                    content from Ultimate-Guitar.com
                                    in an unauthorized application,
                                    which is prohibited.

                                    Please use an official Ultimate
                                    Guitar Tabs application for iPhone,
                                    iPad or Android to access legitimate
                                    chords, guitar, bass, and drum tabs
                                    from Ultimate-Guitar.com database.

                                    Type "ultimate guitar tabs" in Apple
                                    App Store's or Android Market's
                                    search to find the application.
0:06
G|------------------------------------------------------------------------|
D|o-----------------------------------------------------------------------|
A|o-----------------------------------------------------------------------|
D|--0---0-0-0-5/8---8--7---0-0-0-3/6---6--7---0---0---0-0---0-3h5-2h3-2h3-|

G|-----------------------------------------------------------------------|
D|----------------------------------------------------------------------o|
A|----------------------------------------------------------------------o|
D|-0---0-0-0-5/8---8--7---0-0-0-3/6---6--7---0---0---0-0---3---2--/7-----|

0:26
G|-------------------------------------------------------------------------|
D|o-----------------------------------------------------------------------o|
A|o-----------------------------------------------------------------------o|
D|--8---8-8---8-8---7---7---7---7---0-0-0-0-0-0-0-0-0-0-3h5p3-2h3p2-2h3p2--|

0:37
G|-------------------------------------------------------------------------------|
D|-------------------------------------------------------------------------------|
A|-----------------------------------------------------4---5-5-7-7---------------|
D|-8---8-8---8-8---8-8-8-10---10-8---7-7-7-7-7-7-7-7-7---------------7---5---3---|

0:44
G|-----------------------------------------------------------------|
D|-----------------------------------------------------------------|
A|-------------------------------------------------3-3-3-3-3-5-3-0-|
D|-0---0-0---0-0-3/8-8-8-8-8-8-8-8\3---3-3---3-3-3-----------------|

G|-----------------------------------------------------------------|
D|-----------------------------------------------------------------|
A|-----------------------------------------------------------------|
D|-0---0-0---0-0-3/8-8-8-8-8-8-8-8\3---3-3---3-3-3-7-7-7-7-7-7-7-7-|

G|-----------------------------------------------------------------|
D|-----------------------------------------------------------------|
A|-------------------------------------------------3-3-3-3-3-5-3-0-|
D|-0---0-0---0-0-3/8-8-8-8-8-8-8-8\3---3-3---3-3-3-----------------|

G|---------------------------------------------------|
D|---------------------------------------------------|
A|---------------------------------------------------|
D|-0---0-0---0-0-3/8-8-8-8-8-8-8-8-7-----5-----3-----|

1:04
G|------------------------------------------------------------------------|
D|o-----------------------------------------------------------------------|
A|o-----------------------------------------------------------------------|
D|--0---0-0-0-5/8---8--7---0-0-0-3/6---6--7---0---0---0-0---0-3h5-2h3-2h3-|

G|-----------------------------------------------------------------------|
D|----------------------------------------------------------------------o|
A|----------------------------------------------------------------------o|
D|-0---0-0-0-5/8---8--7---0-0-0-3/6---6--7---0---0---0-0---3---2--/7-----|

1:25
G|-------------------------------------------------------------------------|
D|o-----------------------------------------------------------------------o|
A|o-----------------------------------------------------------------------o|
D|--8---8-8---8-8---7---7---7---7---0-0-0-0-0-0-0-0-0-0-3h5p3-2h3p2-2h3p2--|

1:35
G|-------------------------------------------------------------------------------|
D|-------------------------------------------------------------------------------|
A|-----------------------------------------------------4---5-5-7-7---------------|
D|-8---8-8---8-8---8-8-8-10---10-8---7-7-7-7-7-7-7-7-7---------------7---5---3---|

1:42
G|-----------------------------------------------------------------|
D|-----------------------------------------------------------------|
A|-------------------------------------------------3-3-3-3-3-5-3-0-|
D|-0---0-0---0-0-3/8-8-8-8-8-8-8-8\3---3-3---3-3-3-----------------|

G|-----------------------------------------------------------------|
D|-----------------------------------------------------------------|
A|-----------------------------------------------------------------|
D|-0---0-0---0-0-3/8-8-8-8-8-8-8-8\3---3-3---3-3-3-7-7-7-7-7-7-7-7-|

G|-----------------------------------------------------------------|
D|-----------------------------------------------------------------|
A|-------------------------------------------------3-3-3-3-3-5-3-0-|
D|-0---0-0---0-0-3/8-8-8-8-8-8-8-8\3---3-3---3-3-3-----------------|

G|---------------------------------------------------|
D|---------------------------------------------------|
A|---------------------------------------------------|
D|-0---0-0---0-0-3/8-8-8-8-8-8-8-8-7-----5-----3-----|

2:02
G|---------------------------------------------------|
D|---------------------------------------------------|
A|---------------------------------------------------|
D|-0000---0000-----0000---0000-----0000-----0000-----|

G|------------------------------------------------------------|
D|------------------------------------------------------------|
A|------------------------------------------------------------|
D|-0000---0000-----0000---8p000-7p000-5p000-3p000-5p000-0-----|

2:13
G|-------------------------------------------------------------------|
D|o-----------------------------------------------------------------o|x4
A|o-----------------------------------------------------------------o|
D|--8---8-8-8-8-8-8-7---7-7-7-7-7-7-0---0-0-0-0-0-0-0-0-333-222-111--|

2:32
G|-----------------------------------------------------------------|
D|-----------------------------------------------------------------|
A|-----------------------------------------------------------------|
D|-8---8-----8-8-----8-8---8-8-8-8-7---7-----7-7---7-7-7-7-7-7-7-7-|

G|-----------------------------------------------------------------|
D|-----------------------------------------------------------------|
A|-----------------------------------------------------------------|
D|-8---8-----8-8-----8-8---8-8-8-8-7-----7-5-----5-3-------2-------|

2:42
G|-------------------------------------------------------------------------------------------------|
D|-------------------------------------------------------------------------------------------------|
A|-------------------------------------------------------------------------1----1----1-1---1---1---|
D|-0----0----0-0-----------2----2----2-2-----------3----3----3-3-------3---------------------------|

G|-------------------------------------------------------------------------------------------------|
D|-------------------------------------------------------------------------------------------------|
A|-1----1----1-1---1-1-1-/-3----3----3-3-----3-3---------------------------1----1----1-1-------1---|
D|-------------------------------------------------3----3----3-3---2h3p2---------------------------|

2:57
G|-------------------------------------------------------------------------------------------------|
D|--------------------------------------------------------------------------------------------7h8--|
A|-1----1----1-1---1---1---3----3----3-3---3-3-3------------------------------------------7h8------|
D|-------------------------------------------------3----3----3-3---2h3p2---8----8----8h10----------|

3:05
G|-------------------------------------------------------------------------------------------------|
D|-------------------------------------------------------------------------------------------------|
A|-1----1----1-1-----1p0h1-3----3----3-3---3-3-3---------------------------------------3-----3-3-3-|
D|-------------------------------------------------3-----3-----2-----2-----0-----0-----------------|

G|-----------------------------------------------------------------|
D|-----------------------------------------------------------------|
A|-1-1-----1-1-----1-1-----1-1-------------------------0-0-0-0-----|
D|-----------------------------------------------0-2-3-------------|

3:18
G|-----------------------------------------------------------------|
D|-----------------------------------------------------------------|
A|-------------------------------------------------3-3-3-3-3-5-3-0-|
D|-0---0-0---0-0-3/8-8-8-8-8-8-8-8\3---3-3---3-3-3-----------------|

G|-----------------------------------------------------------------|
D|-----------------------------------------------------------------|
A|-----------------------------------------------------------------|
D|-0---0-0---0-0-3/8-8-8-8-8-8-8-8\3---3-3---3-3-3-7-7-7-7-7-7-7-7-|

G|-----------------------------------------------------------------|
D|-----------------------------------------------------------------|
A|-------------------------------------------------3-3-3-3-3-5-3-0-|
D|-0---0-0---0-0-3/8-8-8-8-8-8-8-8\3---3-3---3-3-3-----------------|

3:33
G|---------------------------------------------------------------------------------------------|
D|---------------------------------------------------------------------------------------------|
A|---------------------------------------------------------------------------------------------|
D|-8---8---8-8---8-8---8---8-8-8-8-7----7----7----5----5----5----3----3----3----2----2----2----|

3:39
G|-------------------------------------------------------|
D|o-----------------------------------------------------o|
A|o-----------------------------------------------------o| x4
D|--0000---0000-----0000---0000-----0000-----0001-/-6----|
comments
We did not receive enough feedback on this tab! Please rate:
1 2 3 4 5
I want to post or [tab]
guest
You may want to rate the tab now too:
select rating
Please do not post tabs as comments. Select "correction" instead!