Oops, an error
Loading. Please wait.

Wicked End Tab

ver1
ver1

Solo

Whole song

More versions @911Tabs.com
12,797 views 36 this week
2 commentsread comments
1 2 3 4 5
accurate
x 2
Autoscroll
+/-
esc
set tempo
stop
Contributor
Difficulty
Tuning
intermediate
D A D G B E
WARNING: You are trying to view
                                    content from Ultimate-Guitar.com
                                    in an unauthorized application,
                                    which is prohibited.

                                    Please use an official Ultimate
                                    Guitar Tabs application for iPhone,
                                    iPad or Android to access legitimate
                                    chords, guitar, bass, and drum tabs
                                    from Ultimate-Guitar.com database.

                                    Type "ultimate guitar tabs" in Apple
                                    App Store's or Android Market's
                                    search to find the application.
   I noitced no one has really tabbed this song out so i'm going to tab it the right way 

Drop D tuning (D-A-D-G-B-E)
   Riff A.

E|-----------------------------------------------------------|
B|-----------------------------------------------------------|
G|-13-14-13------13------------14------13-------13-----------|
D|-----------15------15-14-15------15-------15------15-14-15-|
A|-----------------------------------------------------------|
D|-----------------------------------------------------------|


E|------------------------------------------------------------------------|
B|------------------------------------------------------------------------|
G|-9-10-9------9------------10------9------9------------9-10-9------9-----|
D|---------12-----12-11-12------12-----12-----12-11-12----------12-----12-|
A|------------------------------------------------------------------------|
D|------------------------------------------------------------------------|
                                       Rhy. Fig. 1

E|-----------------------------------|-------------------------------------|
B|-----------------------------------|-------------------------------------|
G|--------10------9------9-----------|-------------------------------------|
D|-11-12------12-----12-----12-11-12-|-------------------------------------|
A|-----------------------------------|-0-0----0-0--0-0----0-0--------------|
D|-----------------------------------|-0-0----0-0--0-0----0-0----0-0-0-0-0-|
                                       . .    . .  . .    . .    . . . . .
   
E|-13------------------------/17-16V-(16)\-|-13--------------------/17-|
B|-----15----------------------------------|-----15--------------------|
G|---------14-13---------------------------|---------14-13-------------|
D|----------------15-14--------------------|----------------15-14------|
A|-----------------------------------------|---------------------------|
D|-----------------------------------------|---------------------------|


E|-16-17-16----------15-|-10-------------------/13-12V-(12)\-|-10-----------|
B|---------------17-----|-----10-----------------------------|-----10-------|
G|-----------18---------|---------10-9-----------------------|---------10-9-|
D|----------------------|---------------12-11----------------|--------------|
A|----------------------|------------------------------------|--------------|
D|----------------------|------------------------------------|--------------|
                                     Riffs B & B1

E|--------/13-12-13-12----------12-|---------------------------------------|
B|--------------------------14-----|---------------------------------------|
G|----------------------14---------|---------------------------------------|
D|-12-11---------------------------|---------------------------------------|
A|---------------------------------|----------6p5-------3h5-------1h3------|
D|---------------------------------|-0-0-0-0-------0-0-------0-0-------0-0-|
                                     . . . .       . .       . .       . .

E|------------------------------------------|-----------------------------|
B|------------------------------------------|-----------------------------|
G|------------------------------------------|-----------------------------|
D|------------------------------------------|-----------------------------|
A|----------6p5-------8h10-------10h12------|----------6p5-------3h5------|
D|-0-0-0-0-------0-0--------0-0---------0-0-|-0-0-0-0-------0-0-------0-0-|
   . . . .       . .        . .         . .   . . . .       . .       . . 

E|--------------------------------------------|
B|--------------------------------------------|
G|--------------------------------------------|
D|--------------------------------------------|
A|-1h3-----------6p5-------8h10-------8p7p5-7-|
D|------0-0-0-0-------0-0--------0-0----------|
        . . . .       . .        . .

E|------------------------------------|--------------------------------------
B|------------------------------------|-15-13-15V---(15)\--------------------
G|-10-9-10V---(10)\-14-12-14V---(14)\-|--------------------------------------
D|------------------------------------|--------------------12-10-12V---(12)\-
A|------------------------------------|--------------------------------------
D|------------------------------------|--------------------------------------


E|-----------------------------------------------------15bv---15b--15-13\--|
B|-------------------------------------17b1/2v--(17)\----------------------|
G|-10-9-10V---(10)\-14-12-14V---(14)\--------------------------------------|
D|-------------------------------------------------------------------------|
A|-------------------------------------------------------------------------|
D|-------------------------------------------------------------------------|


E|------------------------------------------------------------------------|
B|---------13bv---(13)\-17b1/2v---12h13-12--------------------------------|
G|-/10-12-----------------------------------15\-8h10-11-------------------|
D|----------------------------------------------------------------8-10-12-|
A|-------------------------------------------------------8-10-12----------|
D|------------------------------------------------------------------------|


E|---------------------------------------------------------------------------
B|---------------------------------------------------------------------------
G|----------7--7--------7-------------------------------7--7--------7--------
D|----------7--7--7--7--7-----8---------5-7-8-----------7--7--7--7--7------8-
A|-4/7-7/10-5--5--5--5--5--0--8--5-7-8---------0/4-4/7--5--5--5--5--5---0--8-
D|-------------------------0--8-----------------------------------------0--8-
                  .  .                                            .  .

E|--------------------------------------------------------------------------|
B|--------------------------11-11---------15-15---------16--18br-(18)-17-18-|
G|-(12)-10-9V--(9)\---12-9---------10-10---------14-14----------------------|
D|--------------------------------------------------------------------------|
A|--------------------------------------------------------------------------|
D|--------------------------------------------------------------------------|


E|-15-15h17-----------------------------15-15---------13-13---------17-17br-|
B|-----------(11)-10---------------------------15-15---------13-13----------|
G|--------------------12v-(12)\--15-12--------------------------------------|
D|--------------------------------------------------------------------------|
A|--------------------------------------------------------------------------|
D|--------------------------------------------------------------------------|


E|-(17)---------12-12h13----------------------------------------------------|
B|-------14-15--------------------------------------------------------------|
G|--------------------------------------------------------------------------|
D|------------------------(8)-8--8-------7-----5--5--------5--5--------3--3-|
A|------------------------(8)-8--8--8-8--8--8--5--5--5--5--5--5--x--x--5--5-|
D|------------------------(8)-8--8--8-8--7--7--5--5--5--5--5--5--x--x--3--3-|
                                    . .     .        .  .        

E|-------------------15----------------------------------------10-----------|
B|-----------------------18----------------------------------------8-----11-|
G|-----------------------------------------10-10/12--10-9V------------9-----|
D|-3--------2--2--2----------15-(15)\-7/8-----------------------------------|
A|-5--X--X--4--4--4---------------------------------------------------------|
D|-3--X--X--2--2--2---------------------------------------------------------|


E|-----------------------------------------------15-----|-12---------------|
B|-11---------15-15---------18--18br-(18)-17-18------17-|-----15-----------|
G|-----10-10---------14-14------------------------------|---------14-(14)\-|
D|------------------------------------------------------|------------------|
A|------------------------------------------------------|------------------|
D|------------------------------------------------------|------------------|


E|-------------------------------------15-15---------13-13---------17-17br-|
B|------10-10h11-10---------------------------15-15---------13-13----------|
G|-------------------12v-(12)\-/15-12--------------------------------------|
D|-/12---------------------------------------------------------------------|
A|-------------------------------------------------------------------------|
D|-------------------------------------------------------------------------|


E|-(17)---------12-----|---------------------------------------18-17-|
B|-------14-15------14-|-18/15-(15)\-(18)\-----11-10-15-14-17--------|
G|---------------------|--------------------9------------------------|
D|---------------------|---------------------------------------------|
A|---------------------|---------------------------------------------|
D|---------------------|---------------------------------------------|


E|---------------------------------------------------------------------------
B|---------------------------------------------------------------------------
G|-7--7--------7-------------------------------------------------------------
D|-7--7--7--7--7------8--8--------7-----5--5--------5--------3--3--------2--2
A|-5--5--5--5--5---0--8--8--8--8--7--7--5--5--5--5--5--X--X--5--5--X--X--4--4
D|-----------------0--8--8--8--8--7--7--5--5--5--5--5--X--X--3--3--X--X--2--2
         .  .      .        .  .     .        .  .                 

E|-13/17V---(17)/10/13V---(13)/18/15/18\10---------------------15-----------|
B|------------------------------------------10/14-14/15-15/17------18-16-18-|
G|--------------------------------------------------------------------------|
D|--------------------------------------------------------------------------|
A|--------------------------------------------------------------------------|
D|--------------------------------------------------------------------------|


E|------------------------------------------9/12-12/15-15/17-18-17-15-17-|
B|-15/18V---(18)\11/15V---(15)/20\15/20\11-------------------------------|
G|-----------------------------------------------------------------------|
D|-----------------------------------------------------------------------|
A|-----------------------------------------------------------------------|
D|-----------------------------------------------------------------------|


E|-18/15\--15---------15-------------------------------------------|
B|-------------16-15------15-16-15------15\11------11--------------|
G|----------------------------------15---------12------12-10-12-10-|
D|-----------------------------------------------------------------|
A|-----------------------------------------------------------------|
D|-----------------------------------------------------------------|


E|--------------------------------------11------11/15-|-17---------17--------
B|------------------------------11--------------------|-----18-17------17-18-
G|----------------------10------------------12--------|----------------------
D|-13p12------------12------13------13----------------|----------------------
A|--------13-10-13------------------------------------|----------------------
D|----------------------------------------------------|----------------------


E|---------20--------------------|--------------------------8------13-----|
B|-17----------18----------------|----------------------------------------|
G|-----17----------17\15-17-15\9-|-10p9------------9-12-10-----10------14-|
D|-------------------------------|-----------8-10-------------------------|
A|-------------------------------|-------10-------------------------------|
D|-------------------------------|----------------------------------------|


E|-13/17V-------------------------------------------------------------------|
B|---------/15V---15\-------16br-(16)---------------------------------------|
G|---------------------/14--------------------------------------------------|
D|-------------------------------------0--------0---------------------------|
A|-------------------------------------0--0--0--0--------------7-(7)/-13-12-|
D|-------------------------------------0--0--0--0-/8-7-6v-0-6---------------|
                                          .  .

E|-------------------------------------------18-17-13/17v---(17)\10/13v-|
B|-----17/14b-(17)/(14)\-----11-10-15-14-17-----------------------------|
G|------------------------9---------------------------------------------|
D|----------------------------------------------------------------------|
A|----------------------------------------------------------------------|
D|-11-------------------------------------------------------------------|


E|-(13)/18\15/18\10---------------------15-----------------------------------
B|-------------------10/14-14/17-17/18------18-15/18V---(18)\11/15V---(15)/20
G|---------------------------------------------------------------------------
D|---------------------------------------------------------------------------
A|---------------------------------------------------------------------------
D|---------------------------------------------------------------------------


E|----------------------------------------------------------------|
B|-\15/20\11-14/17-17/20-20/22-23-22-15/18V---(18)\11/15V---(15)/-|
G|----------------------------------------------------------------|
D|----------------------------------------------------------------|
A|----------------------------------------------------------------|
D|----------------------------------------------------------------|


E|-15----------------------15------13-------------------------------------|
B|-----15--------------15------15------15------------------14------13/17V-|
G|---------15------15----------------------14------14----------14---------|
D|-------------17------------------------------15------15-----------------|
A|------------------------------------------------------------------------|
D|------------------------------------------------------------------------|


E|-13/17-V---(17)\10/13V---(13)/-18----------------------18------17---------|
B|-----------------------------------20--------------20------20------18-----|
G|---------------------------------------19------19----------------------19-|
D|-------------------------------------------20-----------------------------|
A|--------------------------------------------------------------------------|
D|--------------------------------------------------------------------------|


E|--------------------|----------------------------------------------------|
B|-------------17-----|-13bv-13br-(13)\12p10-------------------------------|
G|-----18-------------|-----------------------13p12h13p12\11\10-9v-/17\13v-|
D|-19------19------19-|----------------------------------------------------|
A|--------------------|----------------------------------------------------|
D|--------------------|----------------------------------------------------|


E|----------------------------------------------------|
B|----------------------------------------------------|
G|-(13)\----------------------------------------------|
D|--------0-----------------------2-------------------|
A|--------0--0--0--0--0---0---0---2--2--2--2--2--2--2-|
D|--------0--0--0--0--0---0---0---2--2--2--2--2--2--2-|
             .  .  .  .   .   .      .  .  .  .  .  .

       Guitar Solo

E|---------------------------15-17-18-15---------------------------------15-|
B|---------------8/12-13-15---------------15-------------------------17-----|
G|----------10--------------------------------15-----------------17---------|
D|-------8----------------------------------------17---------17-------------|
A|-7-10-----------------------------------------------17-17-----------------|
D|--------------------------------------------------------------------------|


E|-18-20-18-14----------------------------------------9-10-9-9--------------|
B|--------------17-15-10-11-13-11-10-----------10-11------------11-10-------|
G|------------------------------------10\9-10--------------------------10-9-|
D|--------------------------------------------------------------------------|
A|--------------------------------------------------------------------------|
D|--------------------------------------------------------------------------|


E|--------------------------------------------------|
B|--------------------------------------------------|
G|--------------------------------------------------|
D|-5-----------------------3--3--3---3---2--2--2--2-|
A|-5---5--5--5--5--5---5---5--5--5---5---4--4--4--4-|
D|-5---5--5--5--5--5---5---3--3--3---3---2--2--2--2-|


E|---------------------------------------------------------------------------
B|-13bv-13bv-10---------------13-14-15-------------------14bv-15h17-15h17p15-
G|---------------10-13/14-15------------14bv------14h15----------------------
D|--------------------------------------------15-----------------------------
A|---------------------------------------------------------------------------
D|---------------------------------------------------------------------------


E|-----------------------17h18p17------17-18-19-20-(20)b-20br-(20)p17-22-17-|
B|-----15-17-18-19b-18b------------21---------------------------------------|
G|-18-----------------------------------------------------------------------|
D|--------------------------------------------------------------------------|
A|--------------------------------------------------------------------------|
D|--------------------------------------------------------------------------|


E|-----20-------------17-16-13-15-13------16-17-18v-15\12/18\12-|
B|-18------18-------------------------15------------------------|
G|-------------17\14--------------------------------------------|
D|--------------------------------------------------------------|
A|--------------------------------------------------------------|
D|--------------------------------------------------------------|


E|-15p13p12h15p12------15p13---------------------|---------------------------
B|-----------------15---------15p13------------------------------------------
G|-----------------------------------15p14h15p14h15\-14-15-16-17-17b-(17)\14-
D|---------------------------------------------------------------------------
A|---------------------------------------------------------------------------
D|---------------------------------------------------------------------------


E|-----17br-(17)-----------------------------------------16br-(16)-13-12-13/-
B|--------------------16-15-14-15-17-17br-(17)-15-14-15----------------------
G|-14-------------15---------------------------------------------------------
D|---------------------------------------------------------------------------
A|---------------------------------------------------------------------------
D|---------------------------------------------------------------------------


E|-18-(18)--------------------------------x-15-15--------18\15-------------|
B|----------18------15--------------------x--------------------------------|
G|--------------15------15-16-17bv-(17)\-----------15/19--------17------15-|
D|------------------------------------------------------------------17-----|
A|-------------------------------------------------------------------------|
D|-------------------------------------------------------------------------|


E|---------------17-18-17------17-18-17------------------------------------|
B|-18b-(18)\-18------------18------------14------14-15-14------14-15-14-15-|
G|-------------------------------------------15------------15--------------|
D|-------------------------------------------------------------------------|
A|-------------------------------------------------------------------------|
D|-------------------------------------------------------------------------|


E|-----------13-15-17-|-17-13-------------------------------13-16-17-13-----|
B|-14-15-17-----------|--------15-----------------------15---------------15-|
G|--------------------|------------14---------------14----------------------|
D|--------------------|----------------15-11-12-15--------------------------|
A|--------------------|-----------------------------------------------------|
D|--------------------|-----------------------------------------------------|


E|---------------------------13-17-18-13---------------------------------13-|
B|----------------------15----------------14-------------------------12-----|
G|-14---------------14------------------------15-----------------15---------|
D|-----15-11-12-15--------------------------------15------12-15-------------|
A|----------------------------------------------------15--------------------|
D|--------------------------------------------------------------------------|


E|-17-18-15---------------------------------13-17-18-15---------------------|
B|-----------15-------------------------13---------------15-----------------|
G|---------------15-----------------15-----------------------15-------------|
D|-------------------17---------17-------------------------------17---------|
A|-----------------------17-17---------------------------------------17-17--|
D|--------------------------------------------------------------------------|


E|-------------15-18-17-13-------------------------------13-17-21-17---------
B|---------14---------------15-----------------------15---------------18-----
G|-----15-----------------------14---------------14-----------------------18-
D|-17-------------------------------15-12-12-15------------------------------
A|---------------------------------------------------------------------------
D|---------------------------------------------------------------------------


E|-----------------------18-|-----------------------------------------------|
B|----------------17--------|-----------------------------------------------|
G|------------17------------|-----------------------------------------------|
D|-19----------------19-----|-(5)--5--5--------5--------3--3--------2--2--2-|
A|-----19-20----------------|-(5)--5--5--5--5--5--X--X--5--5--X--X--4--4--4-|
D|--------------------------|-(5)--5--5--5--5--5--X--X--3--3--X--X--2--2--2-|


E|----13---------------13--------------13------------------------------------
B|--------15------15-------15------15------15------15/17--------------17-----
G|------------14---------------14--------------14---------18------18------18-
D|-3----------------------------------------------------------17-------------
A|-5-------------------------------------------------------------------------
D|-3-------------------------------------------------------------------------


E|-------------------------13--------------13--------------13----------------
B|---------17------------------15------15------15------15------15------15/---
G|-----18------18------18----------14--------------14--------------14--------
D|-17--------------17--------------------------------------------------------
A|---------------------------------------------------------------------------
D|---------------------------------------------------------------------------


E|-15--------------15---------------12--------------12-------------|
B|-----16------16------16------16\------14------14------14-----14/-|
G|---------15--------------15---------------12--------------12-----|
D|-----------------------------------------------------------------|
A|-----------------------------------------------------------------|
D|-----------------------------------------------------------------|


E|-13--------------13--------------13--------------13---------------13-----|
B|-----15------15------15------15------15------15------15------15-------15-|
G|---------14--------------14--------------14--------------14--------------|
D|-------------------------------------------------------------------------|
A|-------------------------------------------------------------------------|
D|-------------------------------------------------------------------------|


E|---------11--------------11--------------11---------------11-------------|
B|-----15------13------13------13------13------13------13-------13------13-|
G|-14--------------13--------------13--------------13---------------13-----|
D|-------------------------------------------------------------------------|
A|-------------------------------------------------------------------------|
D|-------------------------------------------------------------------------|


E|----------------------------|
B|----------------------------|
G|----------------------------|
D|----------------------------|
A|-5v-7-8-7-5-7-8-6v-5-6-5-3v-|
D|----------------------------|
comments
We did not receive enough feedback on this tab! Please rate:
print report bad tab
1 2 3 4 5
2 comments total.
0 reply
ATR-Dethklok wrote on August 20 2009, 11:59 am

this is the best tab fo this song yet

0 reply
AwokenDEMON wrote on July 31 2010, 09:01 pm

Pretty confusing, consider retabbing it maybe?

I want to post or [tab]
guest
You may want to rate the tab now too:
select rating
Please do not post tabs as comments. Select "correction" instead!