Oops, an error
Loading. Please wait.

Wicked End Tab

ver2
ver2

Solo

Whole song

More versions @911Tabs.com
63,681 views 99 this week
23 commentsread comments
1 2 3 4 5
excellent!
x 27
Autoscroll
+/-
esc
set tempo
stop
Contributor
Difficulty
Tuning
advanced
D A D G B E
Hey! There's an official Ultimate Guitar app which is ideal
for learning songs when you're away from computer. Get the app
WARNING: You are trying to view
                                    content from Ultimate-Guitar.com
                                    in an unauthorized application,
                                    which is prohibited.

                                    Please use an official Ultimate
                                    Guitar Tabs application for iPhone,
                                    iPad or Android to access legitimate
                                    chords, guitar, bass, and drum tabs
                                    from Ultimate-Guitar.com database.

                                    Type "ultimate guitar tabs" in Apple
                                    App Store's or Android Market's
                                    search to find the application.
Music by Avenged Sevenfold
Arranged by Avenged Sevenfold
Transcribed by Illuminati1556

Gtr I (D A D G B E) - 'Untitled'
Gtr II (D A D G B E) - 'Untitled'
Gtr III (D A D G B E) - 'Untitled'
Gtr IV (D A D G B E) - 'Untitled'
Gtr V (D A D G B E) - 'Untitled'

 Intro
  Q=118
  N.C.         D5
 4/4
               Gtr I
  Wx4          S  S S  S S  S S  S  S  S S  S S  S S  S
|------------|------------------------------------------|
|------------|-9-10-9----9---------10----9----9---------|
|------------|--------10---10-9-10----10---10---10-9-10-|
|------------|------------------------------------------|
|------------|------------------------------------------|
|------------|------------------------------------------|
|
|              Gtr II
| Wx4          S  S S  S S  S S  S  S  S S  S S  S S  S
|------------|------------------------------------------|
|------------|-5--6-5----5----------6----5----5---------|
|------------|---------7----7-6--7-----7----7----7-6--7-|
|------------|------------------------------------------|
|------------|------------------------------------------|
|------------|------------------------------------------|
|
|              Gtr III
|              PM----------------------------------------
| Wx4          S  S E    Q          E    S  S S  S E
|------------|------------------------------------------|
|------------|------------------------------------------|
|------------|------------------------------------------|
|------------|-0--0----------------------0--0----0-0----|
|------------|-0--0----------------------0--0----0-0----|
|------------|-0--0----------------------0--0----0-0----|


  S  S S  S S  S S  S  S  S S  S S  S S  S
|------------------------------------------|
|-9-10-9----9---------10----9----9---------|
|--------10---10-9-10----10---10---10-9-10-|
|------------------------------------------|
|------------------------------------------|
|------------------------------------------|
|
| S  S S  S S  S S  S  S  S S  S S  S S  S
|------------------------------------------|
|-5--6-5----5----------6----5----5---------|
|---------7----7-6--7-----7----7----7-6--7-|
|------------------------------------------|
|------------------------------------------|
|------------------------------------------|
|
|---------------------------------------|
| S  S E    Q          E    S  S S  S S  S
|------------------------------------------|
|------------------------------------------|
|------------------------------------------|
|-0--0----------------------0--0-0--0-0--0-|
|-0--0----------------------0--0-0--0-0--0-|
|-0--0----------------------0--0-0--0-0--0-|


  S  S S  S S  S S  S  S  S S  S S  S S  S
|------------------------------------------|
|-9-10-9----9---------10----9----9---------|
|--------10---10-9-10----10---10---10-9-10-|
|------------------------------------------|
|------------------------------------------|
|------------------------------------------|
|
| S  S S  S S  S S  S  S  S S  S S  S S  S
|------------------------------------------|
|-5--6-5----5----------6----5----5---------|
|---------7----7-6--7-----7----7----7-6--7-|
|------------------------------------------|
|------------------------------------------|
|------------------------------------------|
|
| PM----------------------------------------
| S  S E    Q          E    S  S S  S E
|------------------------------------------|
|------------------------------------------|
|------------------------------------------|
|-0--0----------------------0--0----0-0----|
|-0--0----------------------0--0----0-0----|
|-0--0----------------------0--0----0-0----|


  S  S S  S S  S S  S  S  S S  S S  S S  S
|------------------------------------------|
|-9-10-9----9---------10----9----9---------|
|--------10---10-9-10----10---10---10-9-10-|
|------------------------------------------|
|------------------------------------------|
|------------------------------------------|
|
| S  S S  S S  S S  S  S  S S  S S  S S  S
|------------------------------------------|
|-5--6-5----5----------6----5----5---------|
|---------7----7-6--7-----7----7----7-6--7-|
|------------------------------------------|
|------------------------------------------|
|------------------------------------------|
|
|---------------------------------------|
| S  S E    Q          E    S  S S  S S  S
|------------------------------------------|
|------------------------------------------|
|------------------------------------------|
|-0--0----------------------0--0-0--0-0--0-|
|-0--0----------------------0--0-0--0-0--0-|
|-0--0----------------------0--0-0--0-0--0-|


                           ~~~
     S  S  S S  S S   E E  Q.
||--13-10-----------/17---16----------|
||o-------10-9------------------------|
||-------------10-9-------------------|
||------------------------------------|
||o-----------------------------------|
||------------------------------------|
|
|                          ~~~
|    S  S  S S  S S   E E  Q.
||---5--4-----------/13---12----------|
||o--------6-5------------------------|
||--------------7-6-------------------|
||------------------------------------|
||o-----------------------------------|
||------------------------------------|
|
|    PM--------------------------------
|    S  S  E    Q       E  S  S S S E
||------------------------------------|
||o-----------------------------------|
||------------------------------------|
||---0--0------------------0--0---0-0-|
||o--0--0------------------0--0---0-0-|
||---0--0------------------0--0---0-0-|


   S  S  S S  S S   Q    S  S  S  S  S  S
|-13-10-----------/17---16-17-16-------15--||
|-------10-9---------------------14-17----o||
|------------10-9--------------------------||
|------------------------------------------||
|-----------------------------------------o||
|------------------------------------------||
|
|  S  S  S S  S S   Q    S  S  S  S  S  S
|--5--4-----------/13---12-13-12-------12--||
|--------6-5----------------------9-14----o||
|-------------7-6--------------------------||
|------------------------------------------||
|-----------------------------------------o||
|------------------------------------------||
|
|--------------------------------------|
|  S  S  E    Q       E  S  S  S  S  S  S
|------------------------------------------||
|-----------------------------------------o||
|------------------------------------------||
|--0--0------------------0--0--0--0--0--0--||
|--0--0------------------0--0--0--0--0--0-o||
|--0--0------------------0--0--0--0--0--0--||


 Verse
  D5        N.C.D5  N.C.D5  N.C.      D5      N.C.D5  N.C.D5  N.C.D5
    W                                 W
|-/13-------------------------------|---------------------------------|
|-----------------------------------|---------------------------------|
|-----------------------------------|---------------------------------|
|-----------------------------------|---------------------------------|
|-----------------------------------|---------------------------------|
|-----------------------------------|---------------------------------|
|
|   W                                 W
|--/5-------------------------------|---------------------------------|
|-----------------------------------|---------------------------------|
|-----------------------------------|---------------------------------|
|-----------------------------------|---------------------------------|
|-----------------------------------|---------------------------------|
|-----------------------------------|---------------------------------|
|
|   PM----|     PM|     PM|     PM----------|     PM|     PM|     PM|
|   S S S S S S S S S S S S S S S S   S S S S S S S S S S S S S S S S
|-----------------------------------|---------------------------------|
|-----------------------------------|---------------------------------|
|-----------------------------------|---------------------------------|
|-----------------------------------|-----------------3-5-----5-7-----|
|---0-0-0-0-6-5-0-0-3-5-0-0-1-3-0-0-|-0-0-0-0-6-5-0-0-----0-0-----0-0-|
|---0-0-0-0-----0-0-----0-0-----0-0-|-0-0-0-0-----0-0-----0-0-----0-0-|


  D5      N.C.D5  N.C.D5  N.C.D5            N.C.D5  N.C.D5  N.C.
  W                                 W
|---------------------------------|---------------------------------|
|---------------------------------|---------------------------------|
|---------------------------------|---------------------------------|
|---------------------------------|---------------------------------|
|---------------------------------|---------------------------------|
|---------------------------------|---------------------------------|
|
| W                                 W
|---------------------------------|---------------------------------|
|---------------------------------|---------------------------------|
|---------------------------------|---------------------------------|
|---------------------------------|---------------------------------|
|---------------------------------|---------------------------------|
|---------------------------------|---------------------------------|
|
| PM----|     PM|     PM|     PM----------|     PM|     PM|
| S S S S S S S S S S S S S S S S   S S S S S S S S S S S S T T S E
|---------------------------------|---------------------------------|
|---------------------------------|---------------------------------|
|---------------------------------|---------------------------------|
|---------------------------------|-----------------3-5-----5-7-----|
|-0-0-0-0-6-5-0-0-3-5-0-0-1-3-0-0-|-0-0-0-0-6-5-0-0-----0-0-----8-7-|
|-0-0-0-0-----0-0-----0-0-----0-0-|-0-0-0-0-----0-0-----0-0---------|


  D5       N.C.  D5  N.C.D5  N.C.D5               N.C.   D5  N.C.D5  N.C.D5
   S S E   +H.                           S S  E    +H.
|------------------------------------|---------------------------------------|
|------------------------------------|---------------------------------------|
|-/7-5-7---(7)-----------------------|-/10-9-10---(10)-----------------------|
|------------------------------------|---------------------------------------|
|------------------------------------|---------------------------------------|
|------------------------------------|---------------------------------------|
|
|  S S E   +H.                           S S  E    +H.
|------------------------------------|---------------------------------------|
|-/6-5-6---(6)-----------------------|-/10-9-10---(10)-----------------------|
|------------------------------------|---------------------------------------|
|------------------------------------|---------------------------------------|
|------------------------------------|---------------------------------------|
|------------------------------------|---------------------------------------|
|
|  PM----|       PM|     PM|     PM-------------|        PM|     PM|     PM|
|  S S S S  S  S S S S S S S S S S S     S S  S S   S  S S S S S S S S S S S
|------------------------------------|---------------------------------------|
|------------------------------------|---------------------------------------|
|------------------------------------|---------------------------------------|
|------------------------------------|-----------------------3-5-----5-7-----|
|--0-0-0-0--6--5-0-0-3-5-0-0-1-3-0-0-|---0-0--0-0---6--5-0-0-----0-0-----0-0-|
|--0-0-0-0-------0-0-----0-0-----0-0-|---0-0--0-0--------0-0-----0-0-----0-0-|


  D5          N.C.   D5  N.C.D5  N.C.D5
    S  S  E    +H.
|----------------------------------------|
|----------------------------------------|
|--14-13-14---(14)-----------------------|
|----------------------------------------|
|----------------------------------------|
|----------------------------------------|
|
|   S  S  E    +H.
|----------------------------------------|
|-/15-14-15---(15)-----------------------|
|----------------------------------------|
|----------------------------------------|
|----------------------------------------|
|----------------------------------------|
|
|   PM------|        PM|     PM|     PM---
|   S  S  S S   S  S S S S S S S S S S S
|----------------------------------------|
|----------------------------------------|
|----------------------------------------|
|----------------------------------------|
|---0--0--0-0---6--5-0-0-3-5-0-0-1-3-0-0-|
|---0--0--0-0--------0-0-----0-0-----0-0-|


                 N.C.   D5  N.C.     D5  N.C.
    S  S  E       +Q          +H
|------------------------------------------------|
|------------------------------------------------|
|--19-18-19b21---(19)-------(<19>)---------------|
|------------------------------------------------|
|------------------------------------------------|
|------------------------------------------------|
|
|   S  S  E       +Q          +H
|------------------------------------------------|
|-/18-17-18b20---(18)--------(18)----------------|
|------------------------------------------------|
|------------------------------------------------|
|------------------------------------------------|
|------------------------------------------------|
|
|--------------|        PM|          PM|
|   S  S  S    S   S  S S S    S   S S S T T S E
|------------------------------------------------|
|------------------------------------------------|
|------------------------------------------------|
|------------------------------3---5-----5-7-----|
|---0--0--0----0---6--5-0-0----------0-0-----8-7-|
|---0--0--0----0--------0-0----------0-0---------|


 Pre-Chorus
  N.C.
   /                          |
   Q       +Q         +Q     +Q
|-----------------------------------|
|-16------(16)-------(16)---(16)----|
|-17------(17)-------(17)---(17)----|
|-----------------------------------|
|-----------------------------------|
|-----------------------------------|
|
|  S S  E   S   S  E   E  E   E   E
|-----------------------------------|
|-----------8--10-11----------------|
|--7-9-10--------------2--6---9--12-|
|-----------------------------------|
|-----------------------------------|
|-----------------------------------|
|
|  S S  E   S   S  E   E  E   E   E
|-----------------------------------|
|-----------------------------------|
|-----------------------------------|
|-----------5---7--8----------------|
|--5-7--8--------------0--4---7--10-|
|-----------------------------------|


  D5                Bb5                    A5    G5
    Q   E  Q    Q    E    +E   E  E  +Q     E  E  E
|----------------------|-----------------------------|
|--18--17--------------|-------------------------20--|
|---------19-----------|-----------------------------|
|--------------19---20-|-(20)-19-17-(17)---20-17-----|
|----------------------|-----------------------------|
|----------------------|-----------------------------|
|
|   Q   E  Q    Q    E    +E   E  E  +Q     E  E  E
|----------------------|-----------------------------|
|-/10---8--------------|-------------------------13--|
|---------10-----------|-----------------------------|
|--------------10---12-|-(12)-10--8--(8)---10--8-----|
|----------------------|-----------------------------|
|----------------------|-----------------------------|
|
|       PM|     PM             PM|
|   Q   E  E E  E E  E    +E   E  E   E  E  Q     E
|----------------------|-----------------------------|
|----------------------|-----------------------------|
|---7--------7----7--3-|--(3)------------3--2--------|
|---7---5--5-7--5-7--3-|--(3)--3--3---3--3--2-----5--|
|---5---5--5-5--5-5--1-|--(1)--1--1---1--1--0-----5--|
|----------------------|--------------------------5--|


                        F5                     C/E       D5
   E   E  E  E  E  E  E  E    +E   +E      +E   Q   E  E  S  S
|-----------------------17-|-(17)-(17)b18r(17)-----------------|
|-20--------18-18----------|-------------------14--15-17-17-18-|
|-----19-19-------17-17----|-----------------------------------|
|--------------------------|-----------------------------------|
|--------------------------|-----------------------------------|
|--------------------------|-----------------------------------|
|
|  E   E  E  E  E  E  E  E    +E   +E      +E   Q   E  E  S  S
|-----------------------13-|-(13)-(13)b14r(13)-----------------|
|-13--------11-11----------|--------------------5---6--8--8-10-|
|-----12-12-------10-10----|-----------------------------------|
|--------------------------|-----------------------------------|
|--------------------------|-----------------------------------|
|--------------------------|-----------------------------------|
|
|         PM|      PM                       PM
| +E   E  E  E  E  E  E  E    +E    E       E   Q   E  E  E
|--------------------------|-----------------------------------|
|--------------------------|-----------------------------------|
|--------------------------|-----------------------------------|
|-(5)--------5--------5--3-|--(3)---------------2---2--2--0----|
|-(5)--5--5--5--5--5--5--3-|--(3)---3-------3---3---3--3--0----|
|-(5)--5--5--5--5--5--5--3-|--(3)---3-------3---2---2--2--0----|


                 Bb5                       A5    G5
   Q   E  Q    E  E  E    +E   E  E  +Q     E  E  E
|----------------------|----------------------------|
|-17-------------------|-------------------------20-|
|-----19---------------|----------------------------|
|--------19------19-20-|-(20)-19-17-(17)---20-17----|
|-------------17-------|----------------------------|
|----------------------|----------------------------|
|
|  Q   E  Q    E  E  E    +E   E  E  +Q     E  E  E
|----------------------|----------------------------|
|--8-------------------|-------------------------13-|
|-----10---------------|----------------------------|
|--------10------10-12-|-(12)-10--8--(8)---10--8----|
|--------------8-------|----------------------------|
|----------------------|----------------------------|
|
|      PM|     PM              PM|
|  Q   E  E E  E  Q       +E   E  E   E  E  Q     E
|----------------------|----------------------------|
|----------------------|----------------------------|
|--7--------7-----3----|--(3)------------3--2-------|
|--7---7--7-7--7--3----|--(3)--3--3---3--3--2-----5-|
|--5---5--5-5--5--1----|--(1)--1--1---1--1--0-----5-|
|----------------------|--------------------------5-|


                        F5                     C/E       D5
   E   E  E  E  E  E  E  E    +E   +E      +E   Q   E  E  E
|-----------------------17-|-(17)-(17)b18r(17)--------------|
|-20--------18-18----------|-------------------14--15-17-14-|
|-----19-19-------17-17----|--------------------------------|
|--------------------------|--------------------------------|
|--------------------------|--------------------------------|
|--------------------------|--------------------------------|
|
|  E   E  E  E  E  E  E  E    +E   +E      +E   Q   E  E  E
|-----------------------13-|-(13)-(13)b14r(13)--------------|
|-13--------11-11----------|--------------------5---6--8--5-|
|-----12-12-------10-10----|--------------------------------|
|--------------------------|--------------------------------|
|--------------------------|--------------------------------|
|--------------------------|--------------------------------|
|
|         PM|      PM                       PM
| +E   E  E  E  E  E  E  E    +E    E       E   Q   E  E  E
|--------------------------|--------------------------------|
|--------------------------|--------------------------------|
|--------------------------|--------------------------------|
|-(5)--------5--------5--3-|--(3)---------------2---2--2--0-|
|-(5)--5--5--5--5--5--5--3-|--(3)---3-------3---3---3--3--0-|
|-(5)--5--5--5--5--5--5--3-|--(3)---3-------3---2---2--2--0-|


 Chorus
                Bb5             A5 G5
   W                 W
|-----------------|------------------|
|-15--------------|------------------|
|-----------------|------------------|
|-----------------|------------------|
|-----------------|------------------|
|-----------------|------------------|
|
|  W                 W
|-----------------|------------------|
|--6--------------|------------------|
|-----------------|------------------|
|-----------------|------------------|
|-----------------|------------------|
|-----------------|------------------|
|
|     PM|   PM          PM|
|  Q  E E E E E E   +E  E E E E Q  E
|-----------------|------------------|
|-----------------|------------------|
|--7------7---7-3-|-(3)-------3-2----|
|--7--7-7-7-7-7-3-|-(3)-3-3-3-3-2--5-|
|--5--5-5-5-5-5-1-|-(1)-1-1-1-1-0--5-|
|-----------------|----------------5-|


  G5              F5             C/E         D5
   W                    W
|--------------------|--------------------------|
|--------------------|--------------------------|
|--------------------|--------------------------|
|--------------------|--------------------------|
|--------------------|--------------------------|
|--------------------|--------------------------|
|
|  H        Q   E  E    E   E  E  E  E  E  E  E
|--------------------|--------------------18-17-|
|--------------------|-----------15-14-17-------|
|--------------------|-----15-14----------------|
|-----------------12-|-11-----------------------|
|--------------------|--------------------------|
|--------------------|--------------------------|
|
|       PM|   PM               PM
| +E  E E E E E E  E   +E   E  E  Q     E  E  E
|--------------------|--------------------------|
|--------------------|--------------------------|
|--------------------|--------------------------|
|-(5)-----5-----5--3-|-(3)--------2-----2--2--0-|
|-(5)-5-5-5-5-5-5--3-|-(3)--3--3--3-----3--3--0-|
|-(5)-5-5-5-5-5-5--3-|-(3)--3--3--2-----2--2--0-|


  D5               Bb5                A5 G5
   Q    H.              Q      H.
|--------------------|---------------------|
|-10--/22------------|-15----/18-----------|
|--------------------|---------------------|
|--------------------|---------------------|
|--------------------|---------------------|
|--------------------|---------------------|
|
|  Q    H.              Q      H.
|--------------------|---------------------|
|--------------------|---------------------|
|-10--/21------------|-15----/19-----------|
|--------------------|---------------------|
|--------------------|---------------------|
|--------------------|---------------------|
|
|       PM-|   PM          PM|
|  Q    E  E E E E E   +E  E   E  E E Q  E
|--------------------|---------------------|
|--------------------|---------------------|
|--7---------7---7-3-|-(3)----------3-2----|
|--7----7--7-7-7-7-3-|-(3)-3---3--3-3-2--5-|
|--5----5--5-5-5-5-1-|-(1)-1---1--1-1-0--5-|
|--------------------|-------------------5-|


                        F5             C/E              Eb5
    Q     Q     Q     Q      E    E  E   E  E   E  S  S  S  S
|-------------------------|-----/12-12-/15-15-/17-18-17-15------|
|-/20\---15---/20\---11---|-10-----------------------------16---|
|-------------------------|-------------------------------------|
|-------------------------|-------------------------------------|
|-------------------------|-------------------------------------|
|-------------------------|-------------------------------------|
|
|   Q     Q     Q     Q      E    E  E   E  E   E  Q
|-------------------------|-------------------------------------|
|-------------------------|-----/13-13-/15-15-/18---------------|
|--19\---15----19\---10---|-10----------------------------------|
|-------------------------|-------------------------------------|
|-------------------------|-------------------------------------|
|-------------------------|-------------------------------------|
|
|         PM|      PM                PM
|  +E  E  E E   E  E  E E   +E    E  E   Q      E  E     E
|-------------------------|-------------------------------------|
|-------------------------|-------------------------------------|
|-------------------------|-------------------------------------|
|--(5)------5---------5-3-|-(3)----------2------2--2-----1------|
|--(5)-5--5-5---5--5--5-3-|-(3)---3--3---3------3--3-----1------|
|--(5)-5--5-5---5--5--5-3-|-(3)---3--3---2------2--2-----1------|


  Eb5                     Bb5
  Gtr I
   S  S  S  S  S  S  S  S  S  S  S  S  S  S  S  S
|-15-------15-------------------------------------|
|----16-15----15-16-13-10-13-15-------------------|
|-------------------------------15-14-12-10-------|
|-------------------------------------------12-10-|
|-------------------------------------------------|
|-------------------------------------------------|
|
| Gtrs II, III
|  H                       H
|-------------------------------------------------|
|-------------------------------------------------|
|--------------------------3----------------------|
|--1-----------------------3----------------------|
|--1-----------------------1----------------------|
|--1----------------------------------------------|


  Eb5                     Bb5                       F5                      C5
   S  S  S  S  S  S  S  S  S  S  S  S  S  S  S  S    S  S  S  S  S  S  S  S   E  S  S  S  S  S  S
|-------------------------------------------------|-17----------------------/20-17-----------------|
|-------------------------------13----15----15S20-|----18-17-18-17-18-17-18--------18----18--------|
|-------------------12----12-15----12----12-------|-----------------------------------17----17-----|
|-------12----12-15----15-------------------------|--------------------------------------------14--|
|-12-15----15-------------------------------------|------------------------------------------------|
|-------------------------------------------------|------------------------------------------------|
|
|  H                       H                         H                        H
|-------------------------------------------------|------------------------------------------------|
|-------------------------------------------------|------------------------------------------------|
|--------------------------3----------------------|---------------------------5--------------------|
|--1-----------------------3----------------------|--3------------------------5--------------------|
|--1-----------------------1----------------------|--3------------------------3--------------------|
|--1----------------------------------------------|--3---------------------------------------------|


  F5                C5
   S  S  S  S  S  S  S  S  S  S  E  Q
|--------------------------------------|
|-------------------------------10s20--|
|--------------------------------------|
|-15-14----------14-15----17-----------|
|-------15-12-13-------15----15--------|
|--------------------------------------|
|
|  H                       H
|--------------------------------------|
|--------------------------------------|
|--------------------------5-----------|
|--3-----------------------5-----------|
|--3-----------------------3-----------|
|--3-----------------------------------|


  D5    N.C.
   ~~
   H     E  E  E  E       +Q     +Q     +Q      +Q
|----------------------|----------------------------------|
|-15----15-------16b18-|-(16)---(16)---(16)----(16)pb18r==|
|----------14-15-------|----------------------------------|
|----------------------|----------------------------------|
|----------------------|----------------------------------|
|----------------------|----------------------------------|
|
|  H     E  E  E  E       +E  E   E  Q       E   Q
|----------------------|----------------------------------|
|----------------------|----------------------------------|
|----------------------|----------------------------------|
|--0-------------------|--------------------/8---7--------|
|--0-------------------|-------------7--------------------|
|--0-----0--8--7--6----|--(6)-0---6-----------------------|


   Re-entry
    D5
    Gtr I
                           ~~~
     S  S  S S  S S   E E  Q.
||--13-10-----------/17---16----------|
||o-------10-9------------------------|
||-------------10-9-------------------|
||------------------------------------|
||o-----------------------------------|
||------------------------------------|
|
|   Gtr II
|                          ~~~
|    S  S  S S  S S   E E  Q.
||---5--4-----------/13---12----------|
||o--------6-5------------------------|
||--------------7-6-------------------|
||------------------------------------|
||o-----------------------------------|
||------------------------------------|
|
|   Gtr III
|    PM--------------------------------
|    S  S  E    Q       E  S  S S S E
||------------------------------------|
||o-----------------------------------|
||------------------------------------|
||---0--0------------------0--0---0-0-|
||o--0--0------------------0--0---0-0-|
||---0--0------------------0--0---0-0-|


   S  S  S S  S S   Q    S  S  S  S  S  S
|-13-10-----------/17---16-17-16-------15--||
|-------10-9---------------------14-17----o||
|------------10-9--------------------------||
|------------------------------------------||
|-----------------------------------------o||
|------------------------------------------||
|
|  S  S  S S  S S   Q    S  S  S  S  S  S
|--5--4-----------/13---12-13-12-------12--||
|--------6-5----------------------9-14----o||
|-------------7-6--------------------------||
|------------------------------------------||
|-----------------------------------------o||
|------------------------------------------||
|
|--------------------------------------|
|  S  S  E    Q       E  S  S  S  S  S  S
|------------------------------------------||
|-----------------------------------------o||
|------------------------------------------||
|--0--0------------------0--0--0--0--0--0--||
|--0--0------------------0--0--0--0--0--0-o||
|--0--0------------------0--0--0--0--0--0--||


 Verse
  D5        N.C.D5  N.C.D5  N.C.D5            N.C.D5  N.C.D5  N.C.D5
    W                                 W
|-/13-------------------------------|---------------------------------|
|-----------------------------------|---------------------------------|
|-----------------------------------|---------------------------------|
|-----------------------------------|---------------------------------|
|-----------------------------------|---------------------------------|
|-----------------------------------|---------------------------------|
|
|   W                                 W
|--/5-------------------------------|---------------------------------|
|-----------------------------------|---------------------------------|
|-----------------------------------|---------------------------------|
|-----------------------------------|---------------------------------|
|-----------------------------------|---------------------------------|
|-----------------------------------|---------------------------------|
|
|   PM----|     PM|     PM|     PM----------|     PM|     PM|     PM|
|   S S S S S S S S S S S S S S S S   S S S S S S S S S S S S S S S S
|-----------------------------------|---------------------------------|
|-----------------------------------|---------------------------------|
|-----------------------------------|---------------------------------|
|-----------------------------------|-----------------3-5-----5-7-----|
|---0-0-0-0-6-5-0-0-3-5-0-0-1-3-0-0-|-0-0-0-0-6-5-0-0-----0-0-----0-0-|
|---0-0-0-0-----0-0-----0-0-----0-0-|-0-0-0-0-----0-0-----0-0-----0-0-|


  D5      N.C.D5  N.C.D5  N.C.D5            N.C.D5  N.C.D5  N.C.
  W                                 W
|---------------------------------|---------------------------------|
|---------------------------------|---------------------------------|
|---------------------------------|---------------------------------|
|---------------------------------|---------------------------------|
|---------------------------------|---------------------------------|
|---------------------------------|---------------------------------|
|
| W                                 W
|---------------------------------|---------------------------------|
|---------------------------------|---------------------------------|
|---------------------------------|---------------------------------|
|---------------------------------|---------------------------------|
|---------------------------------|---------------------------------|
|---------------------------------|---------------------------------|
|
| PM----|     PM|     PM|     PM----------|     PM|     PM|
| S S S S S S S S S S S S S S S S   S S S S S S S S S S S S T T S E
|---------------------------------|---------------------------------|
|---------------------------------|---------------------------------|
|---------------------------------|---------------------------------|
|---------------------------------|-----------------3-5-----5-7-----|
|-0-0-0-0-6-5-0-0-3-5-0-0-1-3-0-0-|-0-0-0-0-6-5-0-0-----0-0-----8-7-|
|-0-0-0-0-----0-0-----0-0-----0-0-|-0-0-0-0-----0-0-----0-0---------|


  D5       N.C.  D5  N.C.D5  N.C.D5               N.C.   D5  N.C.D5  N.C.D5
   S S E   +H.                           S S  E    +H.
|------------------------------------|---------------------------------------|
|------------------------------------|---------------------------------------|
|-/7-5-7---(7)-----------------------|-/10-9-10---(10)-----------------------|
|------------------------------------|---------------------------------------|
|------------------------------------|---------------------------------------|
|------------------------------------|---------------------------------------|
|
|  S S E   +H.                           S S  E    +H.
|------------------------------------|---------------------------------------|
|-/6-5-6---(6)-----------------------|-/10-9-10---(10)-----------------------|
|------------------------------------|---------------------------------------|
|------------------------------------|---------------------------------------|
|------------------------------------|---------------------------------------|
|------------------------------------|---------------------------------------|
|
|  PM----|       PM|     PM|     PM-------------|        PM|     PM|     PM|
|  S S S S  S  S S S S S S S S S S S     S S  S S   S  S S S S S S S S S S S
|------------------------------------|---------------------------------------|
|------------------------------------|---------------------------------------|
|------------------------------------|---------------------------------------|
|------------------------------------|-----------------------3-5-----5-7-----|
|--0-0-0-0--6--5-0-0-3-5-0-0-1-3-0-0-|---0-0--0-0---6--5-0-0-----0-0-----0-0-|
|--0-0-0-0-------0-0-----0-0-----0-0-|---0-0--0-0--------0-0-----0-0-----0-0-|


  D5          N.C.   D5  N.C.D5  N.C.D5
    S  S  E    +H.
|----------------------------------------|
|----------------------------------------|
|--14-13-14---(14)-----------------------|
|----------------------------------------|
|----------------------------------------|
|----------------------------------------|
|
|   S  S  E    +H.
|----------------------------------------|
|-/15-14-15---(15)-----------------------|
|----------------------------------------|
|----------------------------------------|
|----------------------------------------|
|----------------------------------------|
|
|   PM------|        PM|     PM|     PM---
|   S  S  S S   S  S S S S S S S S S S S
|----------------------------------------|
|----------------------------------------|
|----------------------------------------|
|----------------------------------------|
|---0--0--0-0---6--5-0-0-3-5-0-0-1-3-0-0-|
|---0--0--0-0--------0-0-----0-0-----0-0-|


                 N.C.   D5  N.C.     D5  N.C.
    S  S  E       +Q          +H
|------------------------------------------------|
|------------------------------------------------|
|--19-18-19b21---(19)-------(<19>)---------------|
|------------------------------------------------|
|------------------------------------------------|
|------------------------------------------------|
|
|   S  S  E       +Q          +H
|------------------------------------------------|
|-/18-17-18b20---(18)--------(18)----------------|
|------------------------------------------------|
|------------------------------------------------|
|------------------------------------------------|
|------------------------------------------------|
|
|--------------|        PM|          PM|
|   S  S  S    S   S  S S S    S   S S S T T S E
|------------------------------------------------|
|------------------------------------------------|
|------------------------------------------------|
|------------------------------3---5-----5-7-----|
|---0--0--0----0---6--5-0-0----------0-0-----8-7-|
|---0--0--0----0--------0-0----------0-0---------|


 Pre-Chorus
  N.C.
   /                          |
   Q       +Q         +Q     +Q
|-----------------------------------|
|-16------(16)-------(16)---(16)----|
|-17------(17)-------(17)---(17)----|
|-----------------------------------|
|-----------------------------------|
|-----------------------------------|
|
|  S S  E   S   S  E   E  E   E   E
|-----------------------------------|
|-----------8--10-11----------------|
|--7-9-10--------------2--6---9--12-|
|-----------------------------------|
|-----------------------------------|
|-----------------------------------|
|
|  S S  E   S   S  E   E  E   E   E
|-----------------------------------|
|-----------------------------------|
|-----------------------------------|
|-----------5---7--8----------------|
|--5-7--8--------------0--4---7--10-|
|-----------------------------------|


  D5               Bb5                    A5    G5
   Q   E  Q    Q    E    +E   E  E  +Q     E  E  E
|---------------------|-----------------------------|
|-18--17--------------|-------------------------20--|
|--------19-----------|-----------------------------|
|-------------19---20-|-(20)-19-17-(17)---20-17-----|
|---------------------|-----------------------------|
|---------------------|-----------------------------|
|
|  Q   E  Q    Q    E    +E   E  E  +Q     E  E  E
|---------------------|-----------------------------|
|-10---8--------------|-------------------------13--|
|--------10-----------|-----------------------------|
|-------------10---12-|-(12)-10--8--(8)---10--8-----|
|---------------------|-----------------------------|
|---------------------|-----------------------------|
|
|      PM|     PM             PM|
|  Q   E  E E  E E  E    +E   E  E   E  E  Q     E
|---------------------|-----------------------------|
|---------------------|-----------------------------|
|--7--------7----7--3-|--(3)------------3--2--------|
|--7---5--5-7--5-7--3-|--(3)--3--3---3--3--2-----5--|
|--5---5--5-5--5-5--1-|--(1)--1--1---1--1--0-----5--|
|---------------------|--------------------------5--|


                        F5                     C/E       D5
   E   E  E  E  E  E  E  E    +E   +E      +E   Q   E  E  S  S
|-----------------------17-|-(17)-(17)b18r(17)-----------------|
|-20--------18-18----------|-------------------14--15-17-17-18-|
|-----19-19-------17-17----|-----------------------------------|
|--------------------------|-----------------------------------|
|--------------------------|-----------------------------------|
|--------------------------|-----------------------------------|
|
|  E   E  E  E  E  E  E  E    +E   +E      +E   Q   E  E  S  S
|-----------------------13-|-(13)-(13)b14r(13)-----------------|
|-13--------11-11----------|--------------------5---6--8--8-10-|
|-----12-12-------10-10----|-----------------------------------|
|--------------------------|-----------------------------------|
|--------------------------|-----------------------------------|
|--------------------------|-----------------------------------|
|
|         PM|      PM                       PM
| +E   E  E  E  E  E  E  E    +E    E       E   Q   E  E  E
|--------------------------|-----------------------------------|
|--------------------------|-----------------------------------|
|--------------------------|-----------------------------------|
|-(5)--------5--------5--3-|--(3)---------------2---2--2--0----|
|-(5)--5--5--5--5--5--5--3-|--(3)---3-------3---3---3--3--0----|
|-(5)--5--5--5--5--5--5--3-|--(3)---3-------3---2---2--2--0----|


                 Bb5                       A5    G5
   Q   E  Q    E  E  E    +E   E  E  +Q     E  E  E
|----------------------|----------------------------|
|-17-------------------|-------------------------20-|
|-----19---------------|----------------------------|
|--------19------19-20-|-(20)-19-17-(17)---20-17----|
|-------------17-------|----------------------------|
|----------------------|----------------------------|
|
|  Q   E  Q    E  E  E    +E   E  E  +Q     E  E  E
|----------------------|----------------------------|
|--8-------------------|-------------------------13-|
|-----10---------------|----------------------------|
|--------10------10-12-|-(12)-10--8--(8)---10--8----|
|--------------8-------|----------------------------|
|----------------------|----------------------------|
|
|      PM|     PM              PM|
|  Q   E  E E  E  Q       +E   E  E   E  E  Q     E
|----------------------|----------------------------|
|----------------------|----------------------------|
|--7--------7-----3----|--(3)------------3--2-------|
|--7---7--7-7--7--3----|--(3)--3--3---3--3--2-----5-|
|--5---5--5-5--5--1----|--(1)--1--1---1--1--0-----5-|
|----------------------|--------------------------5-|


                        F5                     C/E       D5
   E   E  E  E  E  E  E  E    +E   +E      +E   Q   E  E  E
|-----------------------17-|-(17)-(17)b18r(17)--------------|
|-20--------18-18----------|-------------------14--15-17-14-|
|-----19-19-------17-17----|--------------------------------|
|--------------------------|--------------------------------|
|--------------------------|--------------------------------|
|--------------------------|--------------------------------|
|
|  E   E  E  E  E  E  E  E    +E   +E      +E   Q   E  E  E
|-----------------------13-|-(13)-(13)b14r(13)--------------|
|-13--------11-11----------|--------------------5---6--8--5-|
|-----12-12-------10-10----|--------------------------------|
|--------------------------|--------------------------------|
|--------------------------|--------------------------------|
|--------------------------|--------------------------------|
|
|         PM|      PM                       PM
| +E   E  E  E  E  E  E  E    +E    E       E   Q   E  E  E
|--------------------------|--------------------------------|
|--------------------------|--------------------------------|
|--------------------------|--------------------------------|
|-(5)--------5--------5--3-|--(3)---------------2---2--2--0-|
|-(5)--5--5--5--5--5--5--3-|--(3)---3-------3---3---3--3--0-|
|-(5)--5--5--5--5--5--5--3-|--(3)---3-------3---2---2--2--0-|


 Chorus
                Bb5             A5 G5
   W                 W
|-----------------|------------------|
|-15--------------|------------------|
|-----------------|------------------|
|-----------------|------------------|
|-----------------|------------------|
|-----------------|------------------|
|
|  W                 W
|-----------------|------------------|
|--6--------------|------------------|
|-----------------|------------------|
|-----------------|------------------|
|-----------------|------------------|
|-----------------|------------------|
|
|     PM|   PM          PM|
|  Q  E E E E E E   +E  E E E E Q  E
|-----------------|------------------|
|-----------------|------------------|
|--7------7---7-3-|-(3)-------3-2----|
|--7--7-7-7-7-7-3-|-(3)-3-3-3-3-2--5-|
|--5--5-5-5-5-5-1-|-(1)-1-1-1-1-0--5-|
|-----------------|----------------5-|


                  F5             C/E         D5
   W                    W
|--------------------|--------------------------|
|--------------------|--------------------------|
|--------------------|--------------------------|
|--------------------|--------------------------|
|--------------------|--------------------------|
|--------------------|--------------------------|
|
|  H        Q   E  E    E   E  E  E  E  E  E  E
|--------------------|--------------------18-17-|
|--------------------|-----------15-14-17-------|
|--------------------|-----15-14----------------|
|-----------------12-|-11-----------------------|
|--------------------|--------------------------|
|--------------------|--------------------------|
|
|       PM|   PM               PM
| +E  E E E E E E  E   +E   E  E  Q     E  E  E
|--------------------|--------------------------|
|--------------------|--------------------------|
|--------------------|--------------------------|
|-(5)-----5-----5--3-|-(3)--------2-----2--2--0-|
|-(5)-5-5-5-5-5-5--3-|-(3)--3--3--3-----3--3--0-|
|-(5)-5-5-5-5-5-5--3-|-(3)--3--3--2-----2--2--0-|


                   Bb5                A5 G5
   Q    H.              Q      H.
|--------------------|---------------------|
|-10--/22------------|-15----/18-----------|
|--------------------|---------------------|
|--------------------|---------------------|
|--------------------|---------------------|
|--------------------|---------------------|
|
|  Q    H.              Q      H.
|--------------------|---------------------|
|--------------------|---------------------|
|-10--/21------------|-15----/19-----------|
|--------------------|---------------------|
|--------------------|---------------------|
|--------------------|---------------------|
|
|       PM-|   PM          PM|
|  Q    E  E E E E E   +E  E   E  E E Q  E
|--------------------|---------------------|
|--------------------|---------------------|
|--7---------7---7-3-|-(3)----------3-2----|
|--7----7--7-7-7-7-3-|-(3)-3---3--3-3-2--5-|
|--5----5--5-5-5-5-1-|-(1)-1---1--1-1-0--5-|
|--------------------|-------------------5-|


                        F5             C/E           D5
    Q     Q     Q     Q      E    E  E   E  E   E  Q
|-------------------------|-----/12-12-/15-15-/17-17---|
|-/20\---15---/20\---11---|-10-------------------------|
|-------------------------|----------------------------|
|-------------------------|----------------------------|
|-------------------------|----------------------------|
|-------------------------|----------------------------|
|
|   Q     Q     Q     Q      E    E  E   E  E   E  Q
|-------------------------|----------------------------|
|-------------------------|-----/13-13-/15-15-/18-18---|
|--19\---15----19\---10---|-10-------------------------|
|-------------------------|----------------------------|
|-------------------------|----------------------------|
|-------------------------|----------------------------|
|
|         PM|      PM                PM
|  +E  E  E E   E  E  E E   +E    E  E   Q      E  E E
|-------------------------|----------------------------|
|-------------------------|----------------------------|
|-------------------------|----------------------------|
|--(5)------5---------5-3-|-(3)----------2------2--2-0-|
|--(5)-5--5-5---5--5--5-3-|-(3)---3--3---3------3--3-0-|
|--(5)-5--5-5---5--5--5-3-|-(3)---3--3---2------2--2-0-|


                           Bb5        A5 G5
   Q    H.              Q      H.
|--------------------|---------------------|
|-10--/22------------|-15----/18-----------|
|--------------------|---------------------|
|--------------------|---------------------|
|--------------------|---------------------|
|--------------------|---------------------|
|
|  Q    H.              Q      H.
|--------------------|---------------------|
|--------------------|---------------------|
|-10--/21------------|-15----/19-----------|
|--------------------|---------------------|
|--------------------|---------------------|
|--------------------|---------------------|
|
|       PM-|   PM          PM|
|  Q    E  E E E E E   +E  E   E  E E Q  E
|--------------------|---------------------|
|--------------------|---------------------|
|--7---------7---7-3-|-(3)----------3-2----|
|--7----7--7-7-7-7-3-|-(3)-3---3--3-3-2--5-|
|--5----5--5-5-5-5-1-|-(1)-1---1--1-1-0--5-|
|--------------------|-------------------5-|


                        F5             C/E         D5
   E   E  E  E  E  E  E  E    E   E  E  E  E  E  E  E
|--------------------18----|-17-----------------------|
|-20--15-15----15-20----20-|-----18-15----17----18----|
|-----------15-------------|-----------15----15----15-|
|--------------------------|--------------------------|
|--------------------------|--------------------------|
|--------------------------|--------------------------|
|
|  E   E  E  E  E  E  E  E    E   E  E  E  E  E  E  E
|--------------------------|--------------------------|
|--------------------18----|-18-----------------------|
|-19--15-15----15-19----19-|-----17-15----18----19----|
|-----------15-------------|-----------15----15----15-|
|--------------------------|--------------------------|
|--------------------------|--------------------------|
|
|         PM|      PM                PM
| +E   E  E  E  E  E  E  E   +E   E  E  Q     E  E  E
|--------------------------|--------------------------|
|--------------------------|--------------------------|
|--------------------------|--------------------------|
|-(5)--------5--------5--3-|-(3)--------2-----2--2--0-|
|-(5)--5--5--5--5--5--5--3-|-(3)--3--3--3-----3--3--0-|
|-(5)--5--5--5--5--5--5--3-|-(3)--3--3--2-----2--2--0-|


                   Bb5                A5 G5
   Q    H.              Q      H.
|--------------------|---------------------|
|-10--/22------------|-15----/18-----------|
|--------------------|---------------------|
|--------------------|---------------------|
|--------------------|---------------------|
|--------------------|---------------------|
|
|  Q    H.              Q      H.
|--------------------|---------------------|
|--------------------|---------------------|
|-10--/21------------|-15----/19-----------|
|--------------------|---------------------|
|--------------------|---------------------|
|--------------------|---------------------|
|
|       PM-|   PM          PM|
|  Q    E  E E E E E   +E  E   E  E E Q  E
|--------------------|---------------------|
|--------------------|---------------------|
|--7---------7---7-3-|-(3)----------3-2----|
|--7----7--7-7-7-7-3-|-(3)-3---3--3-3-2--5-|
|--5----5--5-5-5-5-1-|-(1)-1---1--1-1-0--5-|
|--------------------|-------------------5-|


                        F5             C/E           Eb5
    Q     Q     Q     Q      E    E  E   E  E   E  Q
|-------------------------|-----/12-12-/15-15-/17-17---|
|-/20\---15---/20\---11---|-10-------------------------|
|-------------------------|----------------------------|
|-------------------------|----------------------------|
|-------------------------|----------------------------|
|-------------------------|----------------------------|
|
|   Q     Q     Q     Q      E    E  E   E  E   E  Q
|-------------------------|----------------------------|
|-------------------------|-----/13-13-/15-15-/18-18---|
|--19\---15----19\---10---|-10-------------------------|
|-------------------------|----------------------------|
|-------------------------|----------------------------|
|-------------------------|----------------------------|
|
|         PM|      PM                PM
|  +E  E  E E   E  E  E E   +E    E  E   Q      E  E E
|-------------------------|----------------------------|
|-------------------------|----------------------------|
|-------------------------|----------------------------|
|--(5)------5---------5-3-|-(3)----------2------2--2-1-|
|--(5)-5--5-5---5--5--5-3-|-(3)---3--3---3------3--3-1-|
|--(5)-5--5-5---5--5--5-3-|-(3)---3--3---2------2--2-1-|


  Eb5                     Bb5
  Gtr I
   S  S  S  S  S  S  S  S  S  S  S  S  S  S  S  S
|-15-------15-------------------------------------|
|----16-15----15-16-13-10-13-15-------------------|
|-------------------------------15-14-12-10-------|
|-------------------------------------------12-10-|
|-------------------------------------------------|
|-------------------------------------------------|
|
| Gtrs II, III
|  H                       H
|-------------------------------------------------|
|-------------------------------------------------|
|--------------------------3----------------------|
|--1-----------------------3----------------------|
|--1-----------------------1----------------------|
|--1----------------------------------------------|


  Eb5                     Bb5                       F5                      C5
   S  S  S  S  S  S  S  S  S  S  S  S  S  S  S  S    S  S  S  S  S  S  S  S   E  S  S  S  S  S  S
|-------------------------------------------------|-17----------------------/20-17-----------------|
|-------------------------------13----15----15S20-|----18-17-18-17-18-17-18--------18----18--------|
|-------------------12----12-15----12----12-------|-----------------------------------17----17-----|
|-------12----12-15----15-------------------------|--------------------------------------------14--|
|-12-15----15-------------------------------------|------------------------------------------------|
|-------------------------------------------------|------------------------------------------------|
|
|  H                       H                         H                        H
|-------------------------------------------------|------------------------------------------------|
|-------------------------------------------------|------------------------------------------------|
|--------------------------3----------------------|---------------------------5--------------------|
|--1-----------------------3----------------------|--3------------------------5--------------------|
|--1-----------------------1----------------------|--3------------------------3--------------------|
|--1----------------------------------------------|--3---------------------------------------------|


  F5                      C5
   S  S  S  S  S  S  S  S  S  S  E  Q
|--------------------------------------|
|-------------------------------10s20--|
|--------------------------------------|
|-15-14----------14-15----17-----------|
|-------15-12-13-------15----15--------|
|--------------------------------------|
|
|  H                       H
|--------------------------------------|
|--------------------------------------|
|--------------------------5-----------|
|--3-----------------------5-----------|
|--3-----------------------3-----------|
|--3-----------------------------------|


 Guitar Solo
  D5                                       E5
   ~~                                                  ~~
               |--3--|  |--3--|  |--3--|
   H        E  S  S  S  S  S  S  S  S  S    Q.      E  H
|----------------------------------------|-----------------------|
|-15------/15-13----13-------------------|-----------------------|
|----------------14----14-12-14-12----12-|--------/17-13---------|
|----------------------------------15----|-14--------------------|
|----------------------------------------|-----------------------|
|----------------------------------------|-----------------------|
|
|  Q  E E   E  E        E        E          Q   E   E  E E E E
|----------------------------------------|-----------------------|
|----------------------------------------|-----------------------|
|----------------------------------------|-----------------------|
|--0--0-0---0--0--------0--------0-------|--2---2---2--2-2-2-2---|
|--0--0-0---0--0--------0--------0-------|--2---2---2--2-2-2-2---|
|--0--0-0---0--0--------0--------0-------|--2---2---2--2-2-2-2---|


  G5
                         |--3--|  |--3--|  |--3--|  |--3--|
   S S  S S  S  S  S  S  S  S  S  S  S  S  S  S  S  S  S  S
|--------------------15-18-15----------------------15-17-18-|
|-----------------15----------15----------------15----------|
|---------7S15-17----------------15----------15-------------|
|----8-10---------------------------15----15----------------|
|-10-----------------------------------17-------------------|
|-----------------------------------------------------------|
|
|  Q         E     E     E        E        E        E
|-----------------------------------------------------------|
|-----------------------------------------------------------|
|-----------------------------------------------------------|
|--5---------5-----5-----5--------5--------5--------5-------|
|--5---------5-----5-----5--------5--------5--------5-------|
|--5---------5-----5-----5--------5--------5--------5-------|


  C#m/E
   T  T  T  T  T  T  T  T  T  T  T  T  T  T  T  T  T  T  T  T  T  T  T  T  T  T  T  T  T  T  T  T
|-19-18-17-16-15-----------------------------------------------------------------------------------|
|----------------19-18-17-15----16-15-------------------15----------15-17-18-17-15-----------------|
|----------------------------17-------17-15----14-15-17----14-15-17----------------17-15-14-15-17--|
|-------------------------------------------15-----------------------------------------------------|
|--------------------------------------------------------------------------------------------------|
|--------------------------------------------------------------------------------------------------|
|
|  Q                       E           E           E           E           E           E
|--------------------------------------------------------------------------------------------------|
|--------------------------------------------------------------------------------------------------|
|--6-----------------------6-----------6-----------6-----------6-----------6-----------6-----------|
|--2-----------------------2-----------2-----------2-----------2-----------2-----------2-----------|
|--4-----------------------4-----------4-----------4-----------4-----------4-----------4-----------|
|--2-----------------------2-----------2-----------2-----------2-----------2-----------2-----------|


  D5                                Bb5                          A5   G5
   H          +T   T  S  S  S  S  S  E    +Q     S  S  H          +S    T  T
|--------------------------------------|-------------------------------------|
|--------------------------------------|-------------------------------------|
|-18b19------(18)-------15-17-18-19-15-|-(15)---14-15-18b19------(18)-/20-19-|
|-----------------17-19----------------|-------------------------------------|
|--------------------------------------|-------------------------------------|
|--------------------------------------|-------------------------------------|
|
|        PM|             PM                   PM|
|  Q     E E   E         E     E     E    +E  E  E     E    E Q    E
|--------------------------------------|-------------------------------------|
|--------------------------------------|-------------------------------------|
|--7-----------7---------------7-----3-|--(3)---------------3-2--------------|
|--7-----7-7---7---------7-----7-----3-|--(3)-3--3-----3----3-2----5---------|
|--5-----5-5---5---------5-----5-----1-|--(1)-1--1-----1----1-0----5---------|
|--------------------------------------|---------------------------5---------|


                                 F5                        C/E        D5
   S   S  S  S  S  S  H           +E     S   S  S  S  S  S  H          S  S
|-------------------------------------|-18--17-16-17-18-19-20b22------17-20--|
|-----------------17-18b20-------(18)-|--------------------------------------|
|-20--19-18-19-20---------------------|--------------------------------------|
|-------------------------------------|--------------------------------------|
|-------------------------------------|--------------------------------------|
|-------------------------------------|--------------------------------------|
|
|               PM---|       PM                       PM
| +E      E     E     E    E E E   E    +E      E     E     Q     E E  E
|-------------------------------------|--------------------------------------|
|-------------------------------------|--------------------------------------|
|-------------------------------------|--------------------------------------|
|-(5)-----------------5--------5---3--|-(3)-----------------2-----2-2--0-----|
|-(5)-----5-----5-----5----5-5-5---3--|-(3)-----3-----3-----3-----3-3--0-----|
|-(5)-----5-----5-----5----5-5-5---3--|-(3)-----3-----3-----2-----2-2--0-----|


                                             Bb5                                             A5                      G5
   S  S  S  S  S  S  S   S  S  S  S  S  S  S  E    +Q     T  T  T  T  T  T  T  T  T  T  T  T  T  T  T  T  T  T  T  T  T  T  +S
|-22-17----17----17--------17----15-------17-18-|-(18)---15p14p13p12-18p17p16p15-15p14p13p12-18p17p16p15------------------------|
|-------18----18--------------18----18-15-------|--------------------------------------------------------17p16------------------|
|-------------------17\-14----------------------|--------------------------------------------------------------18p17p16p15-(15)-|
|-----------------------------------------------|-------------------------------------------------------------------------------|
|-----------------------------------------------|-------------------------------------------------------------------------------|
|-----------------------------------------------|-------------------------------------------------------------------------------|
|
|              PM---|             PM                   PM|
|  Q           E     E      E     E     E     E    +E  E  E           E           E           Q                       E
|-----------------------------------------------|-------------------------------------------------------------------------------|
|-----------------------------------------------|-------------------------------------------------------------------------------|
|--7------------------------7-----------7-----3-|--(3)----------------------------3-----------2---------------------------------|
|--7-----------7-----7------7-----7-----7-----3-|--(3)-3--3-----------3-----------3-----------2-----------------------5---------|
|--5-----------5-----5------5-----5-----5-----1-|--(1)-1--1-----------1-----------1-----------0-----------------------5---------|
|-----------------------------------------------|---------------------------------------------------------------------5---------|


                                     F5
   +E.    T  T  S  S  S  S  Q.        a  S  +S
|---------------------------------------17-(17)b18----|
|-----------------------------------------------------|
|-(15)------14-15-16-17-18-18b19----------------------|
|--------15--------------------------15---------------|
|-----------------------------------------------------|
|-----------------------------------------------------|
|
|               PM---|           PM
|  +E  E        E     E     E    E E     E
|-----------------------------------------------------|
|-----------------------------------------------------|
|-----------------------------------------------------|
|--(5)----------------5------------5-----3------------|
|--(5)-5--------5-----5-----5----5-5-----3------------|
|--(5)-5--------5-----5-----5----5-5-----3------------|


                              C/E       D5                                         Bb5
                                                    |--3---|           |--3---|
   +S   +S       +S   S  S  S  Q   E  E  E    +E   +S   S  S  E  Q    +S   S  S  E   E
|-(17)-(17)pb18r(17)-----------------------|--------------------17---(17)-15-12-13-/18-|
|-----------------------16-15-14--15-17-18-|-(18)-(18)-17-14-15------------------------|
|--------------------15--------------------|-------------------------------------------|
|------------------------------------------|-------------------------------------------|
|------------------------------------------|-------------------------------------------|
|------------------------------------------|-------------------------------------------|
|
|                        PM                                   PM|      PM
|   E             E      E     Q   E  E  E     Q              E  E E   E         E   E
|------------------------------------------|-------------------------------------------|
|------------------------------------------|-------------------------------------------|
|------------------------------------------|---7-------------------7-------------7---3-|
|---3--------------------------2---2--2--0-|---7--------------7--7-7---7---------7---3-|
|---3-------------3------3-----3---3--3--0-|---5--------------5--5-5---5---------5---1-|
|---3-------------3------3-----2---2--2--0-|-------------------------------------------|


                                      A5                  G5                                               F5
                                                                                                            |--3--|
   +E   S  S  S  S  S  S     +S   +S   +S   +S   +S   +S   S  S    S   S  S  S   S  S  S  S  S  +S   +Q     S  S  S
|-(18)----------------------------------------------------15-15-|--------15S18\-15----------15-(15)-(15)---18-18-17----|
|------18-------------------------------------------------------|------------------------------------------------------|
|---------15-19-15-16-17b19-(17)-(17)-(17)-(17)-(17)-(17)-------|-15--15-----------15----15----------------------------|
|---------------------------------------------------------------|---------------------17-------------------------------|
|---------------------------------------------------------------|------------------------------------------------------|
|---------------------------------------------------------------|------------------------------------------------------|
|
|       PM---|                                                                   PM---|               PM
|  +E   E     E     E         E         Q                  E      +E      E      E     E     E        E  E  E
|---------------------------------------------------------------|------------------------------------------------------|
|---------------------------------------------------------------|------------------------------------------------------|
|--(3)------------------------3---------2-----------------------|------------------------------------------------------|
|--(3)--3-----3-----3---------3---------2------------------5----|-(5)------------------5-----------------5--3----------|
|--(1)--1-----1-----1---------1---------0------------------5----|-(5)-----5------5-----5-----5--------5--5--3----------|
|----------------------------------------------------------5----|-(5)-----5------5-----5-----5--------5--5--3----------|


                                       C/E                                             D5
   T   T  T  T  T  T  T  T  T  T  T  T  T  T  T  T  T  T  T  T  T  T  T  T  T  T  T  T  T  T  T  T
|-18--17----18-18-17----18-------------------------------------------------------------13-15-16-17-|
|--------18----------18----18-18-------------------------------------------------15-17-------------|
|--------------------------------14-14-12-14-14-13-12-12-14-14-12-14-14-13-12-14-------------------|
|--------------------------------------------------------------------------------------------------|
|--------------------------------------------------------------------------------------------------|
|--------------------------------------------------------------------------------------------------|
|
|                           PM
| +E            E           E           Q                       E           E           E
|--------------------------------------------------------------------------------------------------|
|--------------------------------------------------------------------------------------------------|
|--------------------------------------------------------------------------------------------------|
|-(3)-----------------------------------2-----------------------2-----------2-----------0----------|
|-(3)-----------3-----------3-----------3-----------------------3-----------3-----------0----------|
|-(3)-----------3-----------3-----------2-----------------------2-----------2-----------0----------|


                                                                 Bb5
   |------6-------|  |------6-------|  |------6-------|  |------6-------|
   S  S  S  S  S  S  S  S  S  S  S  S  S  S  S  S  S  S  S  S  S  S  S  S
|-17-13----------------------13-15-16-17-13----------------------13-16-17---|
|-------15----------------15----------------15----------------15------------|
|----------14----------14----------------------14----------14---------------|
|-------------15----15----------------------------15----15------------------|
|----------------17----------------------------------17---------------------|
|---------------------------------------------------------------------------|
|
|                    PM------|                  PM
|  Q                 E        E        E        E        E        E
|---------------------------------------------------------------------------|
|---------------------------------------------------------------------------|
|--7-----------------------------------7-----------------7--------3---------|
|--7-----------------7--------7--------7--------7--------7--------3---------|
|--5-----------------5--------5--------5--------5--------5--------1---------|
|---------------------------------------------------------------------------|


                                                A5                G5
   |-------6-------|  |------6-------|  |------6-------|  |------6-------|
   S   S  S  S  S  S  S  S  S  S  S  S  S  S  S  S  S  S  S  S  S  S  S  S
|-18--13----------------------13-15-17-18-13----------------------13-15-17-|
|--------14----------------14----------------14----------------14----------|
|-----------15----------15----------------------15----------15-------------|
|--------------15----15----------------------------15----15----------------|
|-----------------16----------------------------------16-------------------|
|--------------------------------------------------------------------------|
|
|            PM------|
| +E         E        E        E        E        Q                 E
|--------------------------------------------------------------------------|
|--------------------------------------------------------------------------|
|-(3)-----------------------------------3--------2-------------------------|
|-(3)--------3--------3--------3--------3--------2-----------------5-------|
|-(1)--------1--------1--------1--------1--------0-----------------5-------|
|------------------------------------------------------------------5-------|


                                                                  F5
   |-------6-------|  |------6-------|  |------6-------|  |------6-------|
   S   S  S  S  S  S  S  S  S  S  S  S  S  S  S  S  S  S  S  S  S  S  S  S
|-18--15----------------------15-16-17-18-15----------------------15-17-18--|
|--------16----------------16----------------16----------------16-----------|
|-----------15----------15----------------------15----------15--------------|
|--------------17----17----------------------------17----17-----------------|
|-----------------18----------------------------------18--------------------|
|---------------------------------------------------------------------------|
|
|                     PM------|                  PM
| +E         E        E        E        E        E        E        E
|---------------------------------------------------------------------------|
|---------------------------------------------------------------------------|
|---------------------------------------------------------------------------|
|-(5)--------------------------5--------------------------5--------3--------|
|-(5)--------5--------5--------5--------5--------5--------5--------3--------|
|-(5)--------5--------5--------5--------5--------5--------5--------3--------|


                              C/E                                 D5
   |-------6-------|  |------6-------|  |------6-------|  |------6-------|
   S   S  S  S  S  S  S  S  S  S  S  S  S  S  S  S  S  S  S  S  S  S  S  S
|-17--13----------------------13-17-20-17----------------------------17-20-|
|--------15----------------15-------------18----------------------18-------|
|-----------14-12----12-14-------------------19-17----------17-19----------|
|-----------------15-------------------------------19-17-19----------------|
|--------------------------------------------------------------------------|
|--------------------------------------------------------------------------|
|
| Gtrs II, III
|                     PM
| +E         E        E        Q                 E        E        E
|--------------------------------------------------------------------------|
|--------------------------------------------------------------------------|
|--------------------------------------------------------------------------|
|-(3)--------------------------2-----------------2--------2--------0-------|
|-(3)--------3--------3--------3-----------------3--------3--------0-------|
|-(3)--------3--------3--------2-----------------2--------2--------0-------|
|
|  W
|--------------------------------------------------------------------------|
|--------------------------------------------------------------------------|
|--------------------------------------------------------------------------|
|--------------------------------------------------------------------------|
|--------------------------------------------------------------------------|
|--------------------------------------------------------------------------|


 Orchestra
  Gtr I
                      \3
   ~~~~~~~~~~~~
   H         H       +W
|-20b22----/17----|-(17)------------------------|
|-----------------|-----------------------------|
|-----------------|-----------------------------|
|-----------------|-----------------------------|
|-----------------|-----------------------------|
|-----------------|-----------------------------|
|
| Gtr II
|  W                 +W
|-----------------|-----------------------------|
|-----------------|-----------------------------|
|-----------------|-----------------------------|
|--0--------------|--(0)------------------------|
|--0--------------|--(0)------------------------|
|--0--------------|--(0)------------------------|
|
|                   Gtr III
|  W                  E   E  E  E  E  E  E  E
|-----------------|--13-----------13------------|
|-----------------|------15----15----15----15---|
|-----------------|---------14----------14------|
|-----------------|-----------------------------|
|-----------------|-----------------------------|
|-----------------|-----------------------------|


  \4___/
       TP                         TP           TP
  a   +W                         +H           +H
|------------------------------|---------------------------|
|------------------------------|---------------------------|
|------------------------------|---------------------------|
|------------------------------|---------------------------|
|------------------------------|---------------------------|
|-0---(x)----------------------|-(x)----------(x)----------|
|
|     +W                         +W
|------------------------------|---------------------------|
|------------------------------|---------------------------|
|------------------------------|---------------------------|
|-----(0)----------------------|-(0)-----------------------|
|-----(0)----------------------|-(0)-----------------------|
|-----(0)----------------------|-(0)-----------------------|
|
|      E   E  E  E  E  E  E  E    E   E  E  E  E   E  E  E
|-----13-----------13----------|-12-----------12-----------|
|---------15----15----15----15-|-----14----14-----14----14-|
|------------14----------14----|--------14-----------14----|
|------------------------------|---------------------------|
|------------------------------|---------------------------|
|------------------------------|---------------------------|


                |
   TP           TP
  +H           +H              W                          W
|---------------------------|--------------------------|----------------------------|
|---------------------------|--------------------------|----------------------------|
|---------------------------|--------------------------|----------------------------|
|---------------------------|--------------------------|----------------------------|
|---------------------------|--------------------------|----------------------------|
|-(x)----------(x)----------|--------------------------|----------------------------|
|
|  >
| +W                          +W                         +W
|---------------------------|--------------------------|----------------------------|
|---------------------------|--------------------------|----------------------------|
|---------------------------|--------------------------|----------------------------|
|-(0)-----------------------|-(0)----------------------|-(0)------------------------|
|-(0)-----------------------|-(0)----------------------|-(0)------------------------|
|-(0)-----------------------|-(0)----------------------|-(0)------------------------|
|
|  E   E  E  E  E   E  E  E    E   E  E  E  E  E  E  E    E   E  E  E  E  E  E  E
|-12-----------12-----------|-13-----------13----------|-13-----------13------------|
|-----14----14-----14----14-|-----15----15----15----15-|-----15----15----15----15---|
|--------14-----------14----|--------14----------14----|--------14----------14------|
|---------------------------|--------------------------|----------------------------|
|---------------------------|--------------------------|----------------------------|
|---------------------------|--------------------------|----------------------------|


   W                          W
|--------------------------|--------------------------|
|--------------------------|--------------------------|
|--------------------------|--------------------------|
|--------------------------|--------------------------|
|--------------------------|--------------------------|
|--------------------------|--------------------------|
|
| +W                         +W
|--------------------------|--------------------------|
|--------------------------|--------------------------|
|--------------------------|--------------------------|
|-(0)----------------------|-(0)----------------------|
|-(0)----------------------|-(0)----------------------|
|-(0)----------------------|-(0)----------------------|
|
|  E   E  E  E  E  E  E  E    E   E  E  E  E  E  E  E
|-15-----------15----------|-12-----------12----------|
|-----16----16----16----16-|-----14----14----14----14-|
|--------15----------15----|--------14----------14----|
|--------------------------|--------------------------|
|--------------------------|--------------------------|
|--------------------------|--------------------------|


  N.C.
   W                          W
|--------------------------|-------------------------|
|--------------------------|-------------------------|
|--------------------------|-------------------------|
|--------------------------|-------------------------|
|--------------------------|-------------------------|
|--------------------------|-------------------------|
|
| Gtr V
|  H.                 E  E    Q     Q     Q     Q
|--------------------------|-------------------------|
|--------------------------|-------------------------|
|--------------------------|-------------------------|
|--------------------------|-------------------------|
|--5------------------7--8-|--7-----5-----7-----8----|
|--------------------------|-------------------------|
|
|  E   E  E  E  E  E  E  E    E  E  E  E  E  E  E  E
|-13-----------13----------|-13----------13----------|
|-----15----15----15----15-|----15----15----15----15-|
|--------14----------14----|-------14----------14----|
|--------------------------|-------------------------|
|--------------------------|-------------------------|
|--------------------------|-------------------------|


   W                         W
|-------------------------|-------------------------|
|-------------------------|-------------------------|
|-------------------------|-------------------------|
|-------------------------|-------------------------|
|-------------------------|-------------------------|
|-------------------------|-------------------------|
|
|  H           Q     E  E    W
|-------------------------|-------------------------|
|-------------------------|-------------------------|
|-------------------------|-------------------------|
|-------------------------|-------------------------|
|--6-----------5-----6--5-|--3----------------------|
|-------------------------|-------------------------|
|
|  E  E  E  E  E  E  E  E    E  E  E  E  E  E  E  E
|-11----------11----------|-11----------11----------|
|----13----13----13----13-|----13----13----13----13-|
|-------13----------13----|-------13----------13----|
|-------------------------|-------------------------|
|-------------------------|-------------------------|
|-------------------------|-------------------------|


  Gtr IV
   Q     Q     H             Q     Q     H
|-------------------------|------------------------|
|-16----13----------------|-16----13---------------|
|-------------------------|------------------------|
|-------------------------|------------------------|
|-------------------------|------------------------|
|-------------------------|------------------------|
|
|  Q     H           Q       H           Q     Q
|-------------------------|------------------------|
|-------------------------|------------------------|
|-------------------------|------------------------|
|-------------------------|------------------------|
|--3-----6-----------3----|--------------3-----6---|
|-------------------------|--5---------------------|
|
|  E  E  E  E  E  E  E  E    E  E  E  E  E  E  E E
|-11----------11----------|-11----------11---------|
|----13----13----13----13-|----13----13----13------|
|-------13----------13----|-------13----------13---|
|-------------------------|------------------------|
|-------------------------|------------------------|
|-------------------------|------------------------|


   Q     Q   H           Q    Q   H
|---------------------|--------------------|
|-16----14------------|-16---14------------|
|---------------------|--------------------|
|---------------------|--------------------|
|---------------------|--------------------|
|---------------------|--------------------|
|
|  H.             Q      H        H
|---------------------|--------------------|
|---------------------|--------------------|
|---------------------|--------------------|
|-----------------3---|--5--------6--------|
|--4------------------|--------------------|
|---------------------|--------------------|
|
|  E  E  E E E E  E E    E E  E E E E  E E
|--9---------9--------|--9--------9--------|
|-----9----9---9----9-|----9----9---9----9-|
|-------10-------10---|------10-------10---|
|---------------------|--------------------|
|---------------------|--------------------|
|---------------------|--------------------|


   Q      Q     H             Q     Q     H
|--------------------------|-------------------------|
|-18-----15----------------|-18----15----------------|
|--------------------------|-------------------------|
|--------------------------|-------------------------|
|--------------------------|-------------------------|
|--------------------------|-------------------------|
|
|  H.                 Q       H           H
|--------------------------|-------------------------|
|--------------------------|-------------------------|
|--------------------------|-------------------------|
|--3------------------3----|--5-----------3----------|
|--------------------------|-------------------------|
|--------------------------|-------------------------|
|
|  E   E  E  E  E  E  E  E    E  E  E  E  E  E  E  E
|-13-----------13----------|-13----------13----------|
|-----14----14----14----14-|----14----14----14----14-|
|--------13----------13----|-------13----------13----|
|--------------------------|-------------------------|
|--------------------------|-------------------------|
|--------------------------|-------------------------|


   Q      Q     H             W
|--------------------------|-------------------------|
|-17-----13----------------|-------------------------|
|--------------------------|-------------------------|
|--------------------------|-------------------------|
|--------------------------|-------------------------|
|--------------------------|-------------------------|
|
|  H.                 Q       Q     Q     Q     Q
|--------------------------|-------------------------|
|--------------------------|-------------------------|
|--------------------------|-------------------------|
|--------------------------|-------------------------|
|--7------------------3----|--4-----3-----1----------|
|--------------------------|--------------------5----|
|
|  E   E  E  E  E  E  E  E    E  E  E  E  E  E  E  E
|-12-----------12----------|-12----------12----------|
|-----13----13----13----13-|----13----13----13----13-|
|--------12----------12----|-------12----------12----|
|--------------------------|-------------------------|
|--------------------------|-------------------------|
|--------------------------|-------------------------|


  F5
   H           H             H            H
|-------------------------|--------------------------|
|-------------21----------|-20-----------18----------|
|-------------------------|--------------------------|
|-------------------------|--------------------------|
|-------------------------|--------------------------|
|-------------------------|--------------------------|
|
|  W                        +W
|-------------------------|--------------------------|
|-------------------------|--------------------------|
|-------------------------|--------------------------|
|--3----------------------|-(3)----------------------|
|--3----------------------|-(3)----------------------|
|--3----------------------|-(3)----------------------|
|
|  E  E  E  E  E  E  E  E    E   E  E  E  E  E  E  E
|-13----------13----------|-13-----------13----------|
|----13----13----13----13-|-----13----13----13----13-|
|-------13----------13----|--------13----------13----|
|-------------------------|--------------------------|
|-------------------------|--------------------------|
|-------------------------|--------------------------|


  G#5
   H           H             H            H
|-------------------------|--------------------------|
|-------------21----------|-20-----------18----------|
|-------------------------|--------------------------|
|-------------------------|--------------------------|
|-------------------------|--------------------------|
|-------------------------|--------------------------|
|
|  W                        +W
|-------------------------|--------------------------|
|-------------------------|--------------------------|
|-------------------------|--------------------------|
|--6----------------------|-(6)----------------------|
|--6----------------------|-(6)----------------------|
|--6----------------------|-(6)----------------------|
|
|  E  E  E  E  E  E  E  E    E   E  E  E  E  E  E  E
|-16----------16----------|-16-----------16----------|
|----16----16----16----16-|-----16----16----16----16-|
|-------17----------17----|--------17----------17----|
|-------------------------|--------------------------|
|-------------------------|--------------------------|
|-------------------------|--------------------------|


  N.C.
   W                  W
|------------------|---------------------|
|-20---------------|---------------------|
|------------------|---------------------|
|------------------|---------------------|
|------------------|---------------------|
|------------------|---------------------|
|
|  W                  H         H
|------------------|---------------------|
|------------------|---------------------|
|------------------|---------------------|
|--2---------------|-(2)-------(2)-------|
|------------------|---------------------|
|--2---------------|--3---------5--------|
|
|  E E E E E E E E    E  E E E  E  E E E
|--8-------8-------|--8---------8--------|
|----8---8---8---8-|-----8---8-----8---8-|
|------9-------9---|-------9---------9---|
|------------------|---------------------|
|------------------|---------------------|
|------------------|---------------------|


  F5
   H           H             H            H
|-------------------------|--------------------------|
|-------------21----------|-20-----------18----------|
|-------------------------|--------------------------|
|-------------------------|--------------------------|
|-------------------------|--------------------------|
|-------------------------|--------------------------|
|
|  W                        +W
|-------------------------|--------------------------|
|-------------------------|--------------------------|
|-------------------------|--------------------------|
|--3----------------------|-(3)----------------------|
|--3----------------------|-(3)----------------------|
|--3----------------------|-(3)----------------------|
|
|  E  E  E  E  E  E  E  E    E   E  E  E  E  E  E  E
|-13----------13----------|-13-----------13----------|
|----13----13----13----13-|-----13----13----13----13-|
|-------13----------13----|--------13----------13----|
|-------------------------|--------------------------|
|-------------------------|--------------------------|
|-------------------------|--------------------------|


  D5
   H           H             H            H
|-------------------------|--------------------------|
|-------------21----------|-20-----------18----------|
|-------------------------|--------------------------|
|-------------------------|--------------------------|
|-------------------------|--------------------------|
|-------------------------|--------------------------|
|
|  W                        +W
|-------------------------|--------------------------|
|-------------------------|--------------------------|
|-------------------------|--------------------------|
|--0----------------------|-(0)----------------------|
|--0----------------------|-(0)----------------------|
|--0----------------------|-(0)----------------------|
|
|  E  E  E  E  E  E  E  E    E   E  E  E  E  E  E  E
|-10----------10----------|-10-----------10----------|
|----10----10----10----10-|-----10----10----10----10-|
|-------11----------11----|--------11----------11----|
|-------------------------|--------------------------|
|-------------------------|--------------------------|
|-------------------------|--------------------------|


  C/E
   W                         +H            H
|-15----------------------|-(15)----------15----------|
|-17----------------------|-(17)----------17----------|
|-------------------------|---------------------------|
|-------------------------|---------------------------|
|-------------------------|---------------------------|
|-------------------------|---------------------------|
|
|  W                         +W
|-------------------------|---------------------------|
|-------------------------|---------------------------|
|-------------------------|---------------------------|
|--2----------------------|--(2)----------------------|
|--3----------------------|--(3)----------------------|
|--2----------------------|--(2)----------------------|
|
|  E  E  E  E  E  E  E  E     E   E  E  E  E  E  E  E
|-12----------12----------|--12-----------12----------|
|----13----13----13----13-|------13----13----13----13-|
|-------12----------12----|---------12----------12----|
|-------------------------|---------------------------|
|-------------------------|---------------------------|
|-------------------------|---------------------------|


  C#m/E
   W                         +W
|-15----------------------|-(15)----------------------|
|-17----------------------|-(17)----------------------|
|-------------------------|---------------------------|
|-------------------------|---------------------------|
|-------------------------|---------------------------|
|-------------------------|---------------------------|
|
|  W                         +W
|-------------------------|---------------------------|
|-------------------------|---------------------------|
|--6----------------------|--(6)----------------------|
|--2----------------------|--(2)----------------------|
|--4----------------------|--(4)----------------------|
|--2----------------------|--(2)----------------------|
|
|  E  E  E  E  E  E  E  E     E   E  E  E  E  E  E  E
|-13----------13----------|--13-----------13----------|
|----14----14----14----14-|------14----14----14----14-|
|-------13----------13----|---------13----------13----|
|-------------------------|---------------------------|
|-------------------------|---------------------------|
|-------------------------|---------------------------|


 Breakdown
  Q=125
  N.C.
  Gtr I
                                                       |-3-|
   H.      E E     Q   Q  Q  Q     H     Q  Q      Q   E E E Q  Q
|--------------|----------------|--------------|-------------------|
|--------------|----------------|--------6-----|-------------------|
|--------------|----------------|-----------7--|---5-----5---------|
|--3-------5-7-|---5---3--5-----|--0-----------|-------7---7-3--0--|
|--------------|-------------4--|--------------|-------------------|
|--------------|----------------|--------------|-------------------|
|
| Gtr II
|                                                      |-3-|
|  H.      E E     Q   Q  Q  Q     H     Q  Q      Q   E E E Q  Q
|--------------|----------------|--------------|-------------------|
|--------------|----------------|--------------|-------------------|
|--------------|----------------|-------/7-----|-------------------|
|--------------|----------------|-----------8--|---7-----7---------|
|--5-------7-8-|---7---5--7--0--|--1-----------|-------8---8-5--1--|
|--------------|----------------|--------------|-------------------|
|
| Gtrs III, IV
|  W              +W               W              +W
|-17-----------|-(17)-----------|-18-----------|-(18)--------------|
|--------------|----------------|--------------|-------------------|
|--------------|----------------|--------------|-------------------|
|--0-----------|--(0)-----------|--------------|-------------------|
|--0-----------|--(0)-----------|--------------|-------------------|
|--0-----------|--(0)-----------|--------------|-------------------|
   W


   Q  Q  Q  Q     Q   Q  Q   Q     E E  E E  E E  E E    E E  E E  E E  E E
|--------------|----------------|---------------------|---------------------|
|--------------|------5--6---8--|--6----------------6-|--5------------------|
|-----------3--|--6-------------|----7---------3--7---|----5-------7----5---|
|-----2--5-----|----------------|-------7-3--5--------|-------7-3----3----3-|
|--4-----------|----------------|---------------------|---------------------|
|--------------|----------------|---------------------|---------------------|
|
|  Q  Q  Q  Q     Q   Q  Q   Q     E E  E E  E E  E E    E E  E E  E E  E E
|--------------|----------------|---------------------|---------------------|
|--------------|----------------|---------------------|---------------------|
|--------------|------6--7---9--|--7----------------7-|--5------------------|
|-----------5--|--7-------------|----7---------5--8---|----7-------8----7---|
|--0--4--7-----|----------------|-------8-5--7--------|-------8-5----5----5-|
|--------------|----------------|---------------------|---------------------|
|
|  W              H.         Q     Q    Q    Q    Q      Q    Q    Q    Q
|-17-----------|-17-------------|---------------------|-----------18---17---|
|--------------|------------20--|-22--------20--------|------17-------------|
|--------------|----------------|------19--------17---|-14------------------|
|--------------|----------------|---------------------|---------------------|
|--------------|----------------|---------------------|---------------------|
|--------------|----------------|---------------------|---------------------|


                                                       |-3-|
   H.      E E     Q   Q  Q  Q     H     Q  Q      Q   E E E Q  Q
|--------------|----------------|--------------|-------------------|
|--------------|----------------|--------6-----|-------------------|
|--------------|----------------|-----------7--|---5-----5---------|
|--3-------5-7-|---5---3--5-----|--0-----------|-------7---7-3--0--|
|--------------|-------------4--|--------------|-------------------|
|--------------|----------------|--------------|-------------------|
|
|                                                      |-3-|
|  H.      E E     Q   Q  Q  Q     H     Q  Q      Q   E E E Q  Q
|--------------|----------------|--------------|-------------------|
|--------------|----------------|--------------|-------------------|
|--------------|----------------|-------/7-----|-------------------|
|--------------|----------------|-----------8--|---7-----7---------|
|--5-------7-8-|---7---5--7--0--|--1-----------|-------8---8-5--1--|
|--------------|----------------|--------------|-------------------|
|
|  W              +W               W              +W
|-17-----------|-(17)-----------|-18-----------|-(18)--------------|
|--------------|----------------|--------------|-------------------|
|--------------|----------------|--------------|-------------------|
|--0-----------|--(0)-----------|--------------|-------------------|
|--0-----------|--(0)-----------|--------------|-------------------|
|--0-----------|--(0)-----------|--------------|-------------------|
   W


   Q  Q  Q  Q     Q   Q  Q   Q     E E  E E  E E  E E    E E  E E  E E  E E
|--------------|----------------|---------------------|---------------------|
|--------------|------5--6---8--|--6----------------6-|--5------------------|
|-----------3--|--6-------------|----7---------3--7---|----5-------7----5---|
|-----2--5-----|----------------|-------7-3--5--------|-------7-3----3----3-|
|--4-----------|----------------|---------------------|---------------------|
|--------------|----------------|---------------------|---------------------|
|
|  Q  Q  Q  Q     Q   Q  Q   Q     E E  E E  E E  E E    E E  E E  E E  E E
|--------------|----------------|---------------------|---------------------|
|--------------|----------------|---------------------|---------------------|
|--------------|------6--7---9--|--7----------------7-|--5------------------|
|-----------5--|--7-------------|----7---------5--8---|----7-------8----7---|
|--0--4--7-----|----------------|-------8-5--7--------|-------8-5----5----5-|
|--------------|----------------|---------------------|---------------------|
|
|  W              H.         Q     Q    Q    Q    Q      Q    Q    Q    Q
|-17-----------|-17-------------|---------------------|-----------18---17---|
|--------------|------------20--|-22--------20--------|------17-------------|
|--------------|----------------|------19--------17---|-14------------------|
|--------------|----------------|---------------------|---------------------|
|--------------|----------------|---------------------|---------------------|
|--------------|----------------|---------------------|---------------------|


  G5                            D5
  Gtr V
  H     H        H       H       Q   H     E  E    Q    Q   Q   Q
|-6----10----|--15------18----|-10--10----12-13-|-12---10--12--13--|
|------------|----------------|-----------------|------------------|
|------------|----------------|-----------------|------------------|
|------------|----------------|-----------------|------------------|
|------------|----------------|-----------------|------------------|
|------------|----------------|-----------------|------------------|
|
| Gtr I
| H     H        H       H       W                 W
|------------|----------------|-----------------|------------------|
|------------|----------------|-----------------|------------------|
|-3----/7----|-/12-----/15----|-----------------|------------------|
|------------|----------------|-----------------|------------------|
|-1----/5----|-/10-----/13----|-----------------|------------------|
|------------|----------------|-----------------|------------------|
|
| Gtrs II, III
| W             +W               W                +W
|------------|----------------|-----------------|------------------|
|------------|----------------|-----------------|------------------|
|------------|----------------|-----------------|------------------|
|-5----------|--(5)-----------|--0--------------|-(0)--------------|
|-5----------|--(5)-----------|--0--------------|-(0)--------------|
|-5----------|--(5)-----------|--0--------------|-(0)--------------|


  E5                                D5                E5
   H.       Q     Q    Q   Q   Q     Q   Q   Q   Q     Q   Q   Q   Q
|-12-------13--|-15---13--12--13--|-13--10--17--13--|-12--15--15--18--|
|--------------|------------------|-----------------|-----------------|
|--------------|------------------|-----------------|-----------------|
|--------------|------------------|-----------------|-----------------|
|--------------|------------------|-----------------|-----------------|
|--------------|------------------|-----------------|-----------------|
|
|  W              W                  W                 W
|--------------|------------------|-----------------|-----------------|
|--------------|------------------|-----------------|-----------------|
|--------------|------------------|-----------------|-----------------|
|--------------|------------------|-----------------|-----------------|
|--------------|------------------|-----------------|-----------------|
|--------------|------------------|-----------------|-----------------|
|
|  W             +W                  W                 W
|--------------|------------------|-----------------|-----------------|
|--------------|------------------|-----------------|-----------------|
|--------------|------------------|-----------------|-----------------|
|--2-----------|-(2)--------------|--0--------------|--2--------------|
|--2-----------|-(2)--------------|--0--------------|--2--------------|
|--2-----------|-(2)--------------|--0--------------|--2--------------|


  F5                A5
   Q   Q   Q   Q    E  E  E  E  E  E  E  E
|-18--17--15--13--|-9-12-12-15-15-18-18-21-|
|-----------------|------------------------|
|-----------------|------------------------|
|-----------------|------------------------|
|-----------------|------------------------|
|-----------------|------------------------|
|
|  W                W
|-----------------|------------------------|
|-----------------|------------------------|
|-----------------|------------------------|
|-----------------|------------------------|
|-----------------|------------------------|
|-----------------|------------------------|
|
|  W                W
|-----------------|------------------------|
|-----------------|------------------------|
|-----------------|------------------------|
|--3--------------|-7----------------------|
|--3--------------|-7----------------------|
|--3--------------|-7----------------------|


  N.C.
  Gtr I
                                                       |-3-|
   H.      E E     Q   Q  Q  Q     H     Q  Q      Q   E E E Q  Q
|--------------|----------------|--------------|-------------------|
|--------------|----------------|--------6-----|-------------------|
|--------------|----------------|-----------7--|---5-----5---------|
|--3-------5-7-|---5---3--5-----|--0-----------|-------7---7-3--0--|
|--------------|-------------4--|--------------|-------------------|
|--------------|----------------|--------------|-------------------|
|
| Gtr II
|                                                      |-3-|
|  H.      E E     Q   Q  Q  Q     H     Q  Q      Q   E E E Q  Q
|--------------|----------------|--------------|-------------------|
|--------------|----------------|--------------|-------------------|
|--------------|----------------|-------/7-----|-------------------|
|--------------|----------------|-----------8--|---7-----7---------|
|--5-------7-8-|---7---5--7--0--|--1-----------|-------8---8-5--1--|
|--------------|----------------|--------------|-------------------|
|
| Gtrs III, IV
|  W              +W               W              +W
|-17-----------|-(17)-----------|-18-----------|-(18)--------------|
|--------------|----------------|--------------|-------------------|
|--------------|----------------|--------------|-------------------|
|--0-----------|--(0)-----------|--------------|-------------------|
|--0-----------|--(0)-----------|--------------|-------------------|
|--0-----------|--(0)-----------|--------------|-------------------|
   W


   Q  Q  Q  Q     Q   Q  Q   Q     E E  E E  E E  E E    E E  E E  E E  E E
|--------------|----------------|---------------------|---------------------|
|--------------|------5--6---8--|--6----------------6-|--5------------------|
|-----------3--|--6-------------|----7---------3--7---|----5-------7----5---|
|-----2--5-----|----------------|-------7-3--5--------|-------7-3----3----3-|
|--4-----------|----------------|---------------------|---------------------|
|--------------|----------------|---------------------|---------------------|
|
|  Q  Q  Q  Q     Q   Q  Q   Q     E E  E E  E E  E E    E E  E E  E E  E E
|--------------|----------------|---------------------|---------------------|
|--------------|----------------|---------------------|---------------------|
|--------------|------6--7---9--|--7----------------7-|--5------------------|
|-----------5--|--7-------------|----7---------5--8---|----7-------8----7---|
|--0--4--7-----|----------------|-------8-5--7--------|-------8-5----5----5-|
|--------------|----------------|---------------------|---------------------|
|
|  W              H.         Q     Q    Q    Q    Q      Q    Q    Q    Q
|-17-----------|-17-------------|---------------------|-----------18---17---|
|--------------|------------20--|-22--------20--------|------17-------------|
|--------------|----------------|------19--------17---|-14------------------|
|--------------|----------------|---------------------|---------------------|
|--------------|----------------|---------------------|---------------------|
|--------------|----------------|---------------------|---------------------|


 Reprise
  Q=118
  Gtr I
  S  S S  S S  S S  S  S  S S  S S  S S  S
|------------------------------------------|
|-9-10-9----9---------10----9----9---------|
|--------10---10-9-10----10---10---10-9-10-|
|------------------------------------------|
|------------------------------------------|
|------------------------------------------|
|
| Gtr II
| W
|------------------------------------------|
|------------------------------------------|
|------------------------------------------|
|------------------------------------------|
|------------------------------------------|
|------------------------------------------|
|
| Gtr III
| W
|------------------------------------------|
|------------------------------------------|
|------------------------------------------|
|------------------------------------------|
|------------------------------------------|
|------------------------------------------|


                                 |-3--| |--3--|
  S  S S  S S  S S  S  S  S S  S S S  S S  S  S
|---------------------------------------9-12-15-|
|-9-10-9----9---------10----9------8-11---------|
|--------10---10-9-10----10---10-9--------------|
|-----------------------------------------------|
|-----------------------------------------------|
|-----------------------------------------------|
|
|                                |-3--| |--3--|
| S  S S  S S  S S  S  S  S S  S S S  S S  S  S
|---------------------------------------6--9-12-|
|-5--6-5----5----------6----5------5--8---------|
|---------7----7-6--7-----7----7-6--------------|
|-----------------------------------------------|
|-----------------------------------------------|
|-----------------------------------------------|
|
| W
|-----------------------------------------------|
|-----------------------------------------------|
|-----------------------------------------------|
|-----------------------------------------------|
|-----------------------------------------------|
|-----------------------------------------------|


  D5
                ~~~~                               ~~~~
    E.      S  +H.                     E.      S  +H.
|----------------------------------|---------------------------------|
|-/10-------6--(6)-----------------|-/22------18-(18)----------------|
|----------------------------------|---------------------------------|
|----------------------------------|---------------------------------|
|----------------------------------|---------------------------------|
|----------------------------------|---------------------------------|
|
|           ~~~~~~~        ~~~~~~~             ~~~~~~~        ~~~~~~
|   E.      S  +E      E  +Q    Q      E.      S  +E      E  +Q   Q
|---------------------13-(13)--10--|---------------------10-(10)--9--|
|-/18------15-(15)-----------------|-/18------15-(15)----------------|
|----------------------------------|---------------------------------|
|----------------------------------|---------------------------------|
|----------------------------------|---------------------------------|
|----------------------------------|---------------------------------|
|
|   PM--------|                        PM--------|
|   S  S S  S   S  E.      H           S  S S  S   S  E.      H
|----------------------------------|---------------------------------|
|----------------------------------|---------------------------------|
|----------------------------------|---------------------------------|
|---0--0-0--0---0------------------|---0--0-0--0---0-----------------|
|---0--0-0--0---0------------------|---0--0-0--0---0-----------------|
|---0--0-0--0---0------------------|---0--0-0--0---0-----------------|


                ~~~~                               ~~~~
    E.      S  +H.                     E.      S  +H.
|----------------------------------|-----------------------------------------|
|-/10-------6--(6)-----------------|-/22------18-(18)------------------------|
|----------------------------------|-----------------------------------------|
|----------------------------------|-----------------------------------------|
|----------------------------------|-----------------------------------------|
|----------------------------------|-----------------------------------------|
|
|           ~~~~~~~        ~~~~~~~             ~~~~~~~        ~~~~~~~~~
|   E.      S  +E      E  +Q    Q      E.      S  +E      E  +Q      Q
|---------------------13-(13)--10--|---------------------10-(10)-----9-------|
|-/18------15-(15)-----------------|-/18------15-(15)------------------------|
|----------------------------------|-----------------------------------------|
|----------------------------------|-----------------------------------------|
|----------------------------------|-----------------------------------------|
|----------------------------------|-----------------------------------------|
|
|   PM--------|                        PM--------|
|   S  S S  S   S  E.      H           S  S S  S   S  E.      E  S S S S S S
|----------------------------------|-----------------------------------------|
|----------------------------------|-----------------------------------------|
|----------------------------------|-----------------------------------------|
|---0--0-0--0---0------------------|---0--0-0--0---0-------------0-0-0-0-0-0-|
|---0--0-0--0---0------------------|---0--0-0--0---0-------------0-0-0-0-0-0-|
|---0--0-0--0---0------------------|---0--0-0--0---0-------------0-0-0-0-0-0-|


          N.C.D5  N.C.D5N.C.D5N.C.  D5      N.C.D5  N.C.D5N.C.D5N.C.
  W                                 W
|---------------------------------|---------------------------------|
|---------------------------------|---------------------------------|
|---------------------------------|---------------------------------|
|---------------------------------|---------------------------------|
|---------------------------------|---------------------------------|
|---------------------------------|---------------------------------|
|
| W                                 W
|---------------------------------|---------------------------------|
|---------------------------------|---------------------------------|
|---------------------------------|---------------------------------|
|---------------------------------|---------------------------------|
|---------------------------------|---------------------------------|
|---------------------------------|---------------------------------|
|
| PM----|     PM|     PM    PM      PM----|     PM|     PM    PM
| S S S S S S S S S S S S S S S S   S S S S S S S S S S S S S S S S
|---------------------------------|---------------------------------|
|---------------------------------|---------------------------------|
|---------------------------------|---------------------------------|
|---------------------------------|-----------------3-5---5-7---5-7-|
|-0-0-0-0-6-5-0-0-3-5-0-1-3-0-1-3-|-0-0-0-0-6-5-0-0-----0-----0-----|
|-0-0-0-0-----0-0-----0-----0-----|-0-0-0-0-----0-0-----0-----0-----|


  D5      N.C.D5  N.C.D5N.C.D5N.C.
  W                                 W
|---------------------------------|-------------------------|
|---------------------------------|-------------------------|
|---------------------------------|-------------------------|
|---------------------------------|-------------------------|
|---------------------------------|-------------------------|
|---------------------------------|-------------------------|
|
| W                                 S S  E S  S  E E E E  E
|---------------------------------|-------------------------|
|---------------------------------|--------8-10-11----------|
|---------------------------------|-7-9-10---------2-6-9-12-|
|---------------------------------|-------------------------|
|---------------------------------|-------------------------|
|---------------------------------|-------------------------|
|
| PM----|     PM|     PM    PM
| S S S S S S S S S S S S S S S S   S S  E S  S  E E E E  E
|---------------------------------|-------------------------|
|---------------------------------|-------------------------|
|---------------------------------|-------------------------|
|---------------------------------|--------5--7--8----------|
|-0-0-0-0-6-5-0-0-3-5-0-1-3-0-1-3-|-5-7--8---------0-4-7-10-|
|-0-0-0-0-----0-0-----0-----0-----|-------------------------|


  D5                Bb5                    A5    G5
    Q   E  Q    Q    E    +E   E  E  +Q     E  E  E
|----------------------|------------------------------|
|-/18--17--------------|-------------------------20---|
|---------19-----------|------------------------------|
|--------------19---20-|-(20)-19-17-(17)---20-17------|
|----------------------|------------------------------|
|----------------------|------------------------------|
|
|   Q   E  Q    Q    E    +E   E  E  +Q     E  E  E
|----------------------|------------------------------|
|-/10---8--------------|-------------------------13---|
|---------10-----------|------------------------------|
|--------------10---12-|-(12)-10--8--(8)---10--8------|
|----------------------|------------------------------|
|----------------------|------------------------------|
|
|       PM|     PM             PM|
|   Q   E  E E  E E  E    +E   E  E   E  E  Q     E
|----------------------|------------------------------|
|----------------------|------------------------------|
|---7--------7----7--3-|--(3)------------3--2---------|
|---7---5--5-7--5-7--3-|--(3)--3--3---3--3--2-----5---|
|---5---5--5-5--5-5--1-|--(1)--1--1---1--1--0-----5---|
|----------------------|--------------------------5---|


                        F5                     C/E       D5
   E   E  E  E  E  E  E  E    +E   +E      +E   Q   E  E  S  S
|-----------------------17-|-(17)-(17)b18r(17)-----------------|
|-20--------18-18----------|-------------------14--15-17-17-18-|
|-----19-19-------17-17----|-----------------------------------|
|--------------------------|-----------------------------------|
|--------------------------|-----------------------------------|
|--------------------------|-----------------------------------|
|
|  E   E  E  E  E  E  E  E    +E   +E      +E   Q   E  E  S  S
|-----------------------13-|-(13)-(13)b14r(13)-----------------|
|-13--------11-11----------|--------------------5---6--8--8-10-|
|-----12-12-------10-10----|-----------------------------------|
|--------------------------|-----------------------------------|
|--------------------------|-----------------------------------|
|--------------------------|-----------------------------------|
|
|         PM|      PM                       PM
| +E   E  E  E  E  E  E  E    +E    E       E   Q   E  E  E
|--------------------------|-----------------------------------|
|--------------------------|-----------------------------------|
|--------------------------|-----------------------------------|
|-(5)--------5--------5--3-|--(3)---------------2---2--2--0----|
|-(5)--5--5--5--5--5--5--3-|--(3)---3-------3---3---3--3--0----|
|-(5)--5--5--5--5--5--5--3-|--(3)---3-------3---2---2--2--0----|


                 Bb5                       A5    G5
   Q   E  Q    E  E  E    +E   E  E  +Q     E  E  E
|----------------------|----------------------------|
|-17-------------------|-------------------------20-|
|-----19---------------|----------------------------|
|--------19------19-20-|-(20)-19-17-(17)---20-17----|
|-------------17-------|----------------------------|
|----------------------|----------------------------|
|
|  Q   E  Q    E  E  E    +E   E  E  +Q     E  E  E
|----------------------|----------------------------|
|--8-------------------|-------------------------13-|
|-----10---------------|----------------------------|
|--------10------10-12-|-(12)-10--8--(8)---10--8----|
|--------------8-------|----------------------------|
|----------------------|----------------------------|
|
|      PM|     PM              PM|
|  Q   E  E E  E  Q       +E   E  E   E  E  Q     E
|----------------------|----------------------------|
|----------------------|----------------------------|
|--7--------7-----3----|--(3)------------3--2-------|
|--7---7--7-7--7--3----|--(3)--3--3---3--3--2-----5-|
|--5---5--5-5--5--1----|--(1)--1--1---1--1--0-----5-|
|----------------------|--------------------------5-|


                        F5                     C/E       D5
   E   E  E  E  E  E  E  E    +E   +E      +E   Q   E  E  E
|-----------------------17-|-(17)-(17)b18r(17)--------------|
|-20--------18-18----------|-------------------14--15-17-14-|
|-----19-19-------17-17----|--------------------------------|
|--------------------------|--------------------------------|
|--------------------------|--------------------------------|
|--------------------------|--------------------------------|
|
|  E   E  E  E  E  E  E  E    +E   +E      +E   Q   E  E  E
|-----------------------13-|-(13)-(13)b14r(13)--------------|
|-13--------11-11----------|--------------------5---6--8--5-|
|-----12-12-------10-10----|--------------------------------|
|--------------------------|--------------------------------|
|--------------------------|--------------------------------|
|--------------------------|--------------------------------|
|
|         PM|      PM                       PM
| +E   E  E  E  E  E  E  E    +E    E       E   Q   E  E  E
|--------------------------|--------------------------------|
|--------------------------|--------------------------------|
|--------------------------|--------------------------------|
|-(5)--------5--------5--3-|--(3)---------------2---2--2--0-|
|-(5)--5--5--5--5--5--5--3-|--(3)---3-------3---3---3--3--0-|
|-(5)--5--5--5--5--5--5--3-|--(3)---3-------3---2---2--2--0-|


                Bb5             A5 G5
   W                 W
|-----------------|------------------|
|-15--------------|------------------|
|-----------------|------------------|
|-----------------|------------------|
|-----------------|------------------|
|-----------------|------------------|
|
|  W                 W
|-----------------|------------------|
|--6--------------|------------------|
|-----------------|------------------|
|-----------------|------------------|
|-----------------|------------------|
|-----------------|------------------|
|
|     PM|   PM          PM|
|  Q  E E E E E E   +E  E E E E Q  E
|-----------------|------------------|
|-----------------|------------------|
|--7------7---7-3-|-(3)-------3-2----|
|--7--7-7-7-7-7-3-|-(3)-3-3-3-3-2--5-|
|--5--5-5-5-5-5-1-|-(1)-1-1-1-1-0--5-|
|-----------------|----------------5-|


                  F5             C/E         D5
   W                    W
|--------------------|--------------------------|
|--------------------|--------------------------|
|--------------------|--------------------------|
|--------------------|--------------------------|
|--------------------|--------------------------|
|--------------------|--------------------------|
|
|  H        Q   E  E    E   E  E  E  E  E  E  E
|--------------------|--------------------18-17-|
|--------------------|-----------15-14-17-------|
|--------------------|-----15-14----------------|
|-----------------12-|-11-----------------------|
|--------------------|--------------------------|
|--------------------|--------------------------|
|
|       PM|   PM               PM
| +E  E E E E E E  E   +E   E  E  Q     E  E  E
|--------------------|--------------------------|
|--------------------|--------------------------|
|--------------------|--------------------------|
|-(5)-----5-----5--3-|-(3)--------2-----2--2--0-|
|-(5)-5-5-5-5-5-5--3-|-(3)--3--3--3-----3--3--0-|
|-(5)-5-5-5-5-5-5--3-|-(3)--3--3--2-----2--2--0-|


                   Bb5                A5 G5
   Q    H.              Q      H.
|--------------------|---------------------|
|-10--/22------------|-15----/18-----------|
|--------------------|---------------------|
|--------------------|---------------------|
|--------------------|---------------------|
|--------------------|---------------------|
|
|  Q    H.              Q      H.
|--------------------|---------------------|
|--------------------|---------------------|
|-10--/21------------|-15----/19-----------|
|--------------------|---------------------|
|--------------------|---------------------|
|--------------------|---------------------|
|
|       PM-|   PM          PM|
|  Q    E  E E E E E   +E  E   E  E E Q  E
|--------------------|---------------------|
|--------------------|---------------------|
|--7---------7---7-3-|-(3)----------3-2----|
|--7----7--7-7-7-7-3-|-(3)-3---3--3-3-2--5-|
|--5----5--5-5-5-5-1-|-(1)-1---1--1-1-0--5-|
|--------------------|-------------------5-|


                        F5             C/E           D5
    Q     Q     Q     Q      E    E  E   E  E   E  Q
|-------------------------|-----/12-12-/15-15-/17-17---|
|-/20\---15---/20\---11---|-10-------------------------|
|-------------------------|----------------------------|
|-------------------------|----------------------------|
|-------------------------|----------------------------|
|-------------------------|----------------------------|
|
|   Q     Q     Q     Q      E    E  E   E  E   E  Q
|-------------------------|----------------------------|
|-------------------------|-----/13-13-/15-15-/18-18---|
|--19\---15----19\---10---|-10-------------------------|
|-------------------------|----------------------------|
|-------------------------|----------------------------|
|-------------------------|----------------------------|
|
|         PM|      PM                PM
|  +E  E  E E   E  E  E E   +E    E  E   Q      E  E E
|-------------------------|----------------------------|
|-------------------------|----------------------------|
|-------------------------|----------------------------|
|--(5)------5---------5-3-|-(3)----------2------2--2-0-|
|--(5)-5--5-5---5--5--5-3-|-(3)---3--3---3------3--3-0-|
|--(5)-5--5-5---5--5--5-3-|-(3)---3--3---2------2--2-0-|


                   Bb5                A5 G5
   Q    H.              Q      H.
|--------------------|---------------------|
|-10--/22------------|-15----/18-----------|
|--------------------|---------------------|
|--------------------|---------------------|
|--------------------|---------------------|
|--------------------|---------------------|
|
|  Q    H.              Q      H.
|--------------------|---------------------|
|--------------------|---------------------|
|-10--/21------------|-15----/19-----------|
|--------------------|---------------------|
|--------------------|---------------------|
|--------------------|---------------------|
|
|       PM-|   PM          PM|
|  Q    E  E E E E E   +E  E   E  E E Q  E
|--------------------|---------------------|
|--------------------|---------------------|
|--7---------7---7-3-|-(3)----------3-2----|
|--7----7--7-7-7-7-3-|-(3)-3---3--3-3-2--5-|
|--5----5--5-5-5-5-1-|-(1)-1---1--1-1-0--5-|
|--------------------|-------------------5-|


                        F5             C/E         D5
   E   E  E  E  E  E  E  E    E   E  E  E  E  E  E  E
|--------------------18----|-17-----------------------|
|-20--15-15----15-20----20-|-----18-15----17----18----|
|-----------15-------------|-----------15----15----15-|
|--------------------------|--------------------------|
|--------------------------|--------------------------|
|--------------------------|--------------------------|
|
|  E   E  E  E  E  E  E  E    E   E  E  E  E  E  E  E
|--------------------------|--------------------------|
|--------------------18----|-18-----------------------|
|-19--15-15----15-19----19-|-----17-15----18----19----|
|-----------15-------------|-----------15----15----15-|
|--------------------------|--------------------------|
|--------------------------|--------------------------|
|
|         PM|      PM                PM
| +E   E  E  E  E  E  E  E   +E   E  E  Q     E  E  E
|--------------------------|--------------------------|
|--------------------------|--------------------------|
|--------------------------|--------------------------|
|-(5)--------5--------5--3-|-(3)--------2-----2--2--0-|
|-(5)--5--5--5--5--5--5--3-|-(3)--3--3--3-----3--3--0-|
|-(5)--5--5--5--5--5--5--3-|-(3)--3--3--2-----2--2--0-|


                   Bb5                A5 G5
   Q    H.              Q      H.
|--------------------|---------------------|
|-10--/22------------|-15----/18-----------|
|--------------------|---------------------|
|--------------------|---------------------|
|--------------------|---------------------|
|--------------------|---------------------|
|
|  Q    H.              Q      H.
|--------------------|---------------------|
|--------------------|---------------------|
|-10--/21------------|-15----/19-----------|
|--------------------|---------------------|
|--------------------|---------------------|
|--------------------|---------------------|
|
|       PM-|   PM          PM|
|  Q    E  E E E E E   +E  E   E  E E Q  E
|--------------------|---------------------|
|--------------------|---------------------|
|--7---------7---7-3-|-(3)----------3-2----|
|--7----7--7-7-7-7-3-|-(3)-3---3--3-3-2--5-|
|--5----5--5-5-5-5-1-|-(1)-1---1--1-1-0--5-|
|--------------------|-------------------5-|


                        F5             C/E           D5
    Q     Q     Q     Q      E    E  E   E  E   E  Q
|-------------------------|-----/12-12-/15-15-/17-17---|
|-/20\---15---/20\---11---|-10-------------------------|
|-------------------------|----------------------------|
|-------------------------|----------------------------|
|-------------------------|----------------------------|
|-------------------------|----------------------------|
|
|   Q     Q     Q     Q      E    E  E   E  E   E  Q
|-------------------------|----------------------------|
|-------------------------|-----/13-13-/15-15-/18-18---|
|--19\---15----19\---10---|-10-------------------------|
|-------------------------|----------------------------|
|-------------------------|----------------------------|
|-------------------------|----------------------------|
|
|         PM|      PM                PM
|  +E  E  E E   E  E  E E   +E    E  E   Q      E  E E
|-------------------------|----------------------------|
|-------------------------|----------------------------|
|-------------------------|----------------------------|
|--(5)------5---------5-3-|-(3)----------2------2--2-0-|
|--(5)-5--5-5---5--5--5-3-|-(3)---3--3---3------3--3-0-|
|--(5)-5--5-5---5--5--5-3-|-(3)---3--3---2------2--2-0-|


  Eb5                     Bb5
  Gtr I
   S  S  S  S  S  S  S  S  S  S  S  S  S  S  S  S
|-15-------15-------------------------------------|
|----16-15----15-16-13-10-13-15-------------------|
|-------------------------------15-14-12-10-------|
|-------------------------------------------12-10-|
|-------------------------------------------------|
|-------------------------------------------------|
|
| Gtrs II, III
|  H                       H
|-------------------------------------------------|
|-------------------------------------------------|
|--------------------------3----------------------|
|--1-----------------------3----------------------|
|--1-----------------------1----------------------|
|--1----------------------------------------------|


  Eb5                     Bb5                       F5                      C5
   S  S  S  S  S  S  S  S  S  S  S  S  S  S  S  S    S  S  S  S  S  S  S  S   E  S  S  S  S  S  S
|-------------------------------------------------|-17----------------------/20-17-----------------|
|-------------------------------13----15----15S20-|----18-17-18-17-18-17-18--------18----18--------|
|-------------------12----12-15----12----12-------|-----------------------------------17----17-----|
|-------12----12-15----15-------------------------|--------------------------------------------14--|
|-12-15----15-------------------------------------|------------------------------------------------|
|-------------------------------------------------|------------------------------------------------|
|
|  H                       H                         H                        H
|-------------------------------------------------|------------------------------------------------|
|-------------------------------------------------|------------------------------------------------|
|--------------------------3----------------------|---------------------------5--------------------|
|--1-----------------------3----------------------|--3------------------------5--------------------|
|--1-----------------------1----------------------|--3------------------------3--------------------|
|--1----------------------------------------------|--3---------------------------------------------|


  F5                      C5             D5    N.C.
                                          ~~
   S  S  S  S  S  S  S  S  S  S  E  Q     H     E  E  E  E
|--------------------------------------|----------------------|
|-------------------------------10s20--|-15----15-------16b18-|
|--------------------------------------|----------14-15-------|
|-15-14----------14-15----17-----------|----------------------|
|-------15-12-13-------15----15--------|----------------------|
|--------------------------------------|----------------------|
|
|  H                       H              H     E  E  E  E
|--------------------------------------|----------------------|
|--------------------------------------|----------------------|
|--------------------------5-----------|----------------------|
|--3-----------------------5-----------|--0-------------------|
|--3-----------------------3-----------|--0-------------------|
|--3-----------------------------------|--0-----0--8--7--6----|


                                    D5
                                    PM------------|
   +Q     +Q     +Q      +Q         S S S S S S S S H
|---------------------------------|----------------------*|
|-(16)---(16)---(16)----(16)pb18r=|======================*|
|---------------------------------|----------------------*|
|---------------------------------|-0-0---0-0---0-0------*|
|---------------------------------|-0-0---0-0---0-0------*|
|---------------------------------|-0-0---0-0---0-0------*|
|
|                                   PM------------|
|  +E  E   E  Q       E   Q         S S S S S S S S H
|---------------------------------|----------------------*|
|---------------------------------|----------------------*|
|---------------------------------|----------------------*|
|--------------------/8---7-------|-0-0---0-0---0-0------*|
|-------------7-------------------|-0-0---0-0---0-0------*|
|--(6)-0---6----------------------|-0-0---0-0---0-0------*|
comments
print report bad tab
23 comments total. Showing first comments.
0 reply
kiefermatot wrote on December 31 2005, 02:46 pm

Great job.

0 reply
NoideaDrivethru wrote on February 12 2006, 08:38 pm

Great job. Excellent tab man.

0 reply
pHaKe wrote on February 17 2006, 03:04 pm

great tab

I want to post or [tab]
guest
You may want to rate the tab now too:
select rating
Please do not post tabs as comments. Select "correction" instead!