Oops, an error
Loading. Please wait.

Wicked End Tab

ver3
ver3

Solo

Whole song

More versions @911Tabs.com
5,730 views 15 this week
5 commentsread comments
1 2 3 4 5
accurate
x 14
Autoscroll
+/-
esc
set tempo
stop
Contributor
Tuning
D A D G B E
WARNING: You are trying to view
                                    content from Ultimate-Guitar.com
                                    in an unauthorized application,
                                    which is prohibited.

                                    Please use an official Ultimate
                                    Guitar Tabs application for iPhone,
                                    iPad or Android to access legitimate
                                    chords, guitar, bass, and drum tabs
                                    from Ultimate-Guitar.com database.

                                    Type "ultimate guitar tabs" in Apple
                                    App Store's or Android Market's
                                    search to find the application.
 THE WICKED END
As recorded by Avenged Sevenfold
(From the 2005 Album CITY OF EVIL)


Transcribed by Seth Shadows {f.u.c.kallyourfalsebeauty@hotmail.com}


Gtr I (D A D G B E) - 'Rhythm 1'
Gtr II (D A D G B E) - 'Rhythm 2'
Gtr III (D A D G B E) - 'Lead Left'
Gtr IV (D A D G B E) - 'Lead Right'
Gtr V (D A D G B E) - 'Lead Neutral'
Gtr VI (D A D G B E) - 'Clean'


 Intro
  Q=120
 4/4
  Gtr III        Pickslide
    Q   Q  Q  Q      Q    Q  Q  Q      Q    Q  Q  Q      Q    Q  Q  Q
|----------------|-----------------|-----------------|-------------------|
|----------------|-----------------|-----------------|-------------------|
|----------------|-----------------|-----------------|-------------------|
|----------------|-----------------|-----------------|-------------------|
|--/xs==xs=xs=xs=|===xs===xs=xs=xs=|===xs===xs=xs=xs=|===xs===xs=xs=x/---|
|--/xs==xs=xs=xs=|===xs===xs=xs=xs=|===xs===xs=xs=xs=|===xs===xs=xs=x/---|
|
| Gtr IV
|   ~~~~             Divebomb
|   W               +W                +W                +W
|----------------|-----------------|-----------------|-------------------|
|----------------|-----------------|-----------------|-------------------|
|----------------|-----------------|-----------------|-------------------|
|-h<3>-----------|-(<3>)-----------|-(<3>)-----------|-(<3>)-------------|
|----------------|-----------------|-----------------|-------------------|
|----------------|-----------------|-----------------|-------------------|


    D5
    Gtr III
     S  S  S  S  S  S  S  S  S  S  S  S  S  S  S  S
||--------------------------------------------------|
||o-------------------------------------------------|
||---9-10--9-----9----------10-----9-----9----------|
||-----------12----12-11-12----12----12----12-11-12-|
||o-------------------------------------------------|
||--------------------------------------------------|
|
|   Gtr IV
|    S  S  S  S  S  S  S  S  S  S  S  S  S  S  S  S
||--------------------------------------------------|
||o-------------------------------------------------|
||--13-14-13----13----------14----13----13----------|
||-----------15----15-14-15----15----15----15-14-15-|
||o-------------------------------------------------|
||--------------------------------------------------|
|
|   Gtrs I, II
|    PM----------------------------------------------
|    S  S  H                       S  E     S  E
||--------------------------------------------------|
||o-------------------------------------------------|
||--------------------------------------------------|
||--------------------------------------------------|
||o--0--0--------------------------0--0-----0--0----|
||---0--0--------------------------0--0-----0--0----|


   S  S  S  S  S  S  S  S  S  S  S  S  S  S  S  S
|---------------------------------------------------||
|--------------------------------------------------o||
|--9-10--9-----9----------10-----9-----9------------||
|----------12----12-11-12----12----12----12-11-12---||
|--------------------------------------------------o||
|---------------------------------------------------||
|
|  S  S  S  S  S  S  S  S  S  S  S  S  S  S  S  S
|---------------------------------------------------||
|--------------------------------------------------o||
|-13-14-13----13----------14----13----13------------||
|----------15----15-14-15----15----15----15-14-15---||
|--------------------------------------------------o||
|---------------------------------------------------||
|
|----------------------------------------------|
|  S  S  H                       S  S  S  S  S  S
|---------------------------------------------------||
|--------------------------------------------------o||
|---------------------------------------------------||
|---------------------------------------------------||
|--0--0--------------------------------------------o||
|--0--0--------------------------0--0--0--0--0--0---||


   Pre-Verse
    D5
                             ~~
     S  S  S  S  S  S   E E  E    +E     E
||--10----------------/13---12---(12)\-----|
||o----10----------------------------------|
||--------10p=9----------------------------|
||--------------12p11----------------------|
||o----------------------------------------|
||-----------------------------------------|
|
|                            ~~
|    S  S  S  S  S  S   E E  E    +E     E
||--13----------------/17---16---(16)\-----|
||o----15----------------------------------|
||--------14p13----------------------------|
||--------------15p14----------------------|
||o----------------------------------------|
||-----------------------------------------|
|
|    PM-------------------------------------
|    S  S  H                 S E       S E
||-----------------------------------------|
||o----------------------------------------|
||-----------------------------------------|
||-----------------------------------------|
||o--0--0--------------------0-0-------0-0-|
||---0--0--------------------0-0-------0-0-|


   S  S  S  S  S  S   Q   S  S  S  S  S  S
|-10----------------/13--12h13p12-------12--||
|----10------------------------------14----o||
|-------10p=9---------------------14--------||
|-------------12p11-------------------------||
|------------------------------------------o||
|-------------------------------------------||
|
|  S  S  S  S  S  S   Q   S  S  S  S  S  S
|-13----------------/17--16h17p16-------15--||
|----15------------------------------17----o||
|-------14p13---------------------18--------||
|-------------15p14-------------------------||
|------------------------------------------o||
|-------------------------------------------||
|
|---------------------------------------|
|  S  S  H                S  S  S  S  S  S
|-------------------------------------------||
|------------------------------------------o||
|-------------------------------------------||
|-------------------------------------------||
|--0--0------------------------------------o||
|--0--0-------------------0--0--0--0--0--0--||


 Verse
  N.C.
  Gtrs I, II
   PM------|     PM|     PM|       PM------------|     PM|      PM|       PM|
   S   S S S S S S S S S S S S S   S   S   S S S S S S S S S  S S S  S  S S S
|----------------------------------------|------------------------------------|
|----------------------------------------|------------------------------------|
|----------------------------------------|------------------------------------|
|----------------------------------------|------------------------------------|
|------------6p5-----3h5-----1h3---------|---------6p5-----8h10-----10h12-----|
|--0---0-0-0-----0-0-----0-0-------0---0-|-0-0-0-0-----0-0------0-0-------0-0-|
|
| Gtr III
|  H..                            +E       W
|-13-----------------------------(13)\---|------------------------------------|
|----------------------------------------|------------------------------------|
|----------------------------------------|------------------------------------|
|----------------------------------------|------------------------------------|
|----------------------------------------|------------------------------------|
|----------------------------------------|------------------------------------|
|
| Gtr IV
|  H..                            +E       W
|-10-----------------------------(10)\---|------------------------------------|
|----------------------------------------|------------------------------------|
|----------------------------------------|------------------------------------|
|----------------------------------------|------------------------------------|
|----------------------------------------|------------------------------------|
|----------------------------------------|------------------------------------|


  Gtr I
  PM----|     PM|     PM|     PM---
  S S S S S S S S S S S S S S S S
|---------------------------------|
|---------------------------------|
|---------------------------------|
|---------------------------------|
|---------6p5-----3h5-----1h3-----|
|-0-0-0-0-----0-0-----0-0-----0-0-|
|
| Gtr II
| PM----|     PM|     PM|     PM---
| S S S S S S S S S S S S S S S S
|---------------------------------|
|---------------------------------|
|---------------------------------|
|---------------------------------|
|---------6p5-----3h5-----1h3-----|
|-0-0-0-0-----0-0-----0-0-----0-0-|


 -------|     PM|       PM|
                             |-3--|
  S S S S S S S S  S  S S S  S  S S  S  +S
|---------------------------------------------||
|---------------------------------------------||
|---------------------------------------------||
|---------------------------------------------||
|---------6p5------8h10------8p=7-5h=7--(7)\--||
|-0-0-0-0-----0-0-------0-0-------------------||
|
|-------|     PM|       PM|
|                            |-3--|
| S S S S S S S S  S  S S S  S  S S  S  +S
|---------------------------------------------||
|---------------------------------------------||
|---------------------------------------------||
|---------------------------------------------||
|---------6p5-----12h13-----12p10-8h10-(10)\--||
|-0-0-0-0-----0-0-------0-0-------------------||


 Pre-Chorus
  Gtrs I, II
   PM-------|     PM|     PM|       PM-----
   S  S  S  S S S S S S S S S S S   S   S
|-----------------------------------------|
|-----------------------------------------|
|-----------------------------------------|
|-----------------------------------------|
|-------------6p5-----3h5-----1h3---------|
|--0--0--0--0-----0-0-----0-0-------0---0-|
|
| Gtr III
|  S  S  H.                        +E
|-----------------------------------------|
|-----------------------------------------|
|-----------------------------------------|
|-12p10h12------------------------(12)\---|
|-----------------------------------------|
|-----------------------------------------|
|
| Gtr IV
|  S  S  H.                        +E
|-----------------------------------------|
|-----------------------------------------|
|-10p=9h10------------------------(10)\---|
|-----------------------------------------|
|-----------------------------------------|
|-----------------------------------------|


 -----------|     PM|      PM|         PM--|
   S  S  S  S S S S S S  S S S  S  S   S   S
|--------------------------------------------|
|--------------------------------------------|
|--------------------------------------------|
|--------------------------------------------|
|-------------6p5-----8h10-----10h12---------|
|--0--0--0--0-----0-0------0-0---------0---0-|
|
|  S  S  H.                           +E
|--------------------------------------------|
|--------------------------------------------|
|-10p=9h10---------------------------(10)\---|
|--------------------------------------------|
|--------------------------------------------|
|--------------------------------------------|
|
|  S  S  H.                           +E
|--------------------------------------------|
|--------------------------------------------|
|-14p12h14---------------------------(14)\---|
|--------------------------------------------|
|--------------------------------------------|
|--------------------------------------------|


   PM-------|     PM|     PM|       PM-----
   S  S  S  S S S S S S S S S S S   S   S
|-----------------------------------------|
|-----------------------------------------|
|-----------------------------------------|
|-----------------------------------------|
|-------------6p5-----3h5-----1h3---------|
|--0--0--0--0-----0-0-----0-0-------0---0-|
|
|  S  S  H.                        +E
|-----------------------------------------|
|-----------------------------------------|
|-14p12h14------------------------(14)\---|
|-----------------------------------------|
|-----------------------------------------|
|-----------------------------------------|
|
|  S  S  H.                        +E
|-----------------------------------------|
|-15p13h15------------------------(15)\---|
|-----------------------------------------|
|-----------------------------------------|
|-----------------------------------------|
|-----------------------------------------|


 ------------|     PM|         PM|
                                   |-3-|
    S    S S S S S S S   S   S S S S S S   S   +S
|----------------------------------------------------|
|----------------------------------------------------|
|----------------------------------------------------|
|----------------------------------------------------|
|--------------6p5-------8h=10-----8p7-5h==7---(7)\--|
|---0----0-0-0-----0-0---------0-0-------------------|
|
|                        ~~~~
|   H                   +Q.               +E
|----------------------------------------------------|
|-/13b15---------------(13)--------------(13)\-------|
|----------------------------------------------------|
|----------------------------------------------------|
|----------------------------------------------------|
|----------------------------------------------------|
|
|                        ~~~~
|   H                   +Q.               +E
|----------------------------------------------------|
|-/17b18---------------(17)--------------(17)\-------|
|----------------------------------------------------|
|----------------------------------------------------|
|----------------------------------------------------|
|----------------------------------------------------|


   S     S  E   S   S  E   E      E   E  E
|------------------------------------------||
|------------------------------------------||
|------------------------------------------||
|---------------8h=10h12-------------------||
|--8h===10h12--------------4S=====7\-/7S10-||
|------------------------------------------||
|
|                          ~~~~~~~~
|  Q           +Q         +H
|------------------------------------------||
|-17b18-------(17)-------(17)pb18----------||
|------------------------------------------||
|------------------------------------------||
|------------------------------------------||
|------------------------------------------||
|
|                          ~~~~~~~~
|  Q           +Q         +H
|-15b17-------(15)-------(15)pb17----------||
|------------------------------------------||
|------------------------------------------||
|------------------------------------------||
|------------------------------------------||
|------------------------------------------||


 Chorus
      D5                    Bb5                     A5    G5
                 PM-|     PM                  PM--|     PM
       Q      E  E  E   E E  E    +E   E  E   E   E  E  E  E
|------------------------------|-----------------------------|
|------------------------------|-----------------------------|
|------7------7---------7------|-----------------------------|
|------7------7--7--7---7----8-|--(8)--8-------------7-----5-|
|------5------5--5--5---5----8-|--(8)--8--8---8---8--7--7--5-|
|-------------------------0--8-|--(8)--8--8---8---8--7--7--5-|
|
|   a  Q      E  E  E   E E  E    +E   E  E  +E   E  E  E  E
|-[15]15b17--15p13\------------|-----------------------------|
|------------------------------|--------------------------11-|
|---------------------/10---12-|-(12)-10--9--(9)\---12p=9----|
|------------------------------|-----------------------------|
|------------------------------|-----------------------------|
|------------------------------|-----------------------------|
|
|   a  Q      E  E  E   E E  E    +E   E  E  +E   E  E  E  E
|--12h13-----12----------------|--------------------------15-|
|---------------15\---/10---11-|-(11)-10---------------------|
|------------------------------|---------12-(12)\---15-12----|
|------------------------------|-----------------------------|
|------------------------------|-----------------------------|
|------------------------------|-----------------------------|


                          Dm/F                   C#m/E
             PM|      PM|
  +E   E  E  E  E  E  S S  E    +E   E      S  S   E +E   E  Q
|----------------------------|---------------------------------------------|
|----------------------------|---------------------------------------------|
|----------------------------|---------------------------------------------|
|-(5)--5-----------5--x-x--3-|--(3)--3------x--x---2-(2)--2--2-------------|
|-(5)--5--5--5--5--5--x-x--5-|--(5)--5------x--x---4-(4)--4--4-------------|
|-(5)--5--5--5--5--5--x-x--3-|--(3)--3------x--x---2-(2)--2--2-------------|
|
|  E   E  E  E  E  E  E    E    +E   E     +E      Q      E  E   a      E
|-------------------------13-|-(13)-13b15r(13)--------------15-(15)s===17--|
|-11--------15-15------------|-------------------/17-----18----------------|
|-----10-10-------14-14------|---------------------------------------------|
|----------------------------|---------------------------------------------|
|----------------------------|---------------------------------------------|
|----------------------------|---------------------------------------------|
|
|  E   E  E  E  E  E  E    E    +E   E     +E      Q      E  E   a   a  E
|-15--------13-13---------17-|-(17)-17b18r(17)--------------12-(12)s10s13--|
|-----15-15-------13-13------|--------------------14-----15----------------|
|----------------------------|---------------------------------------------|
|----------------------------|---------------------------------------------|
|----------------------------|---------------------------------------------|
|----------------------------|---------------------------------------------|


  D5                      Bb5                     A5       G5
          PM|           PM                  PM--|        PM
   Q   E  E   E     E   E  E    +E   E  E   E   E   E    E  E
|----------------------------|--------------------------------|
|----------------------------|--------------------------------|
|--7---7------------7--------|--------------------------------|
|--7---7--7---7-----7------8-|--(8)--8--------------7-------5-|
|--5---5--5---5-----5------8-|--(8)--8--8---8---8---7----7--5-|
|-----------------------0--8-|--(8)--8--8---8---8---7----7--5-|
|
|  Q   E  E  +E     E   E  E    +E   E  E  +E   E   S S  E  E
|-15-------------------------|---------------------10---------|
|-----18---------------------|------------------------8----11-|
|---------------------/10-12-|-(12)-10--9--(9)\----------9----|
|--------15-(15)s===8--------|--------------------------------|
|----------------------------|--------------------------------|
|----------------------------|--------------------------------|
|
|  Q   E  E  +E     E   E  E    +E   E  E  +E   E   E    E  E
|-12-------------------------|-----------------------------15-|
|-----15--------------/10-11-|-(11)-10------------------------|
|--------14-(14)\------------|---------12-(12)\---/15p==12----|
|-----------------/12--------|--------------------------------|
|----------------------------|--------------------------------|
|----------------------------|--------------------------------|


                          Dm/F                   C#m/E
             PM|      PM|
  +E   E  E  E  E  E  S S  E    +E   E      S  S   E +E   E  Q
|----------------------------|-------------------------------------|
|----------------------------|-------------------------------------|
|----------------------------|-------------------------------------|
|-(5)--5-----------5--x-x--3-|--(3)--3------x--x---2-(2)--2--2-----|
|-(5)--5--5--5--5--5--x-x--5-|--(5)--5------x--x---4-(4)--4--4-----|
|-(5)--5--5--5--5--5--x-x--3-|--(3)--3------x--x---2-(2)--2--2-----|
|
|  E   E  E  E  E  E  E    E    +E   E     +E      Q      E  E  E
|-------------------------13-|-(13)-13b15r(13)--------------15-----|
|-11--------15-15------------|-------------------/17-----18----17--|
|-----10-10-------14-14------|-------------------------------------|
|----------------------------|-------------------------------------|
|----------------------------|-------------------------------------|
|----------------------------|-------------------------------------|
|
|  E   E  E  E  E  E  E    E    +E   E     +E      Q      E  E  E
|-15--------13-13---------17-|-(17)-17b18r(17)--------------12-----|
|-----15-15-------13-13------|--------------------14-----15----14--|
|----------------------------|-------------------------------------|
|----------------------------|-------------------------------------|
|----------------------------|-------------------------------------|
|----------------------------|-------------------------------------|


  D5            Bb5                 A5  G5
        PM|   PM                PM|   PM
   Q  E E E E E E    +E   E   E E E E E E
|-----------------|-----------------------|
|-----------------|-----------------------|
|--7--7-----7-----|-----------------------|
|--7--7-7-7-7---8-|--(8)--8---------7---5-|
|--5--5-5-5-5---8-|--(8)--8---8-8-8-7-7-5-|
|-------------0-8-|--(8)--8---8-8-8-7-7-5-|
|
| Gtr IV
|  W                 +E   H..
|-----------------|-----------------------|
|-18--------------|-(18)\-----------------|
|-----------------|-----------------------|
|-----------------|-----------------------|
|-----------------|-----------------------|
|-----------------|-----------------------|
|
|  W                 +E   H..
|-----------------|-----------------------|
|-15--------------|-(15)\-----------------|
|-----------------|-----------------------|
|-----------------|-----------------------|
|-----------------|-----------------------|
|-----------------|-----------------------|


                     Dm/F             C#m/E
           PM|   PM|
  +E   E E E E E S S E   +E     E S S   E +E    E  Q
|----------------------|--------------------------------|
|----------------------|--------------------------------|
|----------------------|--------------------------------|
|-(5)--5-------5-x-x-3-|-(3)----3-x-x---2-(2)---2--2----|
|-(5)--5-5-5-5-5-x-x-5-|-(5)----5-x-x---4-(4)---4--4----|
|-(5)--5-5-5-5-5-x-x-3-|-(3)----3-x-x---2-(2)---2--2----|
|
|  H..               E   +E     E E     E  E    E  E  E
|----------------------|--------------------------18p17-|
|----------------------|------/10p9---/15p14--/17-------|
|--------------------9-|-(9)\---------------------------|
|----------------------|--------------------------------|
|----------------------|--------------------------------|
|----------------------|--------------------------------|
|
|  W                      W
|----------------------|--------------------------------|
|----------------------|--------------------------------|
|----------------------|--------------------------------|
|----------------------|--------------------------------|
|----------------------|--------------------------------|
|----------------------|--------------------------------|


  D5                 Bb5                      A5  G5
          PM|      PM                  PM|      PM
   Q    E E   E  E E   E     +E  E   E E   E  E E   E
|--------------------------|---------------------------|
|--------------------------|---------------------------|
|--7----7--------7---------|---------------------------|
|--7----7-7---7--7-----8---|-(8)-8------------7-----5--|
|--5----5-5---5--5-----8---|-(8)-8---8-8---8--7-7---5--|
|------------------0---8---|-(8)-8---8-8---8--7-7---5--|
|
| Gtr III
|       ~~~~~~~~~                    ~~~~~~~~~
|  Q    Q    +Q.      +E      Q      Q    +Q.      +E
|-13--/17---(17)-----(17)\-|-10----/13---(13)-----(13)-|
|--------------------------|---------------------------|
|--------------------------|---------------------------|
|--------------------------|---------------------------|
|--------------------------|---------------------------|
|--------------------------|---------------------------|
|
| Gtr IV
|       ~~~~~~~~~                    ~~~~~~~~~
|  Q    Q    +Q.      +E      Q      Q    +Q.      +E
|--------------------------|---------------------------|
|-15--/18---(18)-----(18)\-|-11----/15---(15)-----(15)-|
|--------------------------|---------------------------|
|--------------------------|---------------------------|
|--------------------------|---------------------------|
|--------------------------|---------------------------|


                       Dm/F             C#m/E
          PM|      PM|
  +E E  E E   E E  S S E   +E    E  S S   E +E    E  Q
|------------------------|--------------------------------------|
|------------------------|--------------------------------------|
|------------------------|--------------------------------------|
|-(5)5----------5--x-x-3-|-(3)---3--x-x---2-(2)---2--2----------|
|-(5)5--5-5---5-5--x-x-5-|-(5)---5--x-x---4-(4)---4--4----------|
|-(5)5--5-5---5-5--x-x-3-|-(3)---3--x-x---2-(2)---2--2----------|
|
|  Q    Q     Q    Q        E    E  E     E  E    E  S  S  S  S
|-18S==13---/18S==10-----|--------------------------15----------|
|------------------------|-10--/14-14---/15-15--/17----18-16-18-|
|------------------------|--------------------------------------|
|------------------------|--------------------------------------|
|------------------------|--------------------------------------|
|------------------------|--------------------------------------|
|
|  Q    Q     Q    Q        E    E  E     E  E    E  S  S  S  S
|------------------------|--9--/12-12---/15-15--/17-18-17-15-17-|
|-20S==15---/20S==11-----|--------------------------------------|
|------------------------|--------------------------------------|
|------------------------|--------------------------------------|
|------------------------|--------------------------------------|
|------------------------|--------------------------------------|


  Eb5                        Bb5
   H                          H
|----------------------------------------------------|
|----------------------------------------------------|
|-----------------------------3----------------------|
|--1--------------------------3----------------------|
|--1--------------------------1----------------------|
|--1-------------------------------------------------|
|
| Gtr V
|  S   S  S    S  S  S  S  S  S  S  S  S  S  S  S  S
|-15----------15-------------------------------------|
|-----16-15------15-16-15----15s11----11-------------|
|-------------------------15-------12----12-10-12-10-|
|----------------------------------------------------|
|----------------------------------------------------|
|----------------------------------------------------|
|
|  E      H..
|-18\------------------------------------------------|
|----------------------------------------------------|
|----------------------------------------------------|
|----------------------------------------------------|
|----------------------------------------------------|
|----------------------------------------------------|


  Eb5                     Bb5
   H                       H
|--------------------------------------------|
|--------------------------------------------|
|--------------------------3-----------------|
|--1-----------------------3-----------------|
|--1-----------------------1-----------------|
|--1-----------------------------------------|
|
|                                         ~~
|  S  S  S  S  S  S  S  S  S  S  S  S  E  E
|-------------------------------11----11s15--|
|-------------------------11-----------------|
|-------------------10-------------13--------|
|-13s12----------12----13----13--------------|
|-------13-10-13-----------------------------|
|--------------------------------------------|
|
|  W
|--------------------------------------------|
|--------------------------------------------|
|--------------------------------------------|
|--------------------------------------------|
|--------------------------------------------|
|--------------------------------------------|


  F5                      C5
   H                       H
|---------------------------------------------|
|---------------------------------------------|
|--------------------------5------------------|
|--3-----------------------5------------------|
|--3-----------------------3------------------|
|--3------------------------------------------|
|
|  S  S  S  S  S  S  S  S  E  S  S  S  S  S S
|-17-------17-------------20------------------|
|----18-17----17-18-17-------18---------------|
|----------------------17-------17s15-17-15s9-|
|---------------------------------------------|
|---------------------------------------------|
|---------------------------------------------|


  F5                   C5
   H                    Q..                 +S
|-------------------------------------------------|
|-------------------------------------------------|
|-----------------------5-------------------(5)\--|
|--3--------------------5-------------------(5)\--|
|--3--------------------3-------------------(3)\--|
|--3----------------------------------------------|
|
|                                        ~~~
|  S S  S S  S S  S  S  S    S  S  S  S  E.
|------------------------------13----13s17--------|
|----------------------13---------10--------------|
|-10-9---------9-12-10------10--------------------|
|---------8-10------------------------------------|
|------10-----------------------------------------|
|-------------------------------------------------|


  D5          N.C.
      PM|             ~~~~~~                             ~~~~~
   Q  E E  E    E  E  E        +E   E E E +E    E   E    E
|---------------------------|--------------------------------||
|---------------------------|--------------------------------||
|---------------------------|--------------------------------||
|---------------------------|------------------/8---7--------||
|--0-------0----------------|-----------7-(7)\-----------4---||
|--0--0-0--0----8--7--6-----|--(6)\-0-6----------------------||
|
|  ~~
|  H       E    E  E  E        +H.                 +E   +E
|---------------------------|--------------------------------||
|-15------15\--------15b18==|=(15)----------------(15)r(15)\-||
|-------------/14-15--------|--------------------------------||
|---------------------------|--------------------------------||
|---------------------------|--------------------------------||
|---------------------------|--------------------------------||


   Pre-Verse
    D5
    Gtr III
                             ~~
     S  S  S  S  S  S   E E  E    +E     E
||--10----------------/13---12---(12)\-----|
||o----10----------------------------------|
||--------10p=9----------------------------|
||--------------12p11----------------------|
||o----------------------------------------|
||-----------------------------------------|
|
|   Gtr IV
|                            ~~
|    S  S  S  S  S  S   E E  E    +E     E
||--13----------------/17---16---(16)\-----|
||o----15----------------------------------|
||--------14p13----------------------------|
||--------------15p14----------------------|
||o----------------------------------------|
||-----------------------------------------|
|
|   Gtrs I, II
|    PM-------------------------------------
|    S  S  H                 S E       S E
||-----------------------------------------|
||o----------------------------------------|
||-----------------------------------------|
||-----------------------------------------|
||o--0--0--------------------0-0-------0-0-|
||---0--0--------------------0-0-------0-0-|


   S  S  S  S  S  S   Q   S  S  S  S  S  S
|-10----------------/13--12h13p12-------12---||
|----10------------------------------14-----o||
|-------10p=9---------------------14---------||
|-------------12p11--------------------------||
|-------------------------------------------o||
|--------------------------------------------||
|
|  S  S  S  S  S  S   Q   S  S  S  S  S  S
|-13----------------/17--16h17p16-------15---||
|----15------------------------------17-----o||
|-------14p13---------------------18---------||
|-------------15p14--------------------------||
|-------------------------------------------o||
|--------------------------------------------||
|
|---------------------------------------|
|  S  S  H                S  S  S  S  S  S
|--------------------------------------------||
|-------------------------------------------o||
|--------------------------------------------||
|--------------------------------------------||
|--0--0-------------------------------------o||
|--0--0-------------------0--0--0--0--0--0---||


 Verse
  N.C.
  Gtrs I, II
   PM------|     PM|     PM|       PM------------|     PM|      PM|       PM|
   S   S S S S S S S S S S S S S   S   S   S S S S S S S S S  S S S  S  S S S
|----------------------------------------|------------------------------------|
|----------------------------------------|------------------------------------|
|----------------------------------------|------------------------------------|
|----------------------------------------|------------------------------------|
|------------6p5-----3h5-----1h3---------|---------6p5-----8h10-----10h12-----|
|--0---0-0-0-----0-0-----0-0-------0---0-|-0-0-0-0-----0-0------0-0-------0-0-|
|
| Gtr III
|  ~~~~
|  H..                            +E       W
|-13-----------------------------(13)\---|------------------------------------|
|----------------------------------------|------------------------------------|
|----------------------------------------|------------------------------------|
|----------------------------------------|------------------------------------|
|----------------------------------------|------------------------------------|
|----------------------------------------|------------------------------------|
|
| Gtr IV
|  ~~~~
|  H..                            +E       W
|-10-----------------------------(10)\---|------------------------------------|
|----------------------------------------|------------------------------------|
|----------------------------------------|------------------------------------|
|----------------------------------------|------------------------------------|
|----------------------------------------|------------------------------------|
|----------------------------------------|------------------------------------|


  Gtr I
  PM----|     PM|     PM|     PM---
  S S S S S S S S S S S S S S S S
|---------------------------------|
|---------------------------------|
|---------------------------------|
|---------------------------------|
|---------6p5-----3h5-----1h3-----|
|-0-0-0-0-----0-0-----0-0-----0-0-|
|
| Gtr II
| PM----|     PM|     PM|     PM---
| S S S S S S S S S S S S S S S S
|---------------------------------|
|---------------------------------|
|---------------------------------|
|---------------------------------|
|---------6p5-----3h5-----1h3-----|
|-0-0-0-0-----0-0-----0-0-----0-0-|


 -------|     PM|       PM|
                             |-3--|
  S S S S S S S S  S  S S S  S  S S  S  +S
|---------------------------------------------||
|---------------------------------------------||
|---------------------------------------------||
|---------------------------------------------||
|---------6p5------8h10------8p=7-5h=7--(7)\--||
|-0-0-0-0-----0-0-------0-0-------------------||
|
|-------|     PM|       PM--------|
|                            |-3--|
| S S S S S S S S  S  S S S  S  S S  S  +S
|---------------------------------------------||
|---------------------------------------------||
|---------------------------------------------||
|---------------------------------------------||
|---------6p5-----12h13-----12p10-8h10-(10)\--||
|-0-0-0-0-----0-0-------0-0-------------------||


 Pre-Chorus
  Gtrs I, II
   PM-------|     PM|     PM|       PM-----
   S  S  S  S S S S S S S S S S S   S   S
|-----------------------------------------|
|-----------------------------------------|
|-----------------------------------------|
|-----------------------------------------|
|-------------6p5-----3h5-----1h3---------|
|--0--0--0--0-----0-0-----0-0-------0---0-|
|
| Gtr III
|        ~~~
|  S  S  H.                        +E
|-----------------------------------------|
|-----------------------------------------|
|-----------------------------------------|
|-12p10h12------------------------(12)\---|
|-----------------------------------------|
|-----------------------------------------|
|
| Gtr IV
|        ~~~
|  S  S  H.                        +E
|-----------------------------------------|
|-----------------------------------------|
|-10p=9h10------------------------(10)\---|
|-----------------------------------------|
|-----------------------------------------|
|-----------------------------------------|


 -----------|     PM|      PM|         PM--|
   S  S  S  S S S S S S  S S S  S  S   S   S
|--------------------------------------------|
|--------------------------------------------|
|--------------------------------------------|
|--------------------------------------------|
|-------------6p5-----8h10-----10h12---------|
|--0--0--0--0-----0-0------0-0---------0---0-|
|
|        ~~~
|  S  S  H.                           +E
|--------------------------------------------|
|--------------------------------------------|
|-10p=9h10---------------------------(10)\---|
|--------------------------------------------|
|--------------------------------------------|
|--------------------------------------------|
|
|        ~~~
|  S  S  H.                           +E
|--------------------------------------------|
|--------------------------------------------|
|-14p12h14---------------------------(14)\---|
|--------------------------------------------|
|--------------------------------------------|
|--------------------------------------------|


   PM-------|     PM|     PM|       PM-----
   S  S  S  S S S S S S S S S S S   S   S
|-----------------------------------------|
|-----------------------------------------|
|-----------------------------------------|
|-----------------------------------------|
|-------------6p5-----3h5-----1h3---------|
|--0--0--0--0-----0-0-----0-0-------0---0-|
|
|        ~~~
|  S  S  H.                        +E
|-----------------------------------------|
|-----------------------------------------|
|-14p12h14------------------------(14)\---|
|-----------------------------------------|
|-----------------------------------------|
|-----------------------------------------|
|
|        ~~~
|  S  S  H.                        +E
|-----------------------------------------|
|-15p13h15------------------------(15)\---|
|-----------------------------------------|
|-----------------------------------------|
|-----------------------------------------|
|-----------------------------------------|


 ------------|     PM|         PM|
                                   |-3-|
    S    S S S S S S S   S   S S S S S S   S   +S
|----------------------------------------------------|
|----------------------------------------------------|
|----------------------------------------------------|
|----------------------------------------------------|
|--------------6p5-------8h=10-----8p7-5h==7---(7)\--|
|---0----0-0-0-----0-0---------0-0-------------------|
|
|                        ~~~~
|   H                   +Q.               +E
|----------------------------------------------------|
|-/13b15---------------(13)--------------(13)\-------|
|----------------------------------------------------|
|----------------------------------------------------|
|----------------------------------------------------|
|----------------------------------------------------|
|
|                        ~~~~
|   H                   +Q.               +E
|----------------------------------------------------|
|-/17b18---------------(17)--------------(17)\-------|
|----------------------------------------------------|
|----------------------------------------------------|
|----------------------------------------------------|
|----------------------------------------------------|


   S     S  E   S   S  E   E      E   E  E
|------------------------------------------||
|------------------------------------------||
|------------------------------------------||
|---------------8h=10h12-------------------||
|--8h===10h12--------------4S=====7\-/7S10-||
|------------------------------------------||
|
|                          ~~~~~~~~
|  Q           +Q         +H
|------------------------------------------||
|-17b18-------(17)-------(17)pb18----------||
|------------------------------------------||
|------------------------------------------||
|------------------------------------------||
|------------------------------------------||
|
|                          ~~~~~~~~
|  Q           +Q         +H
|-15b17-------(15)-------(15)pb17----------||
|------------------------------------------||
|------------------------------------------||
|------------------------------------------||
|------------------------------------------||
|------------------------------------------||


 Chorus
      D5                    Bb5                     A5    G5
                 PM-|     PM                  PM--|     PM
       Q      E  E  E   E E  E    +E   E  E   E   E  E  E  E
|------------------------------|-----------------------------|
|------------------------------|-----------------------------|
|------7------7---------7------|-----------------------------|
|------7------7--7--7---7----8-|--(8)--8-------------7-----5-|
|------5------5--5--5---5----8-|--(8)--8--8---8---8--7--7--5-|
|-------------------------0--8-|--(8)--8--8---8---8--7--7--5-|
|
|   a  Q      E  E  E   E E  E    +E   E  E  +E   E  E  E  E
|-[15]15b17--15-13\------------|-----------------------------|
|------------------------------|--------------------------11-|
|---------------------/10---12-|-(12)-10--9--(9)\---12p=9----|
|------------------------------|-----------------------------|
|------------------------------|-----------------------------|
|------------------------------|-----------------------------|
|
|   a  Q      E  E  E   E E  E    +E   E  E  +E   E  E  E  E
|--12s13-----12----------------|--------------------------15-|
|---------------15\---/10---11-|-(11)-10---------------------|
|------------------------------|---------12-(12)\---15-12----|
|------------------------------|-----------------------------|
|------------------------------|-----------------------------|
|------------------------------|-----------------------------|


                          Dm/F                   C#m/E
             PM|      PM|
  +E   E  E  E  E  E  S S  E    +E   E      S  S   E +E   E  Q
|----------------------------|---------------------------------------------|
|----------------------------|---------------------------------------------|
|----------------------------|---------------------------------------------|
|-(5)--5-----------5--x-x--3-|--(3)--3------x--x---2-(2)--2--2-------------|
|-(5)--5--5--5--5--5--x-x--5-|--(5)--5------x--x---4-(4)--4--4-------------|
|-(5)--5--5--5--5--5--x-x--3-|--(3)--3------x--x---2-(2)--2--2-------------|
|
|  E   E  E  E  E  E  E    E    +E   E     +E      Q      E  E   a      E
|-------------------------13-|-(13)-13b15r(13)--------------15--15s====17--|
|-11--------15-15------------|-------------------/17-----18----------------|
|-----10-10-------14-14------|---------------------------------------------|
|----------------------------|---------------------------------------------|
|----------------------------|---------------------------------------------|
|----------------------------|---------------------------------------------|
|
|  E   E  E  E  E  E  E    E    +E   E     +E      Q      E  E   a   a  E
|-15--------13-13---------17-|-(17)-17b18r(17)--------------12-(12)s10s13--|
|-----15-15-------13-13------|--------------------14-----15----------------|
|----------------------------|---------------------------------------------|
|----------------------------|---------------------------------------------|
|----------------------------|---------------------------------------------|
|----------------------------|---------------------------------------------|


  D5                      Bb5                     A5       G5
          PM|           PM                  PM--|        PM
   Q   E  E   E     E   E  E    +E   E  E   E   E   E    E  E
|----------------------------|--------------------------------|
|----------------------------|--------------------------------|
|--7---7------------7--------|--------------------------------|
|--7---7--7---7-----7------8-|--(8)--8--------------7-------5-|
|--5---5--5---5-----5------8-|--(8)--8--8---8---8---7----7--5-|
|-----------------------0--8-|--(8)--8--8---8---8---7----7--5-|
|
|  Q   E  E  +E     E   E  E    +E   E  E  +E   E   S S  E  E
|-15-------------------------|---------------------10---------|
|-----18---------------------|------------------------8----11-|
|---------------------/10-12-|-(12)p10--9--(9)\----------9----|
|--------15-(15)s===8--------|--------------------------------|
|----------------------------|--------------------------------|
|----------------------------|--------------------------------|
|
|  Q   E  E  +E     E   E  E    +E   E  E  +E   E   E    E  E
|-12-------------------------|-----------------------------15-|
|-----15--------------/10-11-|-(11)p10------------------------|
|--------14-(14)\------------|---------12-(12)\---/15p==12----|
|-----------------/12--------|--------------------------------|
|----------------------------|--------------------------------|
|----------------------------|--------------------------------|


                          Dm/F                   C#m/E
             PM|      PM|
  +E   E  E  E  E  E  S S  E    +E   E      S  S   E +E   E  Q
|----------------------------|-------------------------------------|
|----------------------------|-------------------------------------|
|----------------------------|-------------------------------------|
|-(5)--5-----------5--x-x--3-|--(3)--3------x--x---2-(2)--2--2-----|
|-(5)--5--5--5--5--5--x-x--5-|--(5)--5------x--x---4-(4)--4--4-----|
|-(5)--5--5--5--5--5--x-x--3-|--(3)--3------x--x---2-(2)--2--2-----|
|
|  E   E  E  E  E  E  E    E    +E   E     +E      Q      E  E  E
|-------------------------13-|-(13)-13b15r(13)--------------15-----|
|-11--------15-15------------|-------------------/17-----18----17--|
|-----10-10-------14-14------|-------------------------------------|
|----------------------------|-------------------------------------|
|----------------------------|-------------------------------------|
|----------------------------|-------------------------------------|
|
|  E   E  E  E  E  E  E    E    +E   E     +E      Q      E  E  E
|-15--------13-13---------17-|-(17)-17b18r(17)--------------12-----|
|-----15-15-------13-13------|--------------------14-----15----14--|
|----------------------------|-------------------------------------|
|----------------------------|-------------------------------------|
|----------------------------|-------------------------------------|
|----------------------------|-------------------------------------|


  D5            Bb5                 A5  G5
        PM|   PM                PM|   PM
   Q  E E E E E E    +E   E   E E E E E E
|-----------------|-----------------------|
|-----------------|-----------------------|
|--7--7-----7-----|-----------------------|
|--7--7-7-7-7---8-|--(8)--8---------7---5-|
|--5--5-5-5-5---8-|--(8)--8---8-8-8-7-7-5-|
|-------------0-8-|--(8)--8---8-8-8-7-7-5-|
|
|  W                 +E   H..
|-----------------|-----------------------|
|-15--------------|-(15)\-----------------|
|-----------------|-----------------------|
|-----------------|-----------------------|
|-----------------|-----------------------|
|-----------------|-----------------------|
|
|  ~~
|  W                  W
|-----------------|-----------------------|
|-18--------------|-----------------------|
|-----------------|-----------------------|
|-----------------|-----------------------|
|-----------------|-----------------------|
|-----------------|-----------------------|


                     Dm/F             C#m/E
           PM|   PM|
  +E   E E E E E S S E   +E     E S S   E +E    E  Q
|----------------------|--------------------------------|
|----------------------|--------------------------------|
|----------------------|--------------------------------|
|-(5)--5-------5-x-x-3-|-(3)----3-x-x---2-(2)---2--2----|
|-(5)--5-5-5-5-5-x-x-5-|-(5)----5-x-x---4-(4)---4--4----|
|-(5)--5-5-5-5-5-x-x-3-|-(3)----3-x-x---2-(2)---2--2----|
|
|  H..               E   +E     E E     E  E    E  E  E
|----------------------|--------------------------18p17-|
|----------------------|------/10p9---/15p14--/17-------|
|--------------------9-|-(9)\---------------------------|
|----------------------|--------------------------------|
|----------------------|--------------------------------|
|----------------------|--------------------------------|
|
|  W                      W
|----------------------|--------------------------------|
|----------------------|--------------------------------|
|----------------------|--------------------------------|
|----------------------|--------------------------------|
|----------------------|--------------------------------|
|----------------------|--------------------------------|


  D5                 Bb5                      A5  G5
          PM|      PM                PM--|      PM
   Q    E E   E  E E   E     +E  E   E E   E  E E   E
|--------------------------|----------------------------|
|--------------------------|----------------------------|
|--7----7--------7---------|----------------------------|
|--7----7-7---7--7-----8---|-(8)-8------------7-----5---|
|--5----5-5---5--5-----8---|-(8)-8---8-8---8--7-7---5---|
|------------------0---8---|-(8)-8---8-8---8--7-7---5---|
|
|       ~~~~~~~~~                    ~~~~~~~~~
|  Q    Q    +Q.      +E      Q      Q    +Q.      +E
|-13--/17---(17)-----(17)\-|-10----/13---(13)-----(13)\-|
|--------------------------|----------------------------|
|--------------------------|----------------------------|
|--------------------------|----------------------------|
|--------------------------|----------------------------|
|--------------------------|----------------------------|
|
|       ~~~~~~~~~                    ~~~~~~~~~
|  Q    Q    +Q.      +E      Q      Q    +Q.      +E
|--------------------------|----------------------------|
|-15--/18---(18)-----(18)\-|-11----/15---(15)-----(15)--|
|--------------------------|----------------------------|
|--------------------------|----------------------------|
|--------------------------|----------------------------|
|--------------------------|----------------------------|


                  D5   Dm/F         D5   C#m/E
        PM--|      PM|               PM|
  +E E  E E   E E  S S E    +E    E  S S   E +E    E  Q
|------------------------|---------------------------------|
|------------------------|---------------------------------|
|------------------------|---------------------------------|
|-(5)5----------5------3-|--(3)---3--------2-(2)---2--2----|
|-(5)5--5-5---5-5--0-0-5-|--(5)---5--0-0---4-(4)---4--4----|
|-(5)5--5-5---5-5--0-0-3-|--(3)---3--0-0---2-(2)---2--2----|
|
|  Q    Q     Q    Q         E    E  E     E  E    E  E  E
|-18S==13---/18S==10-----|---------------------------15----|
|------------------------|-/10--/14-14---/17-17--/18----18-|
|------------------------|---------------------------------|
|------------------------|---------------------------------|
|------------------------|---------------------------------|
|------------------------|---------------------------------|
|
|  Q    Q     Q    Q         E    E  E     E  E    E  E  E
|------------------------|---9--/12-12---/15-15--/17-18-15-|
|-20S==15---/20S==11-----|---------------------------------|
|------------------------|---------------------------------|
|------------------------|---------------------------------|
|------------------------|---------------------------------|
|------------------------|---------------------------------|


  D5                 Bb5                      A5  G5
          PM|      PM                  PM|      PM
   Q    E E   E  E E   E     +E  E   E E   E  E E   E
|--------------------------|----------------------------|
|--------------------------|----------------------------|
|--7----7--------7---------|----------------------------|
|--7----7-7---7--7-----8---|-(8)-8------------7-----5---|
|--5----5-5---5--5-----8---|-(8)-8---8-8---8--7-7---5---|
|------------------0---8---|-(8)-8---8-8---8--7-7---5---|
|
|       ~~~~~~~~~                    ~~~~~~~~~
|  Q    Q    +Q.      +E      Q      Q    +Q.      +E
|-13--/17---(17)-----(17)\-|-10----/13---(13)-----(13)\-|
|--------------------------|----------------------------|
|--------------------------|----------------------------|
|--------------------------|----------------------------|
|--------------------------|----------------------------|
|--------------------------|----------------------------|
|
|       ~~~~~~~~~                    ~~~~~~~~~
|  Q    Q    +Q.      +E      Q      Q    +Q.      +E
|--------------------------|----------------------------|
|-15--/18---(18)-----(18)\-|-11----/15---(15)-----(15)--|
|--------------------------|----------------------------|
|--------------------------|----------------------------|
|--------------------------|----------------------------|
|--------------------------|----------------------------|


                     D5   Dm/F        D5   C#m/E
          PM---|      PM|              PM|
  +E   E  E  E  E  E  S S  E   +E   E  S S  E +E   E  Q
|----------------------------|-----------------------------|
|----------------------------|-----------------------------|
|----------------------------|-----------------------------|
|-(5)--5-----------5-------3-|-(3)--3-------2-(2)--2--2----|
|-(5)--5--5--5--5--5--0-0--5-|-(5)--5--0-0--4-(4)--4--4----|
|-(5)--5--5--5--5--5--0-0--3-|-(3)--3--0-0--2-(2)--2--2----|
|
|  E   E  E  E  E  E  E    E    E   E  E    E  E   E  E  E
|-15-----------------15------|-13--------------------------|
|-----15----------15------15-|-----15----------------14----|
|--------15----15------------|--------14------14--------14-|
|-----------17---------------|-------------15-----15-------|
|----------------------------|-----------------------------|
|----------------------------|-----------------------------|
|
|  E   E  E  E  E  E  E    E    E   E  E    E  E   E  E  E
|-18-----------------18------|-17--------------------------|
|-----20----------20------20-|-----18----------------17----|
|--------19----19------------|--------19------19-----------|
|-----------20---------------|-------------19-----19----19-|
|----------------------------|-----------------------------|
|----------------------------|-----------------------------|


  D5                 Bb5                      A5  G5
          PM|      PM                  PM|      PM
   Q    E E   E  E E   E     +E  E   E E   E  E E   E
|--------------------------|----------------------------|
|--------------------------|----------------------------|
|--7----7--------7---------|----------------------------|
|--7----7-7---7--7-----8---|-(8)-8------------7-----5---|
|--5----5-5---5--5-----8---|-(8)-8---8-8---8--7-7---5---|
|------------------0---8---|-(8)-8---8-8---8--7-7---5---|
|
|       ~~~~~~~~~                    ~~~~~~~~~
|  Q    Q    +Q.      +E      Q      Q    +Q.      +E
|-13--/17---(17)-----(17)\-|-10----/13---(13)-----(13)\-|
|--------------------------|----------------------------|
|--------------------------|----------------------------|
|--------------------------|----------------------------|
|--------------------------|----------------------------|
|--------------------------|----------------------------|
|
|       ~~~~~~~~~                    ~~~~~~~~~
|  Q    Q    +Q.      +E      Q      Q    +Q.      +E
|--------------------------|----------------------------|
|-15--/18---(18)-----(18)\-|-11----/15---(15)-----(15)--|
|--------------------------|----------------------------|
|--------------------------|----------------------------|
|--------------------------|----------------------------|
|--------------------------|----------------------------|


                       Dm/F             C#m/E
          PM|      PM|
  +E E  E E   E E  S S E   +E    E  S S   E +E    E  Q
|------------------------|--------------------------------------|
|------------------------|--------------------------------------|
|------------------------|--------------------------------------|
|-(5)5----------5--x-x-3-|-(3)---3--x-x---2-(2)---2--2----------|
|-(5)5--5-5---5-5--x-x-5-|-(5)---5--x-x---4-(4)---4--4----------|
|-(5)5--5-5---5-5--x-x-3-|-(3)---3--x-x---2-(2)---2--2----------|
|
|  Q    Q     Q    Q        E    E  E     E  E    E  S  S  S  S
|-18S==13---/18S==10-----|--------------------------15----------|
|------------------------|-10--/14-14---/15-15--/17----18-16-18-|
|------------------------|--------------------------------------|
|------------------------|--------------------------------------|
|------------------------|--------------------------------------|
|------------------------|--------------------------------------|
|
|  Q    Q     Q    Q        E    E  E     E  E    E  S  S  S  S
|------------------------|--9--/12-12---/15-15--/17-18-17-15-17-|
|-20S==15---/20S==11-----|--------------------------------------|
|------------------------|--------------------------------------|
|------------------------|--------------------------------------|
|------------------------|--------------------------------------|
|------------------------|--------------------------------------|


  Eb5                        Bb5
   H                          H
|----------------------------------------------------|
|----------------------------------------------------|
|-----------------------------3----------------------|
|--1--------------------------3----------------------|
|--1--------------------------1----------------------|
|--1-------------------------------------------------|
|
| Gtr V
|  S   S  S    S  S  S  S  S  S  S  S  S  S  S  S  S
|-15----------15-------------------------------------|
|-----16-15------15-16-15----15s11----11-------------|
|-------------------------15-------12----12-10-12-10-|
|----------------------------------------------------|
|----------------------------------------------------|
|----------------------------------------------------|
|
|  E      H..
|-18\------------------------------------------------|
|----------------------------------------------------|
|----------------------------------------------------|
|----------------------------------------------------|
|----------------------------------------------------|
|----------------------------------------------------|


  Eb5                     Bb5
   H                       H
|--------------------------------------------|
|--------------------------------------------|
|--------------------------3-----------------|
|--1-----------------------3-----------------|
|--1-----------------------1-----------------|
|--1-----------------------------------------|
|
|                                         ~~
|  S  S  S  S  S  S  S  S  S  S  S  S  E  E
|-------------------------------11----11s15--|
|-------------------------11-----------------|
|-------------------10-------------13--------|
|-13s12----------12----13----13--------------|
|-------13-10-13-----------------------------|
|--------------------------------------------|
|
|  W
|--------------------------------------------|
|--------------------------------------------|
|--------------------------------------------|
|--------------------------------------------|
|--------------------------------------------|
|--------------------------------------------|


  F5                      C5
   H                       H
|---------------------------------------------|
|---------------------------------------------|
|--------------------------5------------------|
|--3-----------------------5------------------|
|--3-----------------------3------------------|
|--3------------------------------------------|
|
|  S  S  S  S  S  S  S  S  E  S  S  S  S  S S
|-17-------17-------------20------------------|
|----18-17----17-18-17-------18---------------|
|----------------------17-------17s15-17-15s9-|
|---------------------------------------------|
|---------------------------------------------|
|---------------------------------------------|


  F5                   C5
   H                    Q..                 +S
|-------------------------------------------------||
|-------------------------------------------------||
|-----------------------5-------------------(5)\--||
|--3--------------------5-------------------(5)\--||
|--3--------------------3-------------------(3)\--||
|--3----------------------------------------------||
|
|                                        ~~~
|  S S  S S  S S  S  S  S    S  S  S  S  E.
|------------------------------13----13s17--------||
|----------------------13---------10--------------||
|-10-9---------9-12-10------10--------------------||
|---------8-10------------------------------------||
|------10-----------------------------------------||
|-------------------------------------------------||

Good luck.

 Guitar Solo
  D5
  Gtr V
    ~~~
                   |--3--|  |------6-------|
    H       a  E   S  S  S  S  S  S  S  S  S
|--------------------------------------------|
|-/15------13s15-----------------------------|
|----------------/17p16p14-------------------|
|--------------------------18p17h18p17p16p15-|
|--------------------------------------------|
|--------------------------------------------|
|
| Gtrs I, II
|   Q  E E     E   E        E        E
|--------------------------------------------|
|--------------------------------------------|
|--------------------------------------------|
|---0----------0------------0----------------|
|---0--0-0-----0---0--------0--------0-------|
|---0--0-0-----0---0--------0--------0-------|


        E5
          ~~~~        ~~~
   a     +Q.       E  Q.      +E
|----------------------------------|
|----------------------------------|
|----------------/17s13------(13)\-|
|-13b14-(13)-----------------------|
|----------------------------------|
|----------------------------------|
|
|         Q   E    E  E  E E   E
|----------------------------------|
|----------------------------------|
|----------------------------------|
|---------2-----------2----2-------|
|---------2---2----2--2--2-2---2---|
|---------2---2----2--2--2-2---2---|


    G5
    |--3--|       |--3--|        |------6-------|              |--3---|
  a S   S S  S S  S  S  S  S  S  S  S  S  S  S  S  T  T  T  T  S   S  S
|-------------------------15h17-18p15-------------------------15h=18-20p|
|--------------8s12-13h15-------------15-------------------15-----------|
|-----------10---------------------------15-------------15--------------|
|---------8---------------------------------17-------17-----------------|
|---7--10--------------------------------------17-17--------------------|
|-x---------------------------------------------------------------------|
|
|   Q             E        E     E        E        E           E
|-----------------------------------------------------------------------|
|-----------------------------------------------------------------------|
|-----------------------------------------------------------------------|
|---5----------------------------5-----------------5--------------------|
|---5-------------5--------5-----5--------5--------5-----------5--------|
|---5-------------5--------5-----5--------5--------5-----------5--------|


  Dm/F                                C#m/E
   |------6-------|  |------6-------|  |------6-------|  |----------6-----------|
   S  S  S  S  S  S  S  S  S  S  S  S  S  S  S  S  S  S  S  a     +S   S  S  S  S
|-18p17-----------------------------------------------------------------------------|
|-------19p17-----------------------------------------------------------------------|
|-------------20p19-------17----------------------18h19p18-17b18-(17)---------------|
|-------------------19h20----20p19----------19h20---------------------20p19---------|
|----------------------------------20p19h20---------------------------------20p19---|
|-----------------------------------------------------------------------------------|
|
|  E        E        E        E        E        E        E                E
|-----------------------------------------------------------------------------------|
|-----------------------------------------------------------------------------------|
|-----------------------------------------------------------------------------------|
|--3--------3--------3--------3--------2--------2--------2----------------2---------|
|--5--------5--------5--------5--------4--------4--------4----------------4---------|
|--3--------3--------3--------3--------2--------2--------2----------------2---------|


  D5                                      Bb5                                 F/A    G5
   ~~~~~     ~~~                                                       ~~~~~~~~~~~~~~
                      |--3--|
   Q      a  E.    S  S  S  S  S  S  S  S  E    +Q     +T     T  T  T  E  +Q     +E   +S 
  T  T
|--------------------------------------------|---------------------------------------------------|
|--------------------------------------------|------------------------15-(15)---(15)-(15)\-15h17-|
|-17b19--17s19-------------------17-18-19----|------------------14h15----------------------------|
|-----------------19----18s19-20----------20-|-(20)---(20)\-/15----------------------------------|
|--------------------20----------------------|---------------------------------------------------|
|--------------------------------------------|---------------------------------------------------|
|
|               PM---|               PM                                PM|        PM
|  Q         E  E     E        E     E     E    +E  E   E              E   E  E   E    E
|--------------------------------------------|---------------------------------------------------|
|--------------------------------------------|---------------------------------------------------|
|--7---------7-----------------7-------------|---------------------------------------------------|
|--7---------7--7-----7--------7-----------8-|--(8)-8-------------------------7--------5---------|
|--5---------5--5-----5--------5-----------8-|--(8)-8---8---------------------8--------5---------|
|------------------------------------0-----8-|--(8)-8---8--------------8---8--7---7----5---------|


                                           D5   Dm/F                D5    C#m/E
                                   ~~~~     ~~
   |--3---|                                          |--3---|
   S   S  S  S  S  a  S  S  E     +Q     a  Q        S   S  S  S  S  S  S  E  +E      +E 
 E  +S       a   S
|-------------------------------------------------|-17h=18p17----17-18-19-20-(20)b22r(20)-20-(20)b22r(20)p17-|
|-15h=17p15----15-16-17-18-19b20-(19)---19s20-----|-----------18---------------------------------------------|
|-----------18------------------------------------|----------------------------------------------------------|
|-------------------------------------------------|----------------------------------------------------------|
|-------------------------------------------------|----------------------------------------------------------|
|-------------------------------------------------|----------------------------------------------------------|
|
|                           PM---|          PM|
| +E         E        E     E      E  E     S S E   +E         E     S  S  E  +E       E 
 Q
|-------------------------------------------------|----------------------------------------------------------|
|-------------------------------------------------|----------------------------------------------------------|
|-------------------------------------------------|----------------------------------------------------------|
|-(5)--------5------------------------5---------3-|-(3)--------3-----------2--(2)------2---2-----------------|
|-(5)--------5--------5---------------5-----0-0-5-|-(5)--------5-----0--0--4--(4)------4---4-----------------|
|-(5)--------5--------5-----5------5--5-----0-0-3-|-(3)--------3-----0--0--2--(2)------2---2-----------------|


  D5                                  D5    Bb5
   S  S  S  S  S  S  S  S  S  S  S  S  S  S  S  S
|-22-------20----------17p16----15-------16-17-18-|
|----22-------18-------------18----18p15----------|
|-------22-------17-------------------------------|
|-------------------19----------------------------|
|-------------------------------------------------|
|-------------------------------------------------|
|
|                    PM---|            PM
|  Q           E     E     E     E     E     E
|-------------------------------------------------|
|-------------------------------------------------|
|--7-----------7-----------------7----------------|
|--7-----------7-----7-----7-----7-----------8----|
|--5-----------5-----5-----5-----5-----0-----8----|
|--------------------------------------0-----8----|


                                       A5                G5
   +E   E      S  S   S  S  T  T  T  T  S  S  T  T  T  T  T  T  T  T
|-(18)s17pb18r15S12-/18S12h15-------15-------15-----------------------|
|-----------------------------18p17----17-------18p15-----------------|
|-----------------------------------------15----------17p15-14h15-14s=|
|---------------------------------------------------------------------|
|---------------------------------------------------------------------|
|---------------------------------------------------------------------|
|
|                     PM---|                  PM
|  +E   E      E      E     E           E     E           E
|---------------------------------------------------------------------|
|---------------------------------------------------------------------|
|---------------------------------------------------------------------|
|--(8)--8-------------------------------7-----------------5-----------|
|--(8)--8------8------8-----8-----------7-----7-----------5-----------|
|--(8)--8------8------8-----8-----------7-----7-----------5-----------|


                                D5  Dm/F                     D5    C#m/E
                                     |--3--|
   E    S  S  S  S  E     +Q.        S  S  S    E     +S   S  S  S  Q      E  E  E
|--------------------------------------------|-17b19r(17)-----------------------------|
|--------------------------------------------|---------------17-15-14-----15-17-17b18r|
|-15\-/14s15-16s17-17b19-(17)-------17S14-14-|------------15--------------------------|
|--------------------------------------------|----------------------------------------|
|--------------------------------------------|----------------------------------------|
|--------------------------------------------|----------------------------------------|
|
|                   PM---|      PM|
| +E    E     E     E      E  E S S  E         +E      E      S  S  E +E   E  Q
|--------------------------------------------|----------------------------------------|
|--------------------------------------------|----------------------------------------|
|--------------------------------------------|----------------------------------------|
|-(5)---5---------------------5------3-------|-(3)-----3------------2-(2)--2--2-------|
|-(5)---5-----5---------------5-0-0--5-------|-(5)-----5------0--0--4-(4)--4--4-------|
|-(5)---5-----5-----5------5--5-0-0--3-------|-(3)-----3------0--0--2-(2)--2--2-------|


  D5                             D5 Bb5                                      A5      G5
   +E   S  S  E  E     +E   S  S  E  E        +S   S  S  S  S  S  E      +Q     +E    S  S
|---------------16b17r(16)----------17pb18r|=(17)------------------------------------^x-15---|
|-(17)-15-14-15------------18-17-18--------|------18----15---------------------------^x------|
|------------------------------------------|---------15----15-16-17b19==(17)---(17)r-^x------|
|------------------------------------------|-------------------------------------------------|
|------------------------------------------|-------------------------------------------------|
|------------------------------------------|-------------------------------------------------|
|
|                PM---|           PM                              PM----|        PM
|   Q         E  E      E   E     E  E        +E      E     E     E       E  E   E    E
|------------------------------------------|-------------------------------------------------|
|------------------------------------------|-------------------------------------------------|
|---7---------7-------------7--------------|-------------------------------------------------|
|---7---------7--7------7---7--------8-----|--(8)-----8----------------------7--------5------|
|---5---------5--5------5---5-----0--8-----|--(8)-----8-----8-----8-------8--7---7----5------|
|---------------------------------0--8-----|--(8)-----8-----8-----8-------8--7---7----5------|


                                   D5  Dm/F
   S   S  S  S  S  S  S  S  Q..           +S
|-15--------18s15------------------------------|
|--------------------------18b20---------(18)\-|
|-----15s19-------17----15---------------------|
|--------------------17------------------------|
|----------------------------------------------|
|----------------------------------------------|
|
|                     PM---|       PM|
| +E      E     E     E     E    E S S E
|----------------------------------------------|
|----------------------------------------------|
|----------------------------------------------|
|-(5)-----5----------------------5-----3-------|
|-(5)-----5-----5----------------5-0-0-5-------|
|-(5)-----5-----5-----5-----5----5-0-0-3-------|


                      D5          C#m/E
    |-------6-------|  |--------6--------|  |-------6-------|  |------6-------|
    S   S  S  S  S  S  S  S  a  S  S  S  S  S   S  S  S  S  S  S  S  S  S  S  S
|------17h18p17----17h18p17--------------------------------------------------17--|
|-/18-----------18----------18-----------------------------------------18h20-----|
|------------------------------18----18h19p18-----18h19p18-19p18-19h21-----------|
|---------------------------------20-----------20--------------------------------|
|--------------------------------------------------------------------------------|
|--------------------------------------------------------------------------------|
|
|  +E         E        S     S     E       +E         E        Q
|--------------------------------------------------------------------------------|
|--------------------------------------------------------------------------------|
|--------------------------------------------------------------------------------|
|--(3)--------3--------------------2-------(2)--------2--------2-----------------|
|--(5)--------5--------0-----0-----4-------(4)--------4--------4-----------------|
|--(3)--------3--------0-----0-----2-------(2)--------2--------2-----------------|


  D5                                                          Bb5                        
                                F/A               G5
   |------6-------|  |------6-------|  |------6-------|  |------6-------|    
 |------6-------|  |------6-------|  |------6-------|
   S  S  S  S  S  S  S  S  S  S  S  S  S  S  S  S  S  S  S  S  S  S  S  S    S   S  S  S 
S  S  S  S  S  S  S  S  S  S  S  S  S  S  S  S  S  S  S  S
|-17-------------------------------16h17-------------------------------17h|=18--------------------------------17h18-------------------------------18-|
|----18-------------------------18-------18-------------------------18----|-----18-------------------------18-------18-------------------------18----|
|-------19-------------------19-------------19-------------------19-------|--------18-------------------18-------------18-------------------18-------|
|----------19-------------19-------------------19-------------19----------|-----------20-------------20-------------------20-------------20----------|
|-------------20-16h17-20-------------------------20-16h17-20-------------|--------------20----17-20-------------------------20----17-20-------------|
|-------------------------------------------------------------------------|-----------------22----------------------------------22-------------------|
|
|                             PM------|                  PM                              
               PM------|                  PM
|  Q                 E        E        E        E        E     E            +E         E 
      E        E        E        E        E        E
|-------------------------------------------------------------------------|--------------------------------------------------------------------------|
|-------------------------------------------------------------------------|--------------------------------------------------------------------------|
|--7-----------------7--------------------------7-------------------------|--------------------------------------------------------------------------|
|--7-----------------7--------7--------7--------7--------------8----------|-(8)--------8-----------------------------------7-----------------5-------|
|--5-----------------5--------5--------5--------5--------------8----------|-(8)--------8--------8--------------------------8-----------------5-------|
|--------------------------------------------------------0-----8----------|-(8)--------8--------8--------8--------8--------7--------7--------5-------|


                                                         D5         Dm/F
   |-------6-------|  |------6-------|  |------6-------|  |-------6--------|
   S   S  S  S  S  S  S  S  S  S  S  S  S  S  S  S  S  S  S  S    S  S  S  S
|-18--------------------------------17h18---------------------------------18----|
|-----20-------------------------18-------20---------------------------18-------|
|--------19-------------------17-------------19---------------------17----------|
|-----------20-------------20-------------------20---------------20-------------|
|--------------22-17-17-22-------------------------22-17-17-22------------------|
|-------------------------------------------------------------------------------|
|
|                              PM------|                  PM---|
| +E         E        E        E        E        E        S    S     E
|-------------------------------------------------------------------------------|
|-------------------------------------------------------------------------------|
|-------------------------------------------------------------------------------|
|-(5)--------5-----------------------------------5-------------------3----------|
|-(5)--------5--------5--------------------------5--------0----0-----5----------|
|-(5)--------5--------5--------5--------5--------5--------0----0-----3----------|


                    D5       C#m/E                       Dm/F   Em/G
   |------6-------|  |------6-------|  |-------6-------|  |-3-|  |--3--|
   S  S  S  S  S  S  S  S  S  S  S  S  S   S  S  S  S  S  S.  S  S  a  S  S
|-17-------------------------------17h21p=17-----------------------------18\-|
|----18-------------------------18-----------18-----------------17-----------|
|-------19-------------------19-----------------18-----------17----17--------|
|----------19-------------19-----------------------19-----------------19-----|
|-------------20-17-17-20-----------------------------19-20------------------|
|----------------------------------------------------------------------------|
|
|  E        E        E        E       +E         E        E      E
|----------------------------------------------------------------------------|
|----------------------------------------------------------------------------|
|----------------------------------------------------------------------------|
|--3--------3-----------------2-------(2)--------2--------3------5-----------|
|--5--------5--------0--------4-------(4)--------4--------5------7-----------|
|--3--------3--------0--------2-------(2)--------2--------3------5-----------|


  D5
    ~~~~~~
    H        H
|-/20b22-------------||
|-----------20b22----||
|--------------------||
|--------------------||
|--------------------||
|--------------------||
|
|   W
|--------------------||
|--------------------||
|--------------------||
|--------------------||
|---0----------------||
|---0----------------||


 Interlude
                        Dm/A
                        Gtr VI
    >
    \3
   +H      +Q    +Q      E  E  E  E  E  E  E   E
|---------------------|-13----------13-----------|
|-(20)----(20)--(20)--|----15----15----15-----15-|
|---------------------|-------14----------14-----|
|---------------------|--------------------------|
|---------------------|--------------------------|
|---------------------|--------------------------|
|                        Pickscrape
|  +W                    Q     Q     Q     Q
|---------------------|--------------------------|
|---------------------|--------------------------|
|---------------------|--------------------------|
|---------------------|--------------------------|
|--(0)----------------|-/1s====2s====3s====4/----|
|--(0)----------------|--------------------------|


  C#m/G                                               Dm/A
   E  E  E  E  E  E  E  E    E  E  E  E  E  E  E  E    E  E  E  E  E  E  E  E    E   E  E  E  E  E  E  E
|-------------------------|-------------------------|-------------------------|---------------------------|
|-17----------17----------|-17----------17----------|-18----------18----------|-18------------18----------|
|----18----18----18----18-|----18----18----18----18-|----19----19----19----19-|-----19-----19----19----19-|
|-------17----------17----|-------17----------17----|-------19----------19----|--------19-----------19----|
|-------------------------|-------------------------|-------------------------|---------------------------|
|-------------------------|-------------------------|-------------------------|---------------------------|
|
|  Q     Q     Q     Q       Q     Q     Q     Q       Q     Q     Q     Q       Q      H.
|-------------------------|-------------------------|-------------------------|---------------------------|
|-------------------------|-------------------------|-------------------------|---------------------------|
|-------------------------|-------------------------|-------------------------|---------------------------|
|-------------------------|-------------------------|-------------------------|---------------------------|
|-/5s====6s====7s====8s===|==9s===10s===12s===14s===|=15s===16s===17s===18s===|=20/-----------------------|
|-------------------------|-------------------------|-------------------------|---------------------------|


  Eb/Bb                     C#m/G
   E  E  E  E  E  E  E  E    E  E  E  E  E  E  E  E    E  E  E  E  E  E  E  E
|-------------------------|-------------------------|----------------------------|
|-20----------20----------|-17----------17----------|-17----------17-------------|
|----20----20----20----20-|----18----18----18----18-|----18----18----18----18----|
|-------20----------20----|-------17----------17----|-------17----------17-------|
|-------------------------|-------------------------|----------------------------|
|-------------------------|-------------------------|----------------------------|
|
|  W                         W                               W
|-------------------------|-------------------------|----------------------------|
|-------------------------|-------------------------|----------------------------|
|-------------------------|-------------------------|----------------------------|
|-------------------------|-------------------------|----------------------------|
|-------------------------|-------------------------|----------------------------|
|-------------------------|-------------------------|----------------------------|


  Eb/Bb                     C#m/G
   E  E  E  E  E  E  E  E    E  E  E  E  E  E  E  E
|-15----------15----------|-12----------12----------|
|----16----16----16----16-|----14----14----14----14-|
|-------15----------15----|-------12----------12----|
|-------------------------|-------------------------|
|-------------------------|-------------------------|
|-------------------------|-------------------------|


  Dm/A
   E  E  E  E  E  E  E  E    E  E  E  E  E  E  E  E
|-13----------13----------|-13----------13----------|
|----15----15----15----15-|----15----15----15----15-|
|-------14----------14----|-------14----------14----|
|-------------------------|-------------------------|
|-------------------------|-------------------------|
|-------------------------|-------------------------|


  G#                                                  Cm/G
   E  E  E  E  E  E  E  E    E  E  E  E  E  E  E  E    E  E  E  E  E  E  E  E
|-11----------11----------|-11----------11----------|-11----------11----------|
|----13----13----13----13-|----13----13----13----13-|----13----13----13----13-|
|-------13----------13----|-------13----------13----|-------12----------12----|
|-------------------------|-------------------------|-------------------------|
|-------------------------|-------------------------|-------------------------|
|-------------------------|-------------------------|-------------------------|


                            C#/F                Fm                    Bm/F
   E  E  E  E  E  E  E  E   E E  E E E E  E E    E E  E E  E E  E E    E  E  E  E  E  E  E E
|-11----------11----------|-9--------9--------|-13--------13--------|-10----------10-------------|
|----13----13----13----13-|---9----9---9----9-|----9----9----9----9-|----12----12----12----12----|
|-------12----------12----|-----10-------10---|------10--------10---|-------10----------10-------|
|-------------------------|-------------------|---------------------|----------------------------|
|-------------------------|-------------------|---------------------|----------------------------|
|-------------------------|-------------------|---------------------|----------------------------|


                            C/E               Bbm/G
   E  E  E  E  E  E  E  E   E E E E E E E E   E  E  E  E E  E  E  E
|-10----------10----------|-8-------8-------|-9----------9----------|
|----12----12----12----12-|---8---8---8---8-|---11----11---11----11-|
|-------10----------10----|-----9-------9---|------12---------12----|
|-------------------------|-----------------|-----------------------|
|-------------------------|-----------------|-----------------------|
|-------------------------|-----------------|-----------------------|


  G#/F                                    C#/F
  E E  E E E E  E E   E E  E E E E  E E   E E  E E E E  E E   E E  E E E E  E E
|-8--------8--------|-8--------8--------|-9--------9--------|-9--------9-----------|
|---9----9---9----9-|---9----9---9----9-|---9----9---9----9-|---9----9---9----9----|
|-----10-------10---|-----10-------10---|-----10-------10---|-----10-------10------|
|-------------------|-------------------|-------------------|----------------------|
|-------------------|-------------------|-------------------|----------------------|
|-------------------|-------------------|-------------------|----------------------|


  G/E                                 G#/F
  E E E E E E E E   E E E E E E E E   E E  E E E E  E E   E E  E E E E  E E
|-7-------7-------|-7-------7-------|-8--------8--------|-8--------8--------|
|---8---8---8---8-|---8---8---8---8-|---9----9---9----9-|---9----9---9----9-|
|-----9-------9---|-----9-------9---|-----10-------10---|-----10-------10---|
|-----------------|-----------------|-------------------|-------------------|
|-----------------|-----------------|-------------------|-------------------|
|-----------------|-----------------|-------------------|-------------------|


  Dm/F                                                C/E
   E  E  E  E  E  E  E  E    E  E  E  E  E  E  E  E   E E E E E E E E
|-10----------10----------|-10----------10----------|-8-------8----------|
|----10----10----10----10-|----10----10----10----10-|---8---8---8---8----|
|-------10----------10----|-------10----------10----|-----9-------9------|
|-------------------------|-------------------------|--------------------|
|-------------------------|-------------------------|--------------------|
|-------------------------|-------------------------|--------------------|


                    Dm/F
  E E E E E E E E    E  E  E  E  E  E  E  E
|-8-------8-------|-10----------10----------|
|---8---8---8---8-|----10----10----10----10-|
|-----9-------9---|-------10----------10----|
|-----------------|-------------------------|
|-----------------|-------------------------|
|-----------------|-------------------------|


                            C/E
   E  E  E  E  E  E  E  E   E E E E E E E E
|-10----------10----------|-8-------8-------|
|----10----10----10----10-|---8---8---8---8-|
|-------10----------10----|-----9-------9---|
|-------------------------|-----------------|
|-------------------------|-----------------|
|-------------------------|-----------------|


                    F+sus2
  E E E E E E E E   E E  E E E E  E E   E E  E E E E  E E
|-8-------8-------|-9--------9--------|-9--------9--------||
|---8---8---8---8-|---8----8---8----8-|---8----8---8----8-||
|-----9-------9---|-----10-------10---|-----10-------10---||
|-----------------|-------------------|-------------------||
|-----------------|-------------------|-------------------||
|-----------------|-------------------|-------------------||


 Bridge
  N.C.
  Gtr I
   ~~~                           ~
                                                   |-3-|
   H.      E E   Q  Q  Q    Q    H      Q  Q    Q  E E E Q  Q
|--------------|---------------|--------------|-----------------|
|--------------|---------------|--------------|-----------------|
|------------2-|---------------|------/10--7--|-5----5----------|
|-/3-------5---|-5--3--5\------|--------------|----7---7--------|
|--------------|-----------/3--|-5------------|----------8--5---|
|--------------|---------------|--------------|-----------------|
|
| Gtr II
|  ~~~                           ~
|                                                  |-3-|
|  H.      E E   Q  Q  Q    Q    H      Q  Q    Q  E E E Q  Q
|--------------|---------------|--------------|-----------------|
|--------------|---------------|--------------|-----------------|
|--------------|---------------|-------/7-----|-----------------|
|--------------|---------------|-----------8--|-7----7---0------|
|-/5-------7-8-|-7--5--7\---0--|-1------------|----8---8--------|
|--------------|---------------|--------------|-------------8---|


  Q  Q  Q  Q    Q  Q   Q  Q     E E E E  E E E  E   E  E E E E E E E
|-------------|--------------|--------------------|------------------|
|-------------|--------------|--------------------|------------------|
|-------------|-6--9---7--6--|-10p7----------7h10-|-9--------7---6---|
|-------5--8--|--------------|------7------8------|---10p7-----8---7-|
|-4--7--------|--------------|--------8h10--------|--------8---------|
|-------------|--------------|--------------------|------------------|
|
| Q  Q  Q  Q    Q  Q   Q  Q     E E E E  E E E  E   E  E E E E E E E
|-------------|--------------|--------------------|------------------|
|-------------|--------------|--------------------|------------------|
|-------------|----6--10--9--|--7---------------7p|=5----------------|
|----------5--|-7------------|----7--------5h8----|----7---7h8-5h7---|
|-0--4--7-----|--------------|------8p5--7--------|------8---------4-|
|-------------|--------------|--------------------|------------------|


   ~~~                         ~
                                                 |-3-|
   H.      E E   Q  Q  Q  Q    H      Q  Q    Q  E E E Q  Q
|--------------|-------------|--------------|-----------------|
|--------------|-------------|--------------|-----------------|
|------------2-|-------------|------/10--7--|-5----5----------|
|-/3-------5---|-5--3--5-----|--------------|----7---7--------|
|--------------|----------3--|-5------------|----------8--5---|
|--------------|-------------|--------------|-----------------|
|
|  ~~~                         ~
|                                                |-3-|
|  H.      E E   Q  Q  Q  Q    H      Q  Q    Q  E E E Q  Q
|--------------|-------------|--------------|-----------------|
|--------------|-------------|--------------|-----------------|
|--------------|-------------|-------/7-----|-----------------|
|--------------|-------------|-----------8--|-7----7---0------|
|-/5-------7-8-|-7--5--7--0--|-1------------|----8---8--------|
|--------------|-------------|--------------|-------------8---|


  Q  Q  Q  Q    Q  Q   Q  Q     E E E E  E E E  E   E  E E E E E E E
|-------------|--------------|--------------------|------------------||
|-------------|--------------|--------------------|------------------||
|-------------|-6--9---7--6--|-10p7----------7h10-|-9--------7---6---||
|-------5--8--|--------------|------7------8------|---10p7-----8---7-||
|-4--7--------|--------------|--------8h10--------|--------8---------||
|-------------|--------------|--------------------|------------------||
|
| Q  Q  Q  Q    Q  Q   Q  Q     E E E E  E E E  E   E  E E E E E E E
|-------------|--------------|--------------------|------------------||
|-------------|--------------|--------------------|------------------||
|-------------|----6--10--9--|--7---------------7p|=5----------------||
|----------5--|-7------------|----7--------5h8----|----7---7h8-5h7---||
|-0--4--7-----|--------------|------8p5--7--------|------8---------4-||
|-------------|--------------|--------------------|------------------||


 Prelude
  G5
  Gtr V
  H      H         H      Q   Q
|--------------|-----------------|
|--------------|-----------------|
|-3-----/7-----|-/12----/15--14--|
|-x-----/x-----|--/x-----/x---x--|
|-1-----/5-----|-/10----/13--12--|
|--------------|-----------------|
|
| Gtrs I, II
| Q  Q   Q  Q      H      H
|--------------|-----------------|
|--------------|-----------------|
|--------------|-----------------|
|-5--5---5--5--|---5------5------|
|-5--5---5--5--|---5------5------|
|-5--5---5--5--|---5------5------|


  D5                              A/C#
  H.        E  E   Q  Q  Q   Q    H.         Q
|----------------|--------------|---------------|
|----------------|--------------|---------------|
|-7---------9-10-|-9--7--9--10--|-9---------10--|
|-x---------x--x-|-x--x--x---x--|-x----------x--|
|-5---------7--8-|-7--5--7---8--|-7----------8--|
|----------------|--------------|---------------|
|
| Q   Q  H         H     H        Q   Q  H
|----------------|--------------|---------------|
|----------------|--------------|---------------|
|-7---7--7-------|-7-----7------|-6---6--6------|
|-7---7--7-------|-7-----7------|-7---7--7------|
|-5---5--5-------|-5-----5------|-4---4--4------|
|----------------|--------------|---------------|


                   D5                C/E
   Q   Q  Q   Q     Q  Q    Q   Q     Q   Q   Q    Q
|----------------|-----------------|------------------|
|----------------|-----------------|------------------|
|-12--10--9--10--|-10--7--/14--10--|--9--12--12--/15--|
|--x---x--x---x--|--x--x---/x---x--|--x---x---x---/x--|
|-10---8--7---8--|--8--5--/12---8--|--7--10--10--/13--|
|----------------|-----------------|------------------|
|
|  Q   Q  Q   Q     Q  H        Q     Q   Q   Q    Q
|----------------|-----------------|------------------|
|----------------|-----------------|------------------|
|--6---6--6---6--|--7--7--------7S=|==9---9---9----9--|
|--7---7--7---7--|--7--7--------7S=|=10--10--10---10--|
|--4---4--4---4--|--5--5--------5S=|==7---7---7----7--|
|----------------|-----------------|------------------|


  F5                 A/C#
   Q   Q   Q   Q     E  E E   E  E   E  E   E
|------------------|--------------------------||
|------------------|--------------------------||
|-15--14--12--10---|-6-/9-9-/12-12-/15-15-/18-||
|--x---x---x---x---|-x-/x-x--/x--x--/x--x--/x-||
|-13--12--10---8---|-4-/7-7-/10-10-/13-13-/16-||
|------------------|--------------------------||
|
|  H       Q   E E   Q    Q      E   E  E   E
|------------------|--------------------------||
|------------------|--------------------------||
|------------------|-6----6------6---6--6---6-||
|--3-------3---3-3-|-7----7------7---7--7---7-||
|--3-------3---3-3-|-4----4------4---4--4---4-||
|--3-------3---3-3-|--------------------------||


 Bridge
  N.C.
  Gtr I
                               ~
                                                 |-3-|
   H.      E E   Q  Q  Q  Q    H      Q  Q    Q  E E E Q  Q
|--------------|-------------|--------------|-----------------|
|--------------|-------------|--------------|-----------------|
|------------2-|-------------|------/10--7--|-5----5----------|
|-/3-------5---|-5--3--5-----|--------------|----7---7--------|
|--------------|----------3--|-5------------|----------8--5---|
|--------------|-------------|--------------|-----------------|
|
| Gtr II
|                              ~
|                                                |-3-|
|  H.      E E   Q  Q  Q  Q    H      Q  Q    Q  E E E Q  Q
|--------------|-------------|--------------|-----------------|
|--------------|-------------|--------------|-----------------|
|--------------|-------------|-------/7-----|-----------------|
|--------------|-------------|-----------8--|-7----7---0------|
|-/5-------7-8-|-7--5--7--0--|-1------------|----8---8--------|
|--------------|-------------|--------------|-------------8---|


  Q  Q  Q  Q    Q  Q   Q  Q     E E E E  E E E  E   E  E E E E E E E
|-------------|--------------|--------------------|------------------||
|-------------|--------------|--------------------|------------------||
|-------------|-6--9---7--6--|-10-7----------7-10-|-9--------7---6---||
|-------5--8--|--------------|------7------8------|---10-7-----8---7-||
|-4--7--------|--------------|--------8-10--------|--------8---------||
|-------------|--------------|--------------------|------------------||
|
| Q  Q  Q  Q    Q  Q   Q  Q     E E E E  E E E  E   E  E E E E E E E
|-------------|--------------|--------------------|------------------||
|-------------|--------------|--------------------|------------------||
|-------------|----6--10--9--|--7---------------7-|-5----------------||
|----------5--|-7------------|----7--------5-8----|----7---7-8-5-7---||
|-0--4--7-----|--------------|------8-5--7--------|------8---------4-||
|-------------|--------------|--------------------|------------------||


 Re-Intro
   S  S  S  S  S  S  S  S  S  S  S  S  S  S  S  S
|-------------------------------------------------|
|-------------------------------------------------|
|-13-14-13----13----------14----13----13----------|
|----------15----15-14-15----15----15----15-14-15-|
|-------------------------------------------------|
|-------------------------------------------------|
|
|  W
|-------------------------------------------------|
|-------------------------------------------------|
|-------------------------------------------------|
|-------------------------------------------------|
|-------------------------------------------------|
|-------------------------------------------------|


   S  S  S  S  S  S  S  S  S  S  S  S  S  S  S  S
|----------------------------------------------13-||
|-------------------------------------------15----||
|-13-14-13----13----------14----13----13-14-------||
|----------15----15-14-15----15----15-------------||
|-------------------------------------------------||
|-------------------------------------------------||
|
|  S  S  S  S  S  S  S  S  S  S  S  S  S  S  S  S
|-------------------------------------------------||
|-------------------------------------------------||
|--9-10--9-----9----------10-----9-----9----------||
|----------12----12-11-12----12----12----12-11-12-||
|-------------------------------------------------||
|-------------------------------------------------||


 Verse
  D5                                   N.C.            D5
  Gtr III
   ~~~~~                                                 ~~~~
   H.                         +E   E     E.          S  +H               +Q
|-15b17----------------------(15)\---|-/17S=========13-(13)-------------(13)---------|
|------------------------------------|-----------------------------------------------|
|------------------------------------|-----------------------------------------------|
|------------------------------------|-----------------------------------------------|
|------------------------------------|-----------------------------------------------|
|------------------------------------|-----------------------------------------------|
|
| Gtr IV
|  Q          E  E      +H              +E     +E        E   E     +Q.        +E
|------------------------------------|-----------------------------------------------|
|------------------------------------|-----------------------------------------------|
|---------------18b22==(18)----------|-(18)r==(18)\---------13b15r(13)-------(13)b14-|
|------------------------------------|-----------------------------------------------|
|------------------------------------|-----------------------------------------------|
|------------------------------------|-----------------------------------------------|
|
| Gtrs I, II
|  S    S S S E  H                 E     S  S   S    S   E   H                 E
|------------------------------------|-----------------------------------------------|
|------------------------------------|-----------------------------------------------|
|------------------------------------|-----------------------------------------------|
|------------------------------------|-----------------------------------------------|
|-------------0----------------------|---3---------------0---------------------------|
|--0----0-0-0-0----------------------|------5---3----2---0---------------------------|


  D5                                     N.C.            D5
                ~~~~~~~                                    ~~~~~~~~~~~~~~~~~~~
    E.          S  +H.                     E.          S  +H                E  +E
|--------------------------------------|-/17S=========13-(13)-------------/20-(20)\----|
|-/18S=========15-(15)-----------------|-----------------------------------------------|
|--------------------------------------|-----------------------------------------------|
|--------------------------------------|-----------------------------------------------|
|--------------------------------------|-----------------------------------------------|
|--------------------------------------|-----------------------------------------------|
|
|  +E     +E        E   E      +H         +E     +E        E   E     +Q.       +E
|--------------------------------------|-----------------------------------------------|
|--------------------------------------|-----------------------------------------------|
|-(13)---(13)\---------18b22==(18)-----|-(18)r==(18)\---------13b15r(13)------(13)b14--|
|--------------------------------------|-----------------------------------------------|
|--------------------------------------|-----------------------------------------------|
|--------------------------------------|-----------------------------------------------|
|
|   S  S   S    S   E   H            E     S  S   S    S   E   H                E
|--------------------------------------|-----------------------------------------------|
|--------------------------------------|-----------------------------------------------|
|--------------------------------------|-----------------------------------------------|
|--------------------------------------|-----------------------------------------------|
|-------------------0------------------|---3---------------0---------------------------|
|---0--0---0----0---0------------------|------5---3----2---0---------------------------|


  N.C.
                         ~~~~
    H                   +H
|-/20b22---------------(20)--------------|
|----------------------------------------|
|----------------------------------------|
|----------------------------------------|
|----------------------------------------|
|----------------------------------------|
|
| Gtr I
|   PM-------|     PM|       PM    PM
|   S    S S S S S S S   S S S S S S S S
|----------------------------------------|
|----------------------------------------|
|----------------------------------------|
|----------------------------------------|
|--------------6p5-------3h5---1h3---1h3-|
|---0----0-0-0-----0-0-------0-----0-----|
|
| Gtr II
|   PM-------|     PM|       PM    PM
|   S    S S S S S S S   S S S S S S S S
|----------------------------------------|
|----------------------------------------|
|----------------------------------------|
|----------------------------------------|
|--------------6p5-------3h5---1h3---5h7-|
|---0----0-0-0-----0-0-------0-----0-----|


   +E     H.                           E
|-(20)\-------------------------------------|
|-------------------------------------------|
|-------------------------------------------|
|-------------------------------------------|
|-------------------------------------------|
|-------------------------------------------|
|
|   PM-------|     PM|      PM      PM
|   S   S S  S S S S S S  S S  S  S S  S  S
|-------------------------------------------|
|-------------------------------------------|
|-------------------------------------------|
|-------------------------------------------|
|--------------6p5-----8h10---10h12---10h12-|
|---0---0-0--0-----0-0------0-------0-------|
|
|   PM-------|     PM|      PM      PM
|   S   S S  S S S S S S  S S  S  S S  S  S
|-------------------------------------------|
|-------------------------------------------|
|-------------------------------------------|
|-------------------------------------------|
|--------------6p5-----8h10---10h12----7h=8-|
|---0---0-0--0-----0-0------0-------0-------|


  PM----|     PM|     PM    PM                     ~~
  S S S S S S S S S S S S S S S S    S  S  E S  S  E E  E    E  E
|---------------------------------|--------------------------------||
|---------------------------------|--------------------------------||
|---------------------------------|--------------------------------||
|---------------------------------|----------8h10h12---------------||
|---------6p5-----3h5---1h3---1h3-|-/8h10h12---------7S10\-/10S14--||
|-0-0-0-0-----0-0-----0-----0-----|--------------------------------||
|
| PM----|     PM|     PM    PM                     ~~
| S S S S S S S S S S S S S S S S    S  S  E S  S  E E  E    E  E
|---------------------------------|--------------------------------||
|---------------------------------|--------------------------------||
|---------------------------------|--------------------------------||
|---------------------------------|----------5h=7h=8---------------||
|---------6p5-----3h5---1h3---5h7-|-/5h=7h=8---------4S=7\--/7S11--||
|-0-0-0-0-----0-0-----0-----0-----|--------------------------------||


 Chorus
      D5                    Bb5                     A5    G5
  Gtrs I, II
                 PM-|     PM                  PM--|     PM
       Q      E  E  E   E E  E    +E   E  E   E   E  E  E  E
|------------------------------|-----------------------------|
|------------------------------|-----------------------------|
|------7------7---------7------|-----------------------------|
|------7------7--7--7---7----8-|--(8)--8-------------7-----5-|
|------5------5--5--5---5----8-|--(8)--8--8---8---8--7--7--5-|
|-------------------------0--8-|--(8)--8--8---8---8--7--7--5-|
|
| Gtr III
|   a  Q      E  E  E   E E  E    +E   E  E  +E   E  E  E  E
|-[15]15b17--15-13\------------|-----------------------------|
|------------------------------|--------------------------11-|
|---------------------/10---12-|-(12)p10--9--(9)\---12p=9----|
|------------------------------|-----------------------------|
|------------------------------|-----------------------------|
|------------------------------|-----------------------------|
|
| Gtr IV
|   a  Q      E  E  E   E E  E    +E   E  E  +E   E  E  E  E
|--12s13-----12----------------|--------------------------15-|
|---------------15\---/10---11-|-(11)p10---------------------|
|------------------------------|---------12-(12)\---15-12----|
|------------------------------|-----------------------------|
|------------------------------|-----------------------------|
|------------------------------|-----------------------------|


                          Dm/F                   C#m/E
             PM|      PM|
  +E   E  E  E  E  E  S S  E    +E   E      S  S   E +E   E  Q
|----------------------------|---------------------------------------------|
|----------------------------|---------------------------------------------|
|----------------------------|---------------------------------------------|
|-(5)--5-----------5--x-x--3-|--(3)--3------x--x---2-(2)--2--2-------------|
|-(5)--5--5--5--5--5--x-x--5-|--(5)--5------x--x---4-(4)--4--4-------------|
|-(5)--5--5--5--5--5--x-x--3-|--(3)--3------x--x---2-(2)--2--2-------------|
|
|  E   E  E  E  E  E  E    E    +E   E     +E      Q      E  E   a      E
|-------------------------13-|-(13)-13b15r(13)--------------15-(15)s===17--|
|-11--------15-15------------|-------------------/17-----18----------------|
|-----10-10-------14-14------|---------------------------------------------|
|----------------------------|---------------------------------------------|
|----------------------------|---------------------------------------------|
|----------------------------|---------------------------------------------|
|
|  E   E  E  E  E  E  E    E    +E   E     +E      Q      E  E   a   a  E
|-15--------13-13---------17-|-(17)-17b18r(17)--------------12-(12)s10s13--|
|-----15-15-------13-13------|--------------------14-----15----------------|
|----------------------------|---------------------------------------------|
|----------------------------|---------------------------------------------|
|----------------------------|---------------------------------------------|
|----------------------------|---------------------------------------------|


  D5                      Bb5                     A5       G5
          PM|           PM                  PM--|        PM
   Q   E  E   E     E   E  E    +E   E  E   E   E   E    E  E
|----------------------------|--------------------------------|
|----------------------------|--------------------------------|
|--7---7------------7--------|--------------------------------|
|--7---7--7---7-----7------8-|--(8)--8--------------7-------5-|
|--5---5--5---5-----5------8-|--(8)--8--8---8---8---7----7--5-|
|-----------------------0--8-|--(8)--8--8---8---8---7----7--5-|
|
|  Q   E  E  +E     E   E  E    +E   E  E  +E   E   S S  E  E
|-15-------------------------|---------------------10---------|
|-----18---------------------|------------------------8----11-|
|---------------------/10-12-|-(12)p10--9--(9)\----------9----|
|--------15-(15)s===8--------|--------------------------------|
|----------------------------|--------------------------------|
|----------------------------|--------------------------------|
|
|  Q   E  E  +E     E   E  E    +E   E  E  +E   E   E    E  E
|-12-------------------------|-----------------------------15-|
|-----15--------------/10-11-|-(11)p10------------------------|
|--------14-(14)\------------|---------12-(12)\---/15p==12----|
|-----------------/12--------|--------------------------------|
|----------------------------|--------------------------------|
|----------------------------|--------------------------------|


                          Dm/F                   C#m/E
             PM|      PM|
  +E   E  E  E  E  E  S S  E    +E   E      S  S   E +E   E  Q
|----------------------------|-------------------------------------|
|----------------------------|-------------------------------------|
|----------------------------|-------------------------------------|
|-(5)--5-----------5--x-x--3-|--(3)--3------x--x---2-(2)--2--2-----|
|-(5)--5--5--5--5--5--x-x--5-|--(5)--5------x--x---4-(4)--4--4-----|
|-(5)--5--5--5--5--5--x-x--3-|--(3)--3------x--x---2-(2)--2--2-----|
|
|  E   E  E  E  E  E  E    E    +E   E     +E      Q      E  E  E
|-------------------------13-|-(13)-13b15r(13)--------------15-----|
|-11--------15-15------------|-------------------/17-----18----17--|
|-----10-10-------14-14------|-------------------------------------|
|----------------------------|-------------------------------------|
|----------------------------|-------------------------------------|
|----------------------------|-------------------------------------|
|
|  E   E  E  E  E  E  E    E    +E   E     +E      Q      E  E  E
|-15--------13-13---------17-|-(17)-17b18r(17)--------------12-----|
|-----15-15-------13-13------|--------------------14-----15----14--|
|----------------------------|-------------------------------------|
|----------------------------|-------------------------------------|
|----------------------------|-------------------------------------|
|----------------------------|-------------------------------------|


  D5            Bb5                 A5  G5
        PM|   PM                PM|   PM
   Q  E E E E E E    +E   E   E E E E E E
|-----------------|-----------------------|
|-----------------|-----------------------|
|--7--7-----7-----|-----------------------|
|--7--7-7-7-7---8-|--(8)--8---------7---5-|
|--5--5-5-5-5---8-|--(8)--8---8-8-8-7-7-5-|
|-------------0-8-|--(8)--8---8-8-8-7-7-5-|
|
|  W                 +E   H..
|-----------------|-----------------------|
|-15--------------|-(15)\-----------------|
|-----------------|-----------------------|
|-----------------|-----------------------|
|-----------------|-----------------------|
|-----------------|-----------------------|
|
|  ~~
|  W                  W
|-----------------|-----------------------|
|-18--------------|-----------------------|
|-----------------|-----------------------|
|-----------------|-----------------------|
|-----------------|-----------------------|
|-----------------|-----------------------|


                     Dm/F             C#m/E
           PM|   PM|
  +E   E E E E E S S E   +E     E S S   E +E    E  Q
|----------------------|--------------------------------|
|----------------------|--------------------------------|
|----------------------|--------------------------------|
|-(5)--5-------5-x-x-3-|-(3)----3-x-x---2-(2)---2--2----|
|-(5)--5-5-5-5-5-x-x-5-|-(5)----5-x-x---4-(4)---4--4----|
|-(5)--5-5-5-5-5-x-x-3-|-(3)----3-x-x---2-(2)---2--2----|
|
|  H..               E   +E     E E     E  E    E  E  E
|----------------------|--------------------------18p17-|
|----------------------|------/10p9---/15p14--/17-------|
|--------------------9-|-(9)\---------------------------|
|----------------------|--------------------------------|
|----------------------|--------------------------------|
|----------------------|--------------------------------|
|
|  W                      W
|----------------------|--------------------------------|
|----------------------|--------------------------------|
|----------------------|--------------------------------|
|----------------------|--------------------------------|
|----------------------|--------------------------------|
|----------------------|--------------------------------|


  D5                 Bb5                      A5  G5
          PM|      PM                  PM|      PM
   Q    E E   E  E E   E     +E  E   E E   E  E E   E
|--------------------------|----------------------------|
|--------------------------|----------------------------|
|--7----7--------7---------|----------------------------|
|--7----7-7---7--7-----8---|-(8)-8------------7-----5---|
|--5----5-5---5--5-----8---|-(8)-8---8-8---8--7-7---5---|
|------------------0---8---|-(8)-8---8-8---8--7-7---5---|
|
|       ~~~~~~~~~                    ~~~~~~~~~
|  Q    Q    +Q.      +E      Q      Q    +Q.      +E
|-13--/17---(17)-----(17)\-|-10----/13---(13)-----(13)\-|
|--------------------------|----------------------------|
|--------------------------|----------------------------|
|--------------------------|----------------------------|
|--------------------------|----------------------------|
|--------------------------|----------------------------|
|
|       ~~~~~~~~~                    ~~~~~~~~~
|  Q    Q    +Q.      +E      Q      Q    +Q.      +E
|--------------------------|----------------------------|
|-15--/18---(18)-----(18)\-|-11----/15---(15)-----(15)--|
|--------------------------|----------------------------|
|--------------------------|----------------------------|
|--------------------------|----------------------------|
|--------------------------|----------------------------|


                  D5   Dm/F         D5   C#m/E
          PM|      PM|               PM|
  +E E  E E   E E  S S E    +E    E  S S   E +E    E  Q
|------------------------|---------------------------------|
|------------------------|---------------------------------|
|------------------------|---------------------------------|
|-(5)5----------5------3-|--(3)---3--------2-(2)---2--2----|
|-(5)5--5-5---5-5--0-0-5-|--(5)---5--0-0---4-(4)---4--4----|
|-(5)5--5-5---5-5--0-0-3-|--(3)---3--0-0---2-(2)---2--2----|
|
|  Q    Q     Q    Q         E    E  E     E  E    E  E  E
|-18S==13---/18S==10-----|---------------------------15----|
|------------------------|-/10--/14-14---/17-17--/18----18-|
|------------------------|---------------------------------|
|------------------------|---------------------------------|
|------------------------|---------------------------------|
|------------------------|---------------------------------|
|
|  Q    Q     Q    Q         E    E  E     E  E    E  E  E
|------------------------|---9--/12-12---/15-15--/17-18-15-|
|-20S==15---/20S==11-----|---------------------------------|
|------------------------|---------------------------------|
|------------------------|---------------------------------|
|------------------------|---------------------------------|
|------------------------|---------------------------------|


  D5                 Bb5                      A5  G5
          PM|      PM                  PM|      PM
   Q    E E   E  E E   E     +E  E   E E   E  E E   E
|--------------------------|----------------------------|
|--------------------------|----------------------------|
|--7----7--------7---------|----------------------------|
|--7----7-7---7--7-----8---|-(8)-8------------7-----5---|
|--5----5-5---5--5-----8---|-(8)-8---8-8---8--7-7---5---|
|------------------0---8---|-(8)-8---8-8---8--7-7---5---|
|
|       ~~~~~~~~~                    ~~~~~~~~~
|  Q    Q    +Q.      +E      Q      Q    +Q.      +E
|-13--/17---(17)-----(17)\-|-10----/13---(13)-----(13)\-|
|--------------------------|----------------------------|
|--------------------------|----------------------------|
|--------------------------|----------------------------|
|--------------------------|----------------------------|
|--------------------------|----------------------------|
|
|       ~~~~~~~~~                    ~~~~~~~~~
|  Q    Q    +Q.      +E      Q      Q    +Q.      +E
|--------------------------|----------------------------|
|-15--/18---(18)-----(18)\-|-11----/15---(15)-----(15)--|
|--------------------------|----------------------------|
|--------------------------|----------------------------|
|--------------------------|----------------------------|
|--------------------------|----------------------------|


                     D5   Dm/F        D5   C#m/E
             PM|      PM|              PM|
  +E   E  E  E  E  E  S S  E   +E   E  S S  E +E   E  Q
|----------------------------|-----------------------------|
|----------------------------|-----------------------------|
|----------------------------|-----------------------------|
|-(5)--5-----------5-------3-|-(3)--3-------2-(2)--2--2----|
|-(5)--5--5--5--5--5--0-0--5-|-(5)--5--0-0--4-(4)--4--4----|
|-(5)--5--5--5--5--5--0-0--3-|-(3)--3--0-0--2-(2)--2--2----|
|
|  E   E  E  E  E  E  E    E    E   E  E    E  E   E  E  E
|-15-----------------15------|-13--------------------------|
|-----15----------15------15-|-----15----------------14----|
|--------15----15------------|--------14------14--------14-|
|-----------17---------------|-------------15-----15-------|
|----------------------------|-----------------------------|
|----------------------------|-----------------------------|
|
|  E   E  E  E  E  E  E    E    E   E  E    E  E   E  E  E
|-18--15----------15-18---15-|-17--------------------------|
|--------15----15------------|-----18p15------15-----17p15-|
|-----------15---------------|-------------14-----14-------|
|----------------------------|-----------------------------|
|----------------------------|-----------------------------|
|----------------------------|-----------------------------|


  D5                 Bb5                      A5  G5
          PM|      PM                  PM|      PM
   Q    E E   E  E E   E     +E  E   E E   E  E E   E
|--------------------------|----------------------------|
|--------------------------|----------------------------|
|--7----7--------7---------|----------------------------|
|--7----7-7---7--7-----8---|-(8)-8------------7-----5---|
|--5----5-5---5--5-----8---|-(8)-8---8-8---8--7-7---5---|
|------------------0---8---|-(8)-8---8-8---8--7-7---5---|
|
|       ~~~~~~~~~                    ~~~~~~~~~
|  Q    Q    +Q.      +E      Q      Q    +Q.      +E
|-13--/17---(17)-----(17)\-|-10----/13---(13)-----(13)\-|
|--------------------------|----------------------------|
|--------------------------|----------------------------|
|--------------------------|----------------------------|
|--------------------------|----------------------------|
|--------------------------|----------------------------|
|
|       ~~~~~~~~~                    ~~~~~~~~~
|  Q    Q    +Q.      +E      Q      Q    +Q.      +E
|--------------------------|----------------------------|
|-15--/18---(18)-----(18)\-|-11----/15---(15)-----(15)--|
|--------------------------|----------------------------|
|--------------------------|----------------------------|
|--------------------------|----------------------------|
|--------------------------|----------------------------|


                       Dm/F             C#m/E
          PM|      PM|
  +E E  E E   E E  S S E   +E    E  S S   E +E    E  Q
|------------------------|--------------------------------------||
|------------------------|--------------------------------------||
|------------------------|--------------------------------------||
|-(5)5----------5--x-x-3-|-(3)---3--x-x---2-(2)---2--2----------||
|-(5)5--5-5---5-5--x-x-5-|-(5)---5--x-x---4-(4)---4--4----------||
|-(5)5--5-5---5-5--x-x-3-|-(3)---3--x-x---2-(2)---2--2----------||
|
|  Q    Q     Q    Q        E    E  E     E  E    E  S  S  S  S
|-18S==15---/18S==10-----|--------------------------15----------||
|------------------------|-10--/14-14---/15-15--/17----18-16-18-||
|------------------------|--------------------------------------||
|------------------------|--------------------------------------||
|------------------------|--------------------------------------||
|------------------------|--------------------------------------||
|
|  Q    Q     Q    Q        E    E  E     E  E    E  S  S  S  S
|------------------------|--9--/12-12---/15-15--/17-18-17-15-17-||
|-20S==15---/20S==11-----|--------------------------------------||
|------------------------|--------------------------------------||
|------------------------|--------------------------------------||
|------------------------|--------------------------------------||
|------------------------|--------------------------------------||


 Outro
  Eb5                        Bb5
   H                          H
|----------------------------------------------------|
|----------------------------------------------------|
|-----------------------------3----------------------|
|--1--------------------------3----------------------|
|--1--------------------------1----------------------|
|--1-------------------------------------------------|
|
| Gtr V
|  S   S  S    S  S  S  S  S  S  S  S  S  S  S  S  S
|-15----------15-------------------------------------|
|-----16-15------15-16-15----15s11----11-------------|
|-------------------------15-------12----12-10-12-10-|
|----------------------------------------------------|
|----------------------------------------------------|
|----------------------------------------------------|
|
|  E      H..
|-18\------------------------------------------------|
|----------------------------------------------------|
|----------------------------------------------------|
|----------------------------------------------------|
|----------------------------------------------------|
|----------------------------------------------------|


  Eb5                     Bb5
   H                       H
|--------------------------------------------|
|--------------------------------------------|
|--------------------------3-----------------|
|--1-----------------------3-----------------|
|--1-----------------------1-----------------|
|--1-----------------------------------------|
|
|                                         ~~
|  S  S  S  S  S  S  S  S  S  S  S  S  E  E
|-------------------------------11----11s15--|
|-------------------------11-----------------|
|-------------------10-------------13--------|
|-13s12----------12----13----13--------------|
|-------13-10-13-----------------------------|
|--------------------------------------------|
|
|  W
|--------------------------------------------|
|--------------------------------------------|
|--------------------------------------------|
|--------------------------------------------|
|--------------------------------------------|
|--------------------------------------------|


  F5                      C5
   H                       H
|---------------------------------------------|
|---------------------------------------------|
|--------------------------5------------------|
|--3-----------------------5------------------|
|--3-----------------------3------------------|
|--3------------------------------------------|
|
|  S  S  S  S  S  S  S  S  E  S  S  S  S  S S
|-17-------17-------------20------------------|
|----18-17----17-18-17-------18---------------|
|----------------------17-------17s15-17-15s9-|
|---------------------------------------------|
|---------------------------------------------|
|---------------------------------------------|


  F5                   C5
   H                    Q..                 +S
|-------------------------------------------------|
|-------------------------------------------------|
|-----------------------5-------------------(5)\--|
|--3--------------------5-------------------(5)\--|
|--3--------------------3-------------------(3)\--|
|--3----------------------------------------------|
|
|                                        ~~~
|  S S  S S  S S  S  S  S    S  S  S  S  E.
|------------------------------13----13s17--------|
|----------------------13---------10--------------|
|-10-9---------9-12-10------10--------------------|
|---------8-10------------------------------------|
|------10-----------------------------------------|
|-------------------------------------------------|


  D5          N.C.
  Gtr V
   ~~
   H       E    E  E  E
|---------------------------|
|-15------15\--------15b18==|
|-------------/14-15--------|
|---------------------------|
|---------------------------|
|---------------------------|
|
| Gtrs I, II
|                     ~~~~~~
|  Q  E E  E    E  E  E
|---------------------------|
|---------------------------|
|---------------------------|
|---------------------------|
|--0-------0----------------|
|--0--0-0--0----8--7--6-----|


                                   D5
                                   PM----------|
   +H.                 +E   +E     S e S e S S H
|--------------------------------|------------------*|
|-(15)----------------(15)r(15)\-|------------------*|
|--------------------------------|------------------*|
|--------------------------------|------------------*|
|--------------------------------|-0-0-0-0-0-0------*|
|--------------------------------|-0-0-0-0-0-0------*|
|
|                            ~~~~~ PM----------|
|  +E   E E E +E    E   E    E     S e S e S S H
|--------------------------------|------------------*|
|--------------------------------|------------------*|
|--------------------------------|------------------*|
|------------------/8---7--------|------------------*|
|-----------7-(7)\-----------4---|-0-0-0-0-0-0------*|
|--(6)\-0-6----------------------|-0-0-0-0-0-0------*|


--------------------------------------------------------------------------------


Duration Legend
---------------
W - whole; H - half; Q - quarter; E - 8th; S - 16th; T - 32nd; X - 64th; a - acciaccatura
+ - note tied to previous; . - note dotted; .. - note double dotted
Uncapitalized letters represent notes that are staccato (1/2 duration)
Irregular groupings are notated above the duration line
Duration letters will always appear directly above the note/fret number it represents the
duration for.  Duration letters with no fret number below them represent rests.  Multi-
bar rests are notated in the form Wxn, where n is the number of bars to rest for.  Low
melody durations appear below the staff

Tablature Legend
----------------
 h   - hammer-on
 p   - pull-off
 b   - bend
 pb  - pre-bend
 r   - bend release (if no number after the r, then release immediately)
 /\  - slide into or out of (from/to "nowhere")
 s   - legato slide
 S   - shift slide
<n> - natural harmonic
[n]  - artificial harmonic
n(n) - tapped harmonic
 ~   - vibrato
 tr  - trill
 T   - tap
 TP  - trem. picking
 PM  - palm muting
\n/  - tremolo bar dip; n = amount to dip
 \n  - tremolo bar down
 n/  - tremolo bar up
/n\  - tremolo bar inverted dip
 =   - hold bend; also acts as connecting device for hammers/pulls
 <> - volume swell (louder/softer)
 x   - on rhythm slash represents muted slash
 o   - on rhythm slash represents single note slash

Misc Legend
-----------
 |  - bar
||  - double bar
||o - repeat start
o|| - repeat end
*|  - double bar (ending)
 :  - bar (freetime)
 $  - Segno
 &  - Coda
Tempo markers - <E/E./Q/Q./H/H.> = BPM(8/16=s8/s16), where s8 = swing 8ths, s16 = swing 16ths

-Seth Shadows {F.u.c.kallyourfalsebeauty@hotmail.com}
comments
print report bad tab
5 comments total. Showing first comments.
+1 reply
thezac wrote on May 17 2007, 10:42 am

its really hard to follow

+1 reply
Seth Shadows wrote on May 17 2007, 11:45 am

Alright, I did it in order. L means let it ring for the specified note duration. And they're All done individually. each of them have 215 bars. so say, youre playing rhythm on br 40, and wondering what lead is playing. Scroll down to one of the lead guitars and go to bar 40. It's a bit confusing. but its directly from the tab book ;) if you buy it. check it.

0 reply
Ghost:o wrote on September 25 2007, 04:13 am

Where did you get the tab book from?

I want to post or [tab]
guest
You may want to rate the tab now too:
select rating
Please do not post tabs as comments. Select "correction" instead!