Oops, an error
Loading. Please wait.

Hey Brother Tab

ver3
ver3

Solo

Whole song

Interactive

Video

More versions @911Tabs.com
81,537 views 1,084 this week
9 commentsread comments
1 2 3 4 5
excellent!
x 31
Autoscroll
+/-
esc
set tempo
stop
Contributor
Difficulty
intermediate
Hey! There's an official Ultimate Guitar app which is ideal
for learning songs when you're away from computer. Get the app
WARNING: You are trying to view
                                    content from Ultimate-Guitar.com
                                    in an unauthorized application,
                                    which is prohibited.

                                    Please use an official Ultimate
                                    Guitar Tabs application for iPhone,
                                    iPad or Android to access legitimate
                                    chords, guitar, bass, and drum tabs
                                    from Ultimate-Guitar.com database.

                                    Type "ultimate guitar tabs" in Apple
                                    App Store's or Android Market's
                                    search to find the application.
Hey Brother - Avicii

You will find my explanation video on my
youtube channel ipsaous .

****************************************************
Info : For the rythm, you can just do Down UP.
When you see G(2), you have to play
2 times DU so u play DUDU etc .... :D
****************************************************




Capo 3

Intro

   Em
e|-----------------------------------------|
B|-----------------------------------------|
G|-----------------------------------------|
D|----2---2---2---2---2---2---2---2--------|
A|-----------------------------------------|
E|--0---0---0---0---0---0---0---0----------|


Verse 1

     Em
e||---------------------------------------|
B||---------------------------------------|
G||*--------------------------------------|
D||*----2---2---2---2---2---2---2---2-----|
A||---------------------------------------|
E||---0---0---0---0---0---0---0---0-------|
     Hey              Brother,    There's an
     Hey              sister,     Know the

    C           G          D          Em
e|--------------------------------------------------------||
B|--------------------------------------------------------||
G|------0---0--------------------------------------------*||
D|----------------0---0------7--7--------2---2---2---2---*||
A|---3---3-----------------5---5--------------------------||
E|--------------3---3-----------------0---0---0---0-------||
     endless  road to    Redis   -    cover
     water's  sweet but  blood   is   thicker.


   D                    G          C          D               D
e|---------------------------------------------------------------------------|
B|---------------------------------------------------------------------------|
G|----------------------------------0---0------------------------------------|
D|---7---7---7---7-------0---0-----------------7---7---7---7---7---7---7---7-|
A|-5---5---5---5------------------3---3------5---5---5---5---5---5---5---5---|
E|---------------------3---3-------------------------------------------------|
   Ooooh       if the  sky comes  falling    down          for you    there’s

     G                C                  Em
e|--------------------------------------------0----------------------------|
B|-------------------------------------------0-----------------------------|
G|-----------------------0-----0------------0------------------------------|
D|-----0---0-------------------------------2-------------------------------|
A|--------------------3----3--------------2--------------------------------|
E|---3---3-------------------------------0---------------------------------|
   nothing in this   world I wouldn't    do


Verse 2

Em(8)              C(2)      G(2)    D(2)   Em(4)
Hey Brother, do you still believe in one another?
Em(8)              C(2)      G(2)    D(2)   Em(4)
Hey Sister, do you still believe in love I wonder?
D(4)         G(2)      C(2)    D(4)      D(4)
Ooooh if the sky comes falling down, for you,
        G(2)            C(2)             Em(4) + 1 fois B
there’s nothing in this world I wouldn't do.

Riff
E|-3-2

Chorus

Em(4)          C(2)     G(8)
   What if I'm far from home?
                                Em(4)
Oh Brother I will hear you call.
          C(2)    G(8)
What if I lose it all?

Oh Sister I will help you out!

D(4)         G(2)      C(2)    D(4)      D(4)
Ooooh if the sky comes falling down, for you,
        G(2)            C(2)             Em(4) + 1 fois B
there’s nothing in this world I wouldn't do.


Solo

e|------||-----------------------------------------------2p0-------------||
B|------||--------------0-3-5-5-3-3----------------0-3-5------3----------||
G|--0---||*-----------0-------------------0-0-0-0---------------4p2p0---*||
D|----4-||*---2-2-2------------------0h2--------------------------------*|| X 3
A|------||---------------------------------------------------------------||
E|------||---------------------------------------------------------------||

e|-----------------------------------------0--------|
B|--------------0-3-5-5-3-3------------------3-0-3--|
G|-----------0-------------------0-0-0-0------------|
D|---2-2-2------------------0h2---------------------|
A|--------------------------------------------------|
E|--------------------------------------------------|

e|-----------------------------------------------2p0------------||
B|--------------0-3-5-5-3-3----------------0-3-5------3---------||
G|-----------0-------------------0-0-0-0---------------4p2p0---*||
D|---2-2-2------------------0h2--------------------------------*|| X 2
A|--------------------------------------------------------------||
E|--------------------------------------------------------------||

Play this chords during the solo ( 6 times )

Em(4)  C(2)  D(2)

Verse 3

Em                      C       G       D      Em
Hey Brother, there’s an endless road to re-discover.
Em                 C        G      D      Em
Hey Sister, do you still believe in love I wonder?
D            G         C       D          D
Ooooh if the sky comes falling down, for you,
        G               C                Em
there’s nothing in this world I wouldn't do.


E|-3-2

Chorus

Em             C        G
   What if I'm far from home?
                                Em
Oh Brother I will hear you call.
          C       G
What if I lose it all?

Oh Sister I will help you out!
D            G         C       D
Ooooh if the sky comes falling down, for you,
        G               C                Em
there's nothing in this world I wouldn't do.



Chorus:

Em C D
comments
print report bad tab
9 comments total. Showing first comments.
0 reply
plime97 wrote on December 23 2013, 11:11 pm

I'm not going to say that this tab is perfect, but it simplified the song just enough to let me play it without having too much trouble. Also like the solo in the middle, I'll try getting to see if someone can do a duo with me on this one!

0 reply
Ipsaous wrote on December 26 2013, 01:45 pm

Glad to help you ! :)

-2 reply
OmegaJ wrote on February 17 2014, 04:37 am

the start is wrong...
it should be

--------------------
--------------------
---------------------
-------------------
---5-5-5-5-5-5------
--3-3-3-3-3-3-3-----

I want to post or [tab]
guest
You may want to rate the tab now too:
select rating
Please do not post tabs as comments. Select "correction" instead!