Oops, an error
Loading. Please wait.

Armbands And Braids Tab

ver1
ver1

Intro

Whole song

More versions @911Tabs.com
157 views 1 this week
1 commentread comment
1 2 3 4 5
excellent!
x 2
Autoscroll
+/-
esc
set tempo
stop
Contributor
Hey! There's an official Ultimate Guitar app which is ideal
for learning songs when you're away from computer. Get the app
WARNING: You are trying to view
                                    content from Ultimate-Guitar.com
                                    in an unauthorized application,
                                    which is prohibited.

                                    Please use an official Ultimate
                                    Guitar Tabs application for iPhone,
                                    iPad or Android to access legitimate
                                    chords, guitar, bass, and drum tabs
                                    from Ultimate-Guitar.com database.

                                    Type "ultimate guitar tabs" in Apple
                                    App Store's or Android Market's
                                    search to find the application.
Standard tuning
Played on G major scale
PM represented by ....

Guitar 1
INTRO: 0:00 - 0.11
e  --2-----2-----3-----3-----2-----2-----2------------2---3--|   x2
B -----------------------------------------------3---5-------|
G ----4-----4-----4-----4-----4-----4-----4------------------|
D -----------------------------------------------------------|
A -----------------------------------------------------------|
E -----------------------------------------------------------|

Guitar 2
INTRO: 0:06 - 0:11
e  -------------------------------------------------------------------------------------|
B --------------------------------------------------------------------------------------|
G --------------------------------------------------------------------------------------|
D --2--------------7-----------9--------------------------------------------------------|
A --2--------------7-----------9--------------------------------------------------------|
E --0--------------5-----------7--------------------------------------------------------|

Guitar's 1 & 2
Verse: 0:11 - 0:22
e  -------------------------------------------------------------------------------------|
B --------------------------------------------------------------------------------------|
G --9-----9--9--9--9--9--9--9-----------------------------------------------------------|
D --9-----9--9--9--9--9--9--9--10-----10--10--10--10--10--10--10------------------------|
A --7-----7--7--7--7--7--7--7--10-----10--10--10--10--10--10--10------------------------|
E ----------------------------------8-------8---8---8---8----8----8---8-----------------|

e  --------------------------------------------------------|  x2
B ---------------------------------------------------------|
G ---------------------------------------------------------|
D --9-----9--9--9--9--9--9--9----7--7--7--7----9--9--9--9--|
A --9-----9--9--9--9--9--9--9----7--7--7--7----9--9--9--9--|
E --7-----7--7--7--7--7--7--7----5--5--5--5----7--7--7--7--|

Guitar 1
Play Intro Once: 0:22 - 0:28

Guitar's 1 & 2
Play: 0:28 - 0:32

e  -------------------------------------------------------------------------------------|
B --------------------------------------------------------------------------------------|
G --9-----9--9--9--9--9--9--9-----------------------------------------------------------|
D --9-----9--9--9--9--9--9--9--10-----10--10--10--10--10--10--10------------------------|
A --7-----7--7--7--7--7--7--7--10-----10--10--10--10--10--10--10------------------------|
E ----------------------------------8-------8---8---8---8----8----8---8-----------------|

e  ----------------------------------------------------------|  x2
B -----------------------------------------------------------|
G -----------------------------------------------------------|
D --9-----9--9--9--9--9--9--9-----7-----7--7--7--7--7--7--7--|
A --9-----9--9--9--9--9--7--7-----7-----7--7--7--7--7--7--7--|
E --7-----7--7--7--7--7--7--7-----5-----5--5--5--5--5--5--5--|

Guitar's 1 & 2
Play: 0:33 - 0:43

e  ----------------------------------------| x2
B -----------------------------------------|
G --------------------------7--(12 times)--|
D --5--(12 times)--------7-----------------|
A --5----------------------5---------------|
E --3--------------------------------------|

Guitar's 1 & 2
Play Verse: 0:43 - 0:54
-------------------------------
Guitar 1:
0:54 - 1:00

e  --2-----2-----3-----3-----2-----2-----2------------2---3---2------------------------|
B -----------------------------------------------3---5---------------------------------|
G ----4-----4-----4-----4-----4-----4-----4--------------------------------------------|
D -------------------------------------------------------------------------------------|
A -------------------------------------------------------------------------------------|
E -------------------------------------------------------------------------------------|

Guitar 2:
1:00 - 1:04

e  -------------------------------------------------------------------------------------|
B --------------------------------------------------------------------------------------|
G --------------------------------------------------------------------------------------|
D --2--------------7--7---------9--------7----------------------------------------------|
A --2--------------7--7---------9--------7----------------------------------------------|
E --0--------------5--5---------7--------5----------------------------------------------|

Guitar's 1 & 2:
1:05 - 1:29

e  --------------------------------------------------------------------------------------|
B ---------------------------------------------------------------------------------------|
G --------------------------------7--7--7--7--7--7--7--7----5--5--5--5--5--5-------------|
D --5--5--5--5--5--5--5--5----7--7--7--7--7--7--7--7----5--5--5--5--5--5-----------------|
A --5--5--5--5--5--5--5--5----5--5--5--5--5--5--5--5----3--3--3--3--3--3-----------------|
E --3--3--3--3--3--3--3--3---------------------------------------------------------------|
           .......................         ........................          .................

e  -------------------------------------------------------------------------------------|
B --------------------------------------------------------------------------------------|
G --5--5----7--7--7--7--7--7--7--7----------------------------------7--7--7--7----------|
D --5--5----7--7--7--7--7--7--7--7----5--5--5--5--5--5--5--5----7--7--7--7--------------|
A --3--3----5--5--5--5--5--5--5--5----5--5--5--5--5--5--5--5----5--5--5--5--------------|
E -----------------------------------------3--3--3--3--3--3--3--3-----------------------|
     ......           .......................         . ......................         ..........

e  --------------------------------------------------------------------------------------|
B ---------------------------------------------------------------------------------------|
G --7--7--7--7----5--5--5--5--5--5--5--5----7--7--7--7--7--7--7--7-----------------------|
D --7--7--7--7----5--5--5--5--5--5--5--5----7--7--7--7--7--7--7--7-----------------------|
A --5--5--5--5----3--3--3--3--3--3--3--3----5--5--5--5--5--5--5--5-----------------------|
E ---------------------------------------------------------------------------------------|
       ............          .......................

e  --------------------------------------------------------------------------------------|
B ---------------------------------------------------------------------------------------|
G --------------------------7----7----7----7------5----5--5--5--5--5--5--5---------------|
D --5----5----5----5------7----7----7----7------5----5--5--5--5--5--5--5-----------------|
A --5----5----5----5------5----5----5----5------3----3--3--3--3--3--3--3-----------------|
E --3----3----3----3---------------------------------------------------------------------|

e  --------------------------------------------------------------------------------------|
B ---------------------------------------------------------------------------------------|
G --7----7--7--7--7--7--7--7------12----12--12--12--12--12--12--12-----------------------|
D --7----7--7--7--7--7--7--7------12----12--12--12--12--12--12--12-----------------------|
A --5----5--5--5--5--5--5--5------10----10--10--10--10--10--10--10-----------------------|
E ---------------------------------------------------------------------------------------|

e  --------------------------------------------------------------------------------------|
B ---------------------------------------------------------------------------------------|
G --7----7--7--7--7--7--7--7------5--5--5--5--5--5--5--5--5--5--5--5---------------------|
D --7----7--7--7--7--7--7--7------5--5--5--5--5--5--5--5--5--5--5--5---------------------|
A --5----5--5--5--5--5--5--5------3--3--3--3--3--3--3--3--3--3--3--3---------------------|
E ---------------------------------------------------------------------------------------|
                                                         ...................

e  --------------------------------------------------|
B ---------------------------------------------------|
G --7--7--7--7--7--7--7--7--7--7--7--7---------------|
D --7--7--7--7--7--7--7--7--7--7--7--7---------------|
A --5--5--5--5--5--5--5--5--5--5--5--5---------------|
E ---------------------------------------------------|
            ....................

Guitar 1
Play Intro: 1:29 - 1:39

e  --2-----2-----3-----3-----2-----2-----2-------------2---3--|   x2
B ------------------------------------------------3---5-------|
G -----4-----4-----4-----4-----4-----4-----4------------------|
D ------------------------------------------------------------|
A ------------------------------------------------------------|
E ------------------------------------------------------------|

Guitar 2
Play Intro: 1:29 - 1:39

e  -------------------------------------------------------------------------------------|
B --------------------------------------------------------------------------------------|
G --------------------------------------------------------------------------------------|
D --2--------------7---7--------9-------------------------------------------------------|
A --2--------------7---5--------9-------------------------------------------------------|
E --0--------------5---5--------7-------------------------------------------------------|

Guitars 1 & 2:
1:40 - 2:01

e  -------------------------------------------------------------------------------------|
B --------------------------------------------------------------------------------------|
G --9-----9--9--9--9--9--9--9-----------------------------------------------------------|
D --9-----9--9--9--9--9--9--9--10-----10--10--10--10--10--10--10------------------------|
A --7-----7--7--7--7--7--7--7--10-----10--10--10--10--10--10--10------------------------|
E ----------------------------------8-------8---8---8---8----8----8---8-----------------|

e  ------------------------------------------------------------------------------------|
B -------------------------------------------------------------------------------------|
G -------------------------------------------------------------------------------------|
D --9-----9--9--9--9--9--9--9--9--9--9--9--9--9--9--9----------------------------------|
A --9-----9--9--9--9--9--9--9--9--9--9--9--9--9--9--9----------------------------------|
E --7-----7--7--7--7--7--7--7--7--7--7--7--7--7--7--7----------------------------------|

e  -------------------------------------------------------------------------------------|
B --------------------------------------------------------------------------------------|
G --9-----9--9--9--9--9--9--9-----------------------------------------------------------|
D --9-----9--9--9--9--9--9--9--10-----10--10--10--10--10--10--10------------------------|
A --7-----7--7--7--7--7--7--7--10-----10--10--10--10--10--10--10------------------------|
E ----------------------------------8-------8---8---8---8----8----8---8-----------------|

e  ------------------------------------------------------------------------------------|
B -------------------------------------------------------------------------------------|
G -------------------------------------------------------12--12--12--------------------|
D --9-----9--9--9--9--9--9--9--9--9--9--9--9------12--12--12---------------------------|
A --9-----9--9--9--9--9--9--9--9--9--9--9--9------10--10--10---------------------------|
E --7-----7--7--7--7--7--7--7--7--7--7--7--7-------------------------------------------|

e  -------------------------------------------------------------------------------------|
B --------------------------------------------------------------------------------------|
G --9-----9--9--9--9--9--9--9-----------------------------------------------------------|
D --9-----9--9--9--9--9--9--9--10-----10--10--10--10--10--10--10------------------------|
A --7-----7--7--7--7--7--7--7--10-----10--10--10--10--10--10--10------------------------|
E ----------------------------------8-------8---8---8---8----8----8---8-----------------|

e  ------------------------------------------------------------------------------------|
B -------------------------------------------------------------------------------------|
G -------------------------------------------------------------------------------------|
D --9-----9--9--9--9--9--9--9--9--9--9--9--9--9--9--9----------------------------------|
A --9-----9--9--9--9--9--9--9--9--9--9--9--9--9--9--9----------------------------------|
E --7-----7--7--7--7--7--7--7--7--7--7--7--7--7--7--7----------------------------------|

e  -------------------------------------------------------------------------------------|
B --------------------------------------------------------------------------------------|
G --9-----9--9--9--9--9--9--9-----------------------------------------------------------|
D --9-----9--9--9--9--9--9--9--10-----10--10--10--10--10--10--10------------------------|
A --7-----7--7--7--7--7--7--7--10-----10--10--10--10--10--10--10------------------------|
E ----------------------------------8-------8---8---8---8----8----8---8-----------------|

e  ------------------------------------------------------------------------------------|
B -------------------------------------------------------------------------------------|
G --------------------------------------7--7--7----------------------------------------|
D --9-----9--9--9--9--9--9--9-------7--7--7--------------------------------------------|
A --9-----9--9--9--9--9--9--9-------5--5--5--------------------------------------------|
E --7-----7--7--7--7--7--7--7----------------------------------------------------------|

Guitar's 1 & 2:
2:01 - 2:13

e  ------------------------------------------------------------------------------------|
B -------------------------------------------------------------------------------------|
G --12----12--12--12--12--12--12--12------7----7--7--7--7--7--7--7---------------------|
D --12----12--12--12--12--12--12--12------7----7--7--7--7--7--7--7---------------------|
A --10----10--10--10--10--10--10--10------5----5--5--5--5--5--5--5---------------------|
E -------------------------------------------------------------------------------------|

e  ---------------------------------------------------------|   x2
B ----------------------------------------------------------|
G --5----5--5--5--5--5--5--5------7----7--7--7--7--7--7--7--|
D --5----5--5--5--5--5--5--5------7----7--7--7--7--7--7--7--|
A --3----3--3--3--3--3--3--3------5----5--5--5--5--5--5--5--|
E ----------------------------------------------------------|

2:13 - 2:25

e  --------------------------------------------------------------------------------------|
B ---------------------------------------------------------------------------------------|
G --------------------------7----7----7--7--7-----5----5--5--5--5--5--5--5---------------|
D --5----5----5--5--5----7----7----7--7--5-----5----5--5--5--5--5--5--5------------------|
A --5----5----5--5--5----5----5----5--5--5-----3----3--3--3--3--3--3--3------------------|
E --3----3----3--3--3--------------------------------------------------------------------|

e  --------------------------------------------------------------------------------------|
B ---------------------------------------------------------------------------------------|
G --7----7--7--7--7--7--7--7------12----12--12--12--12--12--12--12-----------------------|
D --7----7--7--7--7--7--7--7------12----12--12--12--12--12--12--12-----------------------|
A --5----5--5--5--5--5--5--5------10----10--10--10--10--10--10--10-----------------------|
E ---------------------------------------------------------------------------------------|

e  --------------------------------------------------------------------------------------|
B ---------------------------------------------------------------------------------------|
G --7----7--7--7--7--7--7--7------5--5--5--5--5--5--5--5--5--5--5--5---------------------|
D --7----7--7--7--7--7--7--7------5--5--5--5--5--5--5--5--5--5--5--5---------------------|
A --5----5--5--5--5--5--5--5------3--3--3--3--3--3--3--3--3--3--3--3---------------------|
E ---------------------------------------------------------------------------------------|
                                                         ............

e  --------------------------------------------------|
B ---------------------------------------------------|
G --7--7--7--7--7--7--7--7--7--7--7--7---------------|
D --7--7--7--7--7--7--7--7--7--7--7--7---------------|
A --5--5--5--5--5--5--5--5--5--5--5--5---------------|
E ---------------------------------------------------|

Guitar's 1 & 2:
2:26 - 2:45

e  ----------------------------------------| x2
B -----------------------------------------|
G --------------------------7--(12 times)--|
D --5--(12 times)--------7-----------------|
A --5----------------------5---------------|
E --3--------------------------------------|

End On:

e  -------------------------------------------------------------------------------------|
B --------------------------------------------------------------------------------------|
G --------------------------------------------------------------------------------------|
D --2-----------------------------------------------------------------------------------|
A --2-----------------------------------------------------------------------------------|
E --0-----------------------------------------------------------------------------------|

Ladies and Gentlemen: Avoid One Thing kicks major ass and why nobody really knows who 
are is disappointing so go out and tell your friends.

Peace Out - Jefe de rancho Thea

Questions? Concerns? Comments? My bad I don't care...
comments
We did not receive enough feedback on this tab! Please rate:
print report bad tab
1 2 3 4 5
1 comment total.
0 reply
shadowsfall92 wrote on December 30 2009, 08:35 pm

excellent tab my friend

I want to post or [tab]
guest
You may want to rate the tab now too:
select rating
Please do not post tabs as comments. Select "correction" instead!