Oops, an error
Loading. Please wait.

Bitchin Summer Tab

3,304 views 60 this week
1 commentread comment
1 2 3 4 5
excellent!
x 6
Autoscroll
+/-
esc
set tempo
stop
Difficulty
novice
Hey! There's an official Ultimate Guitar app which is ideal
for learning songs when you're away from computer. Get the app
WARNING: You are trying to view
                                    content from Ultimate-Guitar.com
                                    in an unauthorized application,
                                    which is prohibited.

                                    Please use an official Ultimate
                                    Guitar Tabs application for iPhone,
                                    iPad or Android to access legitimate
                                    chords, guitar, bass, and drum tabs
                                    from Ultimate-Guitar.com database.

                                    Type "ultimate guitar tabs" in Apple
                                    App Store's or Android Market's
                                    search to find the application.
----------------------------
SONG: BITCHIN SUMMER
ARTIST: AVRIL LAVIGNE
ALBUM: AVRIL LAVIGNE (2013)
----------------------------

Hey guys this is my first tab! None of the tabs had the picking 
part so i thought i'd add it. Listen to the song to get the 
picking pattern, its fairly simple. 
Credit to @hitoriyuuki for the chords!

p=pull off
h=hammer down
~=let ring

CAPO ON 1


Intro:

e-------------------------------------------------------------------|
B---------------------------------------------0h1p0-----------------|
G--------0--------------0----------0-----------------0--------------|
D-------3-------------2--------0h2----------------------------------|  
A------3------3-3-3-3--------0--------------------------------------|
E-----1---------------------------------3-3-3-----------------------|

e-------------------------------------------------------------------|
B---------------------------------------------0h1-------------------|
G--------0--------------0----------0--------------------------------|
D-------3-------------2--------0h2----------------------------------|  
A------3------3-3-3-3--------0--------------------------------------|
E-----1---------------------------------3-3-3-----------------------|
uh oh oh oh 
uh oh oh

Verse:
e-------------------------------------------------------------------|
B---------------------------------------------0h1p0-----------------|
G--------0--------------0----------0-----------------0--------------|
D-------3-------------2--------0h2----------------------------------|  
A------3------3-3-3-3--------0--------------------------------------|
E-----1---------------------------------3-3-3-----------------------|
                                                                       x2
e-------------------------------------------------------------------|
B---------------------------------------------0h1-------------------|
G--------0--------------0----------0--------------------------------|
D-------3-------------2--------0h2----------------------------------|  
A------3------3-3-3-3--------0--------------------------------------|
E-----1---------------------------------3-3-3-----------------------|
Everyone is waiting on the bell (on the bell) 
A couple seconds we'll be raising hell (raising hell)
The sun is shining down, the school is finally out
Nothing matters so we might as well (might as well)


e-------------------------------------------------------------------|
B---------------------------------------------0h1p0-----------------|
G--------0--------------0----------0-----------------0--------------|
D-------3-------------2--------0h2----------------------------------|  
A------3------3-3-3-3--------0--------------------------------------|
E-----1---------------------------------3-3-3-----------------------|
Everybody's baking in the sun
Come and party do it while we're young

e-------------------------------------------------------------------|
B-------------------------------------------------------------------|
G--------0--------------0----------0--------------------------------|
D-------3-------------2--------0h2----------------------------------|  
A------3------3-3-3-3--------0--------------------------------------|
E-----1---------------------------------3~--------------------------|
Move your body when you hear the drum
So put your hands up

Chorus: (F,C,Am,G)
                   F       C
It's gonna be a bitchin' summer
  Am                     G
We'll be living fast kicking ass together
        F       C    
like high school lovebirds
  Am                 G
Gonna have a blast make it last forever

        F          C    
I'll pick you up at the liquor store
  Am                     G
Hurry up we can fit one more
      F       C
It's now or never
      Am                   G *mute*
It's gonna gonna be be a bitchin' summer

   F     C    Am       G
Oh oh oh oh, oh oh oh, Bitchin' summer
   F     C    Am       G *mute*
Oh oh oh oh, oh oh oh, Bitchin' summer


Repeat Chords for Rest of the song or continue same picking pattern:

Throwing empty bottles in the fire
Whiskey's got us singing like a choir
We're all gonna run when the police come
But in the moment we are so alive

Everybody's baking in the sun
Come and party do it while we're young
Move your body when you hear the drum
So put your hands up

It's gonna be a bitchin' summer
We'll be living fast, kickin' ass together
Like high school lovebirds
Gonna have a blast make it last forever

I'll pick you up at the liquor store
Hurry up we can fit one more
It's now or never
It's gonna gonna be be a bitchin' summer

Oh oh oh oh oh oh oh
Bitchin' summer
Oh oh oh oh oh oh oh
Bitchin' summer

(Bridge)
Right here at the beach, the party don't stop
If we don't get harassed by the motherfuckin' cops
A quarter tank of gas, About half a pack
My cellphone's dying but there’s no turning back
I can feel the breeze steering with on my knee
Drummin' on the dashboard, bumpin' to the beat
Hit the windshield wiper, searching for my lighter
I gotta get right before this all nighter

Chorus:
It's gonna be a bitchin' summer
We'll be living fast, kickin' ass together
Like high school lovers
Gonna have a blast, make it last more ever
I'll pick you up at the liquor store
Pour it up and you get one more
It's now or never
It's gonna gonna be be a bitchin' summer

Oh oh oh oh oh oh oh
Bitchin' summer
Oh oh oh oh oh oh oh
Bitchin' summer

Pick you up at the liquor store
Hurry up we can fit one more
It's now or never
It's gonna gonna be be a bitchin' summer
comments
print report bad tab
1 comment total.
+1 reply
brettcadamson wrote on October 24 2014, 08:25 am

Hi, thank you for the tab! After running the audio through my slow mo app I think the first part might be just slightly different. See what you think of this:

e----------------------------|
B----------------------------|
G--------0-------------0-----|
D-----0h2----------0h2-------|
A------------3-3-3-----------|
E----1-----------------------|

I want to post or [tab]
guest
You may want to rate the tab now too:
select rating
Please do not post tabs as comments. Select "correction" instead!