Oops, an error
Loading. Please wait.

Forgotten Tab

ver1
ver1

Intro

Whole song

More versions @911Tabs.com
4,051 views 3 this week
1 commentread comment
1 2 3 4 5
accurate
x 5
Autoscroll
+/-
esc
set tempo
stop
Contributor
WARNING: You are trying to view
                                    content from Ultimate-Guitar.com
                                    in an unauthorized application,
                                    which is prohibited.

                                    Please use an official Ultimate
                                    Guitar Tabs application for iPhone,
                                    iPad or Android to access legitimate
                                    chords, guitar, bass, and drum tabs
                                    from Ultimate-Guitar.com database.

                                    Type "ultimate guitar tabs" in Apple
                                    App Store's or Android Market's
                                    search to find the application.
Avril Lavigne
Forgotten Intro
Originally came from piano and I transposed it to guitar.

Tabbed by:n2sd_182
Email:canuck_inbred@yahoo.com

Tuning: standard EADGBe


(Ah-ha-ha-ha)

e|----8----------------------------------|
B|--8------------------------------------|
G|--------8-7----------------------------|
D|---------------------------------------| (x4)
A|------6---5----------------------------|
E|--8-----------7------------------------|

sounds 100% to me.

Verse (i'm giving up, on everything...)

e|---------------------------------------|
B|---------------------------------------|
G|---------------------------------------|
D|---------------------------------------| (x4)
A|------6---5----------------------------|
E|--8-----------6------------------------|
1 comment total.
0 reply
Blue-toxic wrote on May 4 2008, 04:30 pm

Amazing but this should be


e|---------------------------------------|
B|---------------------------------------|
G|---------------------------------------|
D|---------------------------------------|
A|------6---5----------------------------|
E|--8-----------7------------------------|

I want to post or [tab]
guest
You may want to rate the tab now too:
select rating
Please do not post tabs as comments. Select "correction" instead!