Oops, an error
Loading. Please wait.

Let Go Tab

27,243 views 12 this week
2 commentsread comments
1 2 3 4 5
accurate
x 13
add to favorites launch autoscroll
font size
0
reset
Autoscroll
+/-
esc
set tempo
stop
Contributor
WARNING: You are trying to view
                                    content from Ultimate-Guitar.com
                                    in an unauthorized application,
                                    which is prohibited.

                                    Please use an official Ultimate
                                    Guitar Tabs application for iPhone,
                                    iPad or Android to access legitimate
                                    chords, guitar, bass, and drum tabs
                                    from Ultimate-Guitar.com database.

                                    Type "ultimate guitar tabs" in Apple
                                    App Store's or Android Market's
                                    search to find the application.
          ARTIST  : Avril Lavigne 
          ALBUM   : Let Go (2002.)
          GERNE   : Pop/Rock
          SONGS   :
                    1. Losing Grip
                    2. Complicated
                    3. Sk8er Boi
                    4. I'm With You
                    5. Mobile
		    6. Unwanted
		    7. Tomorrow
		    8. Anything But Ordinary
                    9. Things I'll Never Say
                   10. My World
 		       11. Nobodys Fool
 		       12. Too Much To Ask
		       13. Naked
         
This is the first solo album of Avril Lavigne, Let Go (2002.)
Here you can find tabs and/or chords for all songs from that album.
All tabbers, including myself, are credited for each song, as this
is collection of different tabs for all songs from "Let Go".

Tabs collected, corrected & tabbed by Riki. http://www.igiavril.tk

××××××××××××××××××××××××××××××××××××××××××××××××××××××××××××××××××××××××××××××××
1.                         L o s i n g   G r i p
××××××××××××××××××××××××××××××××××××××××××××××××××××××××××××××××××××××××××××××××

Tabbed by Riki (www.igiavril.tk)
I've done this simple version just to easly play this song on 
standard tuned guitar with power chords (as it is mostly played
but in ).

Standard E tuning

Intro & Verse:
  Ab         E         Gb        E
e----------|---------|---------|---------|
H----------|---------|---------|---------|
G----------|---------|---------|---------|
D--6-------|-2-------|-4-------|-2-------|
A--6-6-6-6-|-2-2-2-2-|-4-4-4-4-|-2-2-2-2-|
E--4-4-4-4-|-0-0-0-0-|-2-2-2-2-|-0-0-0-0-|

Chorus:
   Ab      Eb       E       Eb       Ab     Eb        E       C#       
e-----------------|----------------|----------------|----------------|
H-----------------|----------------|----------------|----------------|
G----------8--8-8-|-9--9-9--8--8-8-|---------8--8-8-|-9--9-9--6--6-6-|
D--6--6-6--8--8-8-|-9--9-9--8--8-8-|-6--6-6--8--8-8-|-9--9-9--6--6-6-|
A--6--6-6--6--6-6-|-7--7-7--6--6-6-|-6--6-6--6--6-6-|-7--7-7--4--4-4-|
E--4--4-4---------|----------------|-4--4-4---------|----------------|

Middle:
"Cryin' out loud I'm cryin out loud..."
...
"Open your eyes...."
  C#      E         Gb     E   
e-----------------|----------------|
H-----------------|----------------|
G--6--6-6--9--9-9-|----------------|
D--6--6-6--9--9-9-|-4--4-4--2--2-2-|
A--4--4-4--7--7-7-|-4--4-4--2--2-2-|
E-----------------|-2--2-2--0--0-0-|

"Why.. should I care?..."
  Ab      Gb        E      Gb
e-----------------|----------------|
H-----------------|----------------|
G-----------------|----------------|
D--8--8-8--6--6-6-|-2--2-2--6--6-6-|
A--8--8-8--6--6-6-|-2--2-2--6--6-6-|
E--6--6-6--4--4-4-|-0--0-0--4--4-4-|


Tabbed by Charles de la Cruz (http://members.rogers.com/avrillavigne/)
Tuning - Standard Eb (Eb-Ab-Db-Gb-Bb-Eb)

All the chords are standard except for a few
Aadd2 - x024xxx or x02200
G/B   - x20000x

Am F G F
Am F G F
[Verse:]
Am                 F               G    F
Are you aware of what you make me feel baby
Am               F             G              F
Right now I feel invisible to you like I'm not real
Am          F              G                F             Am
Didn't you feel me lock my arms around you why'd you turn away
 E                     G  F 
Here's what I have to say
              Am                    F                            G
I was left to cry there waiting outside there grinning with the lost stare
F
That's when I decided
[Chorus:]
Am  Em          F  Em
Why   should I care
       Am                    Em            F         D5
Cause you weren't there when I  was scared I was so alone
Am  Em             F    Em
You,  you need to listen
      Am                  Em                    F               D5
I'm starting to trip I'm losing my grip and I'm in this thing alone

Am F G F
[Verse:]
Am         F                      G           F
Am I just some chick you place beside you to take somebody's place
Am              F             G            F
When you turn around can you recognize my face
Am        F                      G           F              Am
You used to love me you used to hug me but that wasn't the case
F                   G   F
Everything wasn't okay
              Am                    F                            G
I was left to cry there waiting outside there grinning with the lost stare
F
That's when I decided
[Chorus:]
Am  Em          F  Em
Why   should I care
       Am                    Em            F         D5
Cause you weren't there when I  was scared I was so alone
Am  Em             F    Em
You,  you need to listen
      Am                  Em                    F               D5
I'm starting to trip I'm losing my grip and I'm in this thing alone
[Middle:]
D          (F)       (G)      (F)
Cryin' out loud I'm cryin out loud
D          (F)       (G)      (F)
Cryin' out loud I'm cryin out loud

D F         G F
   Open your  eyes
D F       G F
   Open up  wide

Aadd2 G/B           F  G/B
Why       should I care
      Aadd2                    G/B            F
Cause  you  weren't there when  I  was scared I was so alone
[Chorus:]
Am  Em          F  Em
Why   should I care
       Am                    Em            F         D5
Cause you weren't there when I  was scared I was so alone
Am  Em             F    Em
You,  you need to listen
      Am                  Em                    F               D5
I'm starting to trip I'm losing my grip and I'm in this thing alone
Am  Em          F  Em
Why   should I care
       Am                    Em            F         D5
Cause you weren't there when I  was scared I was so alone
Am  Em             F    Em
You,  you need to listen
      Am                  Em                    F               D5
I'm starting to trip I'm losing my grip and I'm in this thing alone




××××××××××××××××××××××××××××××××××××××××××××××××××××××××××××××××××××××××××××××××
2.			C o m p l i c a t e d
××××××××××××××××××××××××××××××××××××××××××××××××××××××××××××××××××××××××××××××××
Complicated (Live on Radio One) [I put live version as it's same as CD but with 
                                 more guitar suff played]
Tabbed by Navid Navidb86@hotmail.com
Tuning - Standard (EADGBE)
F  - 133211
C  - x32010
Dm - xx0231
Bb - 113331
Gm - 355333

\  = slide down  r  = release bend
/  = slide up   
~  = vibrato     
b  = bend
x  = scratch


[INTRO]
           Guitar 1 plays this 4 times
                                   
e/|--1------------1------------1------------0------------|\
B||--3------------3------------1------------1------------||
G||--2------------3------------2------------0------------||
D||--0------------3------------3------------2------------||
A||---------------1------------3------------3------------||
E\|---------------1------------1-------------------------|/
  |                                                      |
  |        Guitar 2 distorted                            |
  |                                                      |
e/|------------------------------------------------------|\
B||---------------6--------------------------------------||
G||--5-/-7~~------7------------2--3--2---/--5~~----------||
D||--5-/-7~~------7------------3--3--3-------------------||
A||------------------------------------------------------||
E\|------------------------------------------------------|/
  |                                                      |
  |        Guitar 2 distorted                            |
  |                                                      |
e/|------------------------------------------------------|\
B||---------------6~~------------------------------------||
G||--5-/-7~~-------------------2--3--2---/--5~~----------||
D||--5-/-7~~-------------------3--3--3-------------------||
A||------------------------------------------------------||
E\|------------------------------------------------------|/
  |                                                      |
  |        Guitar 2 distorted                            |
  |                                                      |
e/|-----------------------------------------13--12~~-----|\
B||---------------13~~-----------------------------------||
G||--14/-----------------------14-10-12-14~~-------------||
D||------------------------------------------------------||
A||--12/-----------------------12--8-10-12~~-------------||
E\|------------------------------------------------------|/ 
  |                                                      |
  |        Guitar 2 distorted                            |
  |                                                      |
e/|-----------------------------------------b9~~-r-------|\
B||---------------10~~-----------------------------------||
G||--14/----------10~~---------14-10-12-14~~-------------||
D||------------------------------------------------------||
A||--12/-----------------------12--8-10-12~~-------------||
E\|------------------------------------------------------|/

[VERSE 1]
           Guitar 1                              
e/|--1------------1------------1------------0------------|\
B||--2------------3------------3------------1------------||
G||--3------------2------------3------------0------------||
D||--3------------0------------3------------2------------||
A||--1-------------------------1------------3------------||
E\|--1-------------------------1-------------------------|/
  |                                                      |
  |        Guitar 2                                      |
  |                                                      |
e/|----------------------------1------------3------------|\
B||----------------------------1------------3------------||
G||----------------------------3------------5------------||
D||----------------------------3------------5------------||
A||----------------------------1------------3------------||
E\|----------------------------1------------3------------|/

           Guitar 1                                  
e/|--1------------1------------1------------0------------|\
B||--2------------3------------3------------1------------||
G||--3------------2------------3------------0------------||
D||--3------------0------------3------------2------------||
A||--1-------------------------1------------3------------||
E\|--1-------------------------1-------------------------|/
  |                                                      |
  |        Guitar 2                                      |
  |                                                      |
e/|--1------------5------------1--1---------3------------|\
B||--2------------6------------1----1-------3------------||
G||--3------------7------------3------------5------------||
D||--3------------7------------3------------5------------||
A||--1------------5------------1------------3------------||
E\|--1------------5------------1------------3------------|/

[BRIDGE]
           Guitar 1                                  
e/|--1------------------------1--------------------------|\
B||--3------------------------3--------------------------||
G||--3------------------------2--------------------------||
D||--3------------------------0--------------------------||
A||--1---------------------------------------------------||
E\|--1---------------------------------------------------|/
  |                                                      |
  |        Guitar 2 distorted                            |
  |                                                      |
e/|------------------------------------------------------|\
B||------------------------------------------------------||
G||--3-xx-3--x-3--x-3--x-3-xx-7-xx-7--x-7--x-7--x-7-xx---||
D||--3-xx-3--x-3--x-3--x-3-xx-7-xx-7--x-7--x-7--x-7-xx---||
A||--1-xx-1--x-1--x-1--x-1-xx-5-xx-5--x-5--x-5--x-5-xx---||
E\|------------------------------------------------------|/

e/|--1------------------------3--------------------------|\
B||--3------------------------3--------------------------||
G||--3------------------------5--------------------------||
D||--3------------------------5--------------------------||
A||--1------------------------3--------------------------||
E\|--1------------------------3--------------------------|/
  |                                                      |
  |        Guitar 2 distorted                            |
  |                                                      |
e/|------------------------------------------------------|\
B||------------------------------------------------------||
G||--3-xx-3--x-3--x-3--x-3-xx-5--------------------------||
D||--3-xx-3--x-3--x-3--x-3-xx-5--------------------------||
A||--1-xx-1--x-1--x-1--x-1-xx-3--------------------------||
E\|------------------------------------------------------|/

[CHORUS]
   play this three times
           Guitar 1                               
e/|--1-----------1-----------1------------0--------------|\
B||--3-----------3-----------1------------1--------------||
G||--2-----------3-----------2------------0--------------||
D||--0-----------3-----------3------------2--------------||
A||--------------1-----------3------------3--------------||
E\|--------------1-----------1---------------------------|/
  |                                                      |
  |        Guitar 2 distorted                            |
  |                                                      |
e/|------------------------------------------------------|\
B||------------------------------------------------------||
G||--7--7--7--7--------------10-10-10-10--5--5--5--5-----||
D||--7--7--7--7--8--8--8--8--10-10-10-10--5--5--5--5-----||
A||--5--5--5--5--8--8--8--8---8--8--8--8--3--3--3--3-----||
E\|--------------6--6--6--6---8--8--8--8-----------------|/

   then the chorus ends like this
          Guitar 1 
e/|--3---------------------1------------1----------------|\
B||--3---------------------1------------1----------------||
G||--3---------------------3------------2----------------||
D||--5---------------------3------------3----------------||
A||--5---------------------3------------3----------------||
E\|--3---------------------1------------1----------------|/
  |                                                      |
  |        Guitar 2 distorted                            |
  | [Honestly and........]                               |
e/|-------------------3~---------------------------------|\
B||----------------3~------6~~----------6~~\-------------||
G||-------------3~---------------------------------------||
D||--5---------------------------------------------------||
A||--5---------------------------------------------------||
E\|--3---------------------------------------------------|/

[VERSE 2]
           Guitar 1                                 
e/|--1------------1------------1------------0------------|\
B||--2------------3------------3------------1------------||
G||--3------------2------------3------------0------------||
D||--3------------0------------3------------2------------||
A||--1-------------------------1------------3------------||
E\|--1-------------------------1-------------------------|/
  |                                                      |
  |        Guitar 2                                      |
  |                                                      |
e/|--1------------5------------1--1---------3------------|\
B||--2------------6------------1----1-------3------------||
G||--3------------7------------3------------5------------||
D||--3------------7------------3------------5------------||
A||--1------------5------------1------------3------------||
E\|--1------------5------------1------------3------------|/

           Guitar 1                                 
e/|--1------------1------------1------------0------------|\
B||--2------------3------------3------------1------------||
G||--3------------2------------3------------0------------||
D||--3------------0------------3------------2------------||
A||--1-------------------------1------------3------------||
E\|--1-------------------------1-------------------------|/
  |                                                      |
  |        Guitar 2                                      |
  |                                                      |
e/|--1------------5------------1--1-1-------3------------|\
B||--2------------6------------1--1-1-------3------------||
G||--3------------7------------3------------5------------||
D||--3------------7------------3------------5------------||
A||--1------------5------------1------------3------------||
E\|--1------------5------------1------------3------------|/

[BRIDGE]
same as before

[CHORUS]
           Guitar 1 plays the same chorus
           Guitar 2 distorted 
e/|------------------------------------------------------|\
B||------------------------------------------------------||
G||--7--7--7--7--------------10-10--10\---5--5--3--5-----||
D||--7--7--7--7--8--8--8--8--10-10--10\---5--5--3--5-----||
A||--5--5--5--5--8--8--8--8---8--8--------3--3--3--3-----||
E\|--------------6--6--6--6---8--8-----------------------|/

e/|-------------------3~---------------------------------|\
B||----------------3~------6~~/11------------------------||
G||-------------3~---------------------------------------||
D||--5---------------------------------------------------||
A||--5---------------------------------------------------||
E\|--3---------------------------------------------------|/
           Guitar 1                                  
e/|-------1---------1---------1----------0---------------|\
B||-------2---------3---------3----------1---------------||
G||-------3---------2---------3----------0---------------||
D||-------3---------0---------3----------2---------------||
A||-------1-------------------1----------3---------------||
E\|-------1-------------------1--------------------------|/
  |                                                      |
  |        Guitar 2 distorted                            |
  | [No no no....]                                       |
e/|------------------------------------------------------|\
B||--11-10-----11-10-----11-10-----11-10-13~---11-10-6~~-||
G||-------10~-------10~-------10~------------------------||
D||------------------------------------------------------||
A||------------------------------------------------------||
E\|------------------------------------------------------|/

[VERSE 3]
           Guitar 1                                 
e/|--1------------1------------1------------0------------|\
B||--2------------3------------3------------1------------||
G||--3------------2------------3------------0------------||
D||--3------------0------------3------------2------------||
A||--1-------------------------1------------3------------||
E\|--1-------------------------1-------------------------|/
  |                                                      |
  |        Guitar 2                                      |
  |                                                      |
e/|-----------------------------------------3------------|\
B||-----------------------------------------3------------||
G||-----------------------------------------5------------||
D||-----------------------------------------5------------||
A||-----------------------------------------3------------||
E\|-----------------------------------------3------------|/

[BRIDGE]
           Guitar 1
e/|--1------------1------------1------------0-0-0-0-0----|\
B||--3------------3------------3------------1-1-1-1-1----||
G||--3------------2------------3------------0-0-0-0-0----||
D||--3------------0------------3------------2-2-2-2-2----||
A||--1-------------------------1------------3-3-3-3-3----||
E\|--1-------------------------1-------------------------|/
  |                                                      |
  |        Guitar 2                                      |
  |                                                      |
e/|--1-1----------5-5----------1-1-----------------------|\
B||--1--1---------6--6---------1--1----------------------||
G||--3---3--------7------------3---3--------5-5-5-5-5----||
D||--3----3-------7------------3----3-------5-5-5-5-5----||
A||--1------------5------------1------------3-3-3-3-3----||
E\|--1------------5------------1-------------------------|/

[CHORUS]
          Guitar 1 and 2 plays the same chorus
           
           Guitar 2 ends like this though
                              [No no...]
e/|-------------------3~---------------------------------|\
B||----------------3~------------------------------------||
G||-------------3~----------9~~--------------------------||
D||--5---------------------------------------------------||
A||--5----------------------6~~--------------------------||
E\|--3---------------------------------------------------|/  
   
  then there is a difference on the last chorus

   play this twice
           Guitar 1                                   
e/|--1-----------1-----------1------------0--------------|\
B||--3-----------3-----------1------------1--------------||
G||--2-----------3-----------2------------0--------------||
D||--0-----------3-----------3------------2--------------||
A||--------------1-----------3------------3--------------||
E\|--------------1-----------1---------------------------|/
  |                                                      |
  |        Guitar 2 distorted                            |
  |                                                      |
e/|------------------------------------------------------|\
B||------------------------------------------------------||
G||--7--7--7--7--------------10-10--10\---5--5--3--5-----||
D||--7--7--7--7--8--8--8--8--10-10--10\---5--5--3--5-----||
A||--5--5--5--5--8--8--8--8---8--8--------3--3--3--3-----||
E\|--------------6--6--6--6---8--8-----------------------|/
   then this
           Guitar 1                                   
e/|--1-----------1-----------1------------0--------------|\
B||--3-----------3-----------1------------1--------------||
G||--2-----------3-----------2------------0--------------||
D||--0-----------3-----------3------------2--------------||
A||--------------1-----------3------------3--------------||
E\|--------------1-----------1---------------------------|/
  |                                                      |
  |        Guitar 2 distorted                            |
  |                                                      |
e/|------------------------------------------------------|\
B||------------------------------------------------------||
G||--7--7--7--7--7--7--7--7--10-10-10-10\-5--5--5--5-----||
D||--------------------------10-10-10-10\-5--5--5--5-----||
A||--5--5--5--5--5--5--5--5---8--8--8-----3--3--3--3-----||
E\|---------------------------8--8--8--------------------|/
   and it ends like this

         Guitar 1 
e/|--3---------------------1-----------------------------|\
B||--3---------------------1-----------------------------||
G||--3---------------------3-----------------------------||
D||--5---------------------3-----------------------------||
A||--5---------------------3-----------------------------||
E\|--3---------------------1-----------------------------|/
  |                                                      |
  |        Guitar 2 distorted                            |
  |                                                      |
e/|-------------------3~---------------------------------|\
B||----------------3~------6~~---------------------------||
G||-------------3~---------------------------------------||
D||--5---------------------------------------------------||
A||--5---------------------------------------------------||
E\|--3---------------------------------------------------|/




××××××××××××××××××××××××××××××××××××××××××××××××××××××××××××××××××××××××××××××××
3.			S k 8 e r  B o i
××××××××××××××××××××××××××××××××××××××××××××××××××××××××××××××××××××××××××××××××
Tabbed by Charles de la Cruz (http://www.comeunglued.com/avril/)
Tuning - Standard (EADGBE)
\ = Slide down
/ = Slide up
~ = vibrato
* = strum chord
^ = bend up
+ = wah pedal closed
o = wah pedal open
<> = Natural Harmonic on specified fret
p.s. = pick scrape
p.m. = palm mute

   [INTRO] [RIFF1]
           Guitar 1
e/|-------|-------------------------------------------------|\
B||-------|-------------------------------------------------||
G||-------|--/11-9~~~\--/11-9~~~\--/11-9~~~\--/11-9~~-7~~~--||
D||-------|-------------------------------------------------||
A||-------|--/-9-7~~~\--/-9-7~~~\--/-9-7~~~\--/-9-7~~-5~~~--||
E\|--10\--|-------------------------------------------------|/
  |       |                                                 |
  |       |Guitar 2                                         |
  |       |   ********  ********    ********   ****   ****  |
e/|-------|-------------------------------------------------|\
B||-------|-------------------------------------------------||
G||-------|-7-----------------------------------------------||
D||-------|-7----------7----------9----------8------7-------||
A||-------|-5----------7----------9----------8------7-------||
E\|-------|------------5----------7----------6------5-------|/

[VERSE]
   Guitar 2 plays these chords about 8 times each...
e/|---------------------------------------------------------|\
B||---------------------------------------------------------||
G||--7---------------------------7--------------------------||
D||--7------7------9------8------7------7------9-----10-----||
A||--5------7------9------8------5------7------9-----10-----||
E\|---------5------7------6-------------5------7------8-----|/

   Guitar 1 plays these fills during the first verse...
   {ballet, what more can I say...}
e/|---------------------------------------------|
B||---------------------------------------------|
G||--4----4----5--------------------------------|
D||-----------------------------0--2--4--0------|
A||---------------------------------------------|
E\|---------------------------------------------|
   {wanted her, she'd never tell...}
e/|---------------------------------------------|
B||---------------------------------------------|
G||--2----2----4----4----3----------------------|
D||-----------------------------0--2--4--0------|
A||---------------------------------------------|
E\|---------------------------------------------|
   {friends, stuck up...}      p.s.
e/|------------------------------------|\
B||------------------------------------||
G||--4----4----5----------------x\-----||
D||-----------------------------x\-----||
A||------------------------------------||
E\|------------------------------------|/

[CHORUS]
   ** chords are played about 8 times each **
e/|---------------------------------------------13---13---13----|\
B||---------------------------------------------16^--16^--16^---||
G||--10------------------10-------------------------------------||
D||--10---10----8----7---10---10----8----7----8-----------------||
A||---8---10----8----7----8---10----8----7----8-----------------||
E\|--------8----6----5---------8----6----5----6-----------------|/

[VERSE 2] Guitar 2 plays the same chords
   Guitar 1 plays the following...
     p.m..........................................
e/|----5-------------------------------------------|
B||--7---7~~~----5---------7-----------------------|
G||------------6---6~~~--7---7~~~---7--7--7--7-7-7-|
D||------------------------------------------------|
A||------------------------------------------------|
E\|------------------------------------------------|
     p.m...............
e/|----5-------------------------------------------|
B||--7---7~~~----5--------<7>----------------------|
G||------------6---6~~~-<7>-<7>--------------------|
D||------------------------------------------------|
A||------------------------------------------------|
E\|--------------------------------/8~~\--/8~~~\---|
     p.m..........................................
e/|----5-------------------------------------------|
B||--7---7~~~----5---------7-----------------------|
G||------------6---6~~~--7---7~~~---7--7--7--7-7-7-|
D||------------------------------------------------|
A||------------------------------------------------|
E\|------------------------------------------------|
     p.m.........................
e/|----5-------------------------------------------|\
B||--7---7~~~----5---------7--------8--------------||
G||------------6---6~~~--7---7~~~-----9----0-------||
D||-------------------------------------10---2-----||
A||--------------------------------------------3---||
E\|----------------------------------------------3-|/

[CHORUS 2]
   During this chorus there sounds like there's a wah pedal
     F  C  Bb  A
                o   +
e/|-------------------|\
B||-------------------||
G||-------------2-----||
D||-------------2-----||
A||-------------0-----||
E\|-------------------|/

[RIFF 2]
    Guitar 1
e/|------------------------------------------------|
B||------------------------------------------------|
G||---/14-12~~~\--/14-12~~~\--/14-12~~~\-----------|
D||------------------------------------------------|
A||---/12-10~~~\--/12-10~~~\--/12-10~~~\-----------|
E\|------------------------------------------------|
  |                                                |
  | Guitar 2                                       |
  |   ********    ********    ********             |
e/|------------------------------------------------|
B||------------------------------------------------|
G||--------------5-----------3------------6--6--6--|
D||--3-----------5-----------3------------6--6--6--|
A||--3-----------3-----------1------------4--4--4--|
E\|--1---------------------------------------------|

    Guitar 1
e/|------------------------------------------------|\
B||------------------------------------------------||
G||---/14-12~~~\--/14-12~~~\--/14-12~~~\-----------||
D||------------------------------------------------||
A||---/12-10~~~\--/12-10~~~\--/12-10~~~\-----------||
E\|------------------------------------------------|/
  |                                                |
  | Guitar 2                                       |
  |   ********    ********    ********             |
e/|------------------------------------------------|\
B||------------------------------------------------||
G||--------------5-----------3------------6--6-----||
D||--3-----------5-----------3------------6--6--7--||
A||--3-----------3-----------1------------4--4--7--||
E\|--1------------------------------------------5--|/
[BRIDGE]
     D5                            F5
e/|--------------------------------------------------------------|
B||----------------10-----------------------------10-------------|
G||--7--10--9--10------10--9--10-------10--9--10------10--9--10--|
D||--------------------------------10----------------------------|
A||--------------------------------------------------------------|
E\|--------------------------------------------------------------|
    C5                              Bb5            A5
e/|--------------------------------------------------------------|
B||-----------------8--------------------------------------------|
G||-----10--9--10------10--9--10-------10--9--10------10--9--10--|
D||-10------------------------------8--------------7-------------|
A||--------------------------------------------------------------|
E\|--------------------------------------------------------------|
     D5                            F5
e/|--------------------------------------------------------------|
B||----------------10-----------------------------10-------------|
G||--7--10--9--10------10--9--10-------10--9--10------10--9--10--|
D||--------------------------------10----------------------------|
A||--------------------------------------------------------------|
E\|--------------------------------------------------------------|
    C5                              Bb5            A5
e/|--------------------------------------------------------------|\
B||-----------------8--------------------------------------------||
G||-----10--9--10------10--9--10-------10--9--10------10--9--7~~-||
D||-10------------------------------8--------------7-------------||
A||--------------------------------------------------------------||
E\|--------------------------------------------------------------|/

[BRIDGE 2]
   Guitars 1 & 3
e/|------------------------------------------------------------------|
B||-----------------------------------------------------------10~~~~-|
G||------------------------------------------------------------------|
D||-----------------------------------------------------------0-2-4--|
A||------------------------------------------------------------------|
E\|------------------------------------------------------------------|
  |                                                                  |
  |Guitar 2                                                          |
  | p.m............................................................  |
e/|------------------------------------------------------------------|
B||------------------------------------------------------------------|
G||-7-7-7-7-7-7-7-7--------------------------------------------------|
D||-7-7-7-7-7-7-7-7-7-7-7-7-7-7-7-7-9-9-9-9-9-9-9-9-8-8-8-8-8-8-8-8--|
A||-5-5-5-5-5-5-5-5-7-7-7-7-7-7-7-7-9-9-9-9-9-9-9-9-8-8-8-8-8-8-8-8--|
E\|-----------------5-5-5-5-5-5-5-5-7-7-7-7-7-7-7-7-6-6-6-6-6-6-6-6--|

e/|--------------------------------------------------------/22--|\
B||-(10)~~~~~~~~~~~~~~~~~~~~~~~~~~~~~~~~~~~~~~~~~~~-------------||
G||-------------------------------------------------------------||
D||-0-----------------------------------------------------------||
A||-------------------------------------------------------------||
E\|-------------------------------------------------------------|/
  |                                                             |
  |                                                             |
  | p.m............................................             |
e/|-------------------------------------------------------------|\
B||-------------------------------------------------------------||
G||-7-7-7-7-7-7-7-7---------------------------------------------||
D||-7-7-7-7-7-7-7-7-7-7-7-7-7-7-7-7-9-9-9-9-9-9-9-9-10----------||
A||-5-5-5-5-5-5-5-5-7-7-7-7-7-7-7-7-9-9-9-9-9-9-9-9-10----------||
E\|-----------------5-5-5-5-5-5-5-5-7-7-7-7-7-7-7-7--8----------|/





××××××××××××××××××××××××××××××××××××××××××××××××××××××××××××××××××××××××××××××××
4.			I ' m   W i t h  Y o u
××××××××××××××××××××××××××××××××××××××××××××××××××××××××××××××××××××××××××××××××

Signs:
H-Hamer on
P-Pull Off
~-Vibrato
S-Slide
^-Bend
P^-Pre-Bend

(Intro)
(Guitar 1-Jesse-Acousic-Clean)Riff A
|-0-0--0-0--0-0---------------0-0--0-0--0-0|
|-0-0--2-2--5-5---------------0-0--2-2--5-5|
|-2-2--4-4--7-7---------------2-2--4-4--7-7|(Repeat As Needed)
|-2-2--4-4--7-7---------------2-2--4-4--7-7|
|-0-0--0-0--0-0---------------0-0--0-0--0-0|
|-0-0--0-0--0-0---------------0-0--0-0--0-0|
Note: Dont Lift Your Fingers off the 
to get the Scraping sound

(Guitar 2-Evan-Semi-Hallow-Light Dist.)Riff B
|--------------------------------------------------------------------|
|--------------------(dont pick the slides )--(dont pick the slide)--|
|-11H12p11----11h12p11s9s11-----------------11h12s14-----------------|
|--------------------------------------------------------------------|
|--------------------------------------------------------------------|
|--------------------------------------------------------------------|
(Verse)
(Guitar 2 Out)
(Guitar 1) Riff C
|-0-0--0-0--0-0-0-0|
|-0-0--2-2--5-5-5-5|
|-2-2--4-4--7-7-7-7|(Repeat 4 Times)
|-2-2--4-4--7-7-7-7|
|-0-0--0-0--0-0-0-0|(Note Listen for the Frist Hammer Pull Off from Riff B)
|-0-0--0-0--0-0-0-0|

(Guitar 2) Riff D
|----------------------------------0--|
|----------------------------------0--|
|-12--11--9--7----9----5~---2---------|
|----------------------------------2--|
|----------------------------------0--|
|----------------------------------0--|
(Chorus)

(Guitar 1)
|-0-0--0-0--0-0-0-0|
|-0-0--2-2--5-5-5-5|
|-2-2--4-4--7-7-7-7|
|-2-2--4-4--7-7-7-7|
|-0-0--0-0--0-0-0-0|
|-0-0--0-0--0-0-0-0|

(Guitar 2)
|-0-0--0-0--0-0--------|
|-0-0--2-2--5-5--------|
|-2-2--4-4--7-7--------|
|-2-2--4-4--7-7-----0--|
|-0-0--0-0--0-0---0----|
|-0-0--0-0--0-0-0------|

Verse 2
Guitar 1 Plays riff C

(Guitar 2)
|----------------------------------|
|----------------------------------|
|----------------------------------|
|----------------------------------|
|P^12---10---P^14-----10-----------|
|----------------------------------|

(Guitar 2)
|---------------------|
|---------------------|
|---8h9p8--7--5-------|
|---------------------|
|---------------------|
|---------------------|

(Guitar 2) Riff D
|----------------------------------0--|
|----------------------------------0--|
|-12--11--9--7----9----5~---2---------|
|----------------------------------2--|
|----------------------------------0--|
|----------------------------------0--|

Chrous 2
(Guitar 1)
|-0-0--0-0--0-0-0-0|
|-0-0--2-2--5-5-5-5|
|-2-2--4-4--7-7-7-7|
|-2-2--4-4--7-7-7-7|
|-0-0--0-0--0-0-0-0|
|-0-0--0-0--0-0-0-0|

(Guitar 2)
|-0-0--0-0--0-0--------|
|-0-0--2-2--5-5--------|
|-2-2--4-4--7-7--------|
|-2-2--4-4--7-7-----0--|
|-0-0--0-0--0-0---0----|
|-0-0--0-0--0-0-0------|

Bridge
(Guitar 2-lighty Dist.)
|-0-0-0-0--0-0-0-0|
|-2-2-2-2--5-5-5-5|
|-2-2-4-4--6-6-7-7|(repeat as needed)
|-0-0-4-4--7-7-7-7|
|-0-0-0-0--0-0-0-0|
|-0-0-0-0--0-0-0-0|

 (Guitar 1 Lightly Dist.)
|-0-0-0-0--0-0-0-0|
|-0-0-2-2--5-5-5-5|
|-2-2-4-4--7-7-7-7|
|-2-2-4-4--7-7-7-7|(repeat As needed)
|-0-0-0-0--0-0-0-0|
|-0-0-0-0--0-0-0-0|
Guitar 2 Out
Guitar 1 Clean
 (Guitar 1)
|-0-0--0-0--0-0-0-0|
|-0-0--2-2--5-5-5-5|
|-2-2--4-4--7-7-7-7|
|-2-2--4-4--7-7-7-7|
|-0-0--0-0--0-0-0-0|
|-0-0--0-0--0-0-0-0|

(Guitar 2 Heavy Dist.)
|----P.M-----------|
|4-4-4-4-4-4-------|
|2-2-2-2-2-2-------|
|2-2-2-2-2-2-------|
|------------------|
|------------------|
|------------------|

(Guitar 1 Lightly Dist.)
|-0-0--0-0--0-0-0-0|
|-0-0--2-2--5-5-5-5|
|-2-2--4-4--7-7-7-7|
|-2-2--4-4--7-7-7-7|
|-0-0--0-0--0-0-0-0|
|-0-0--0-0--0-0-0-0|

(Guitar 2 Heavy Dist.)
|----P.M-----------|
|4-4-4-4-4-4-------|
|2-2-2-2-2-2-------|
|2-2-2-2-2-2-------|
|------------------|
|------------------|
|------------------|

(Outro)
(Guitar 1 Clean)
|-0-0--0-0--0-0-0-0|
|-0-0--2-2--5-5-5-5|
|-2-2--4-4--7-7-7-7|
|-2-2--4-4--7-7-7-7|
|-0-0--0-0--0-0-0-0|
|-0-0--0-0--0-0-0-0|

(Guitar 2 Lightly Dist.)
|------------|
|------------|
|-11h12p11---|
|------------|
|------------|
|------------|



××××××××××××××××××××××××××××××××××××××××××××××××××××××××××××××××××××××××××××××××
5.			         M o b i l e
××××××××××××××××××××××××××××××××××××××××××××××××××××××××××××××××××××××××××××××××
Tuning - Standard EADGBE 
Tabbed by Riki (www.igiavril.tk)
B5 - 799xxx  
D5 - x577xx
A5 - 577xxx
E5 - x799xx

A  - 002220 
Bm - X24432
E  - 022100 
Fm#- 244222 
  
[Intro:]
Guitar 1 (acoustic) : Bm D A E 
Guitar 2 (distorted)  B5 D5 A5 E5 
  
[Verse:]
Guitar 1 : Bm D A E

Went back home again, this sucks gotta pack up and leave again 
Say goodbye to all my friends can't say when I'll be there again 
It's time now to turn around, turn my back on everything 
Turn my back on everything 

[Chorus:]  
Guitar 1 & Guitar 2 : A E Bm Fm#

Everything's changing when I turn around 
All out of my control I'm a mobile 
Everything's changing when I turn around 
All out of my control I'm a mobile 

Guitar 1 (acoustic) : Bm D A E 2x

[Verse:]
Guitar 1 : Bm D A E

Start back at this life, stretch myself back into the vibe 
I'm wakin' up to say I'm tried, instead of waking up to another TV Guide 
It's time now to turn around, turn and walk on this crazy ground 
Ohh everything 

[Chorus:]  
Guitar 1 & Guitar 2 : A E Bm Fm#

Everything's changing when I turn around 
All out of my control I'm a mobile 
Everything's changing when I turn around 
All out of my control I'm a mobile 

Bm F#m 
I'm a mobile 

[Bridge:]

 D E D 
Hanging from the ceiling, life's a mobile 
D E Fm# 
Spinning around with mixed feelings, crazy and wild 
Fm# E A 
And sometimes I wanna scream out loud 
 
Guitar 1: A E Bm F#m 
Guitar 2 (distorted):
[Short solo]
e-------------------------------------------10b-10b-10b-10b-9-10p9~~--12p10p9----|
B--3\14-14-14-14-14-14-14-14-12-9-9-9-9-9-9-----------------------------------10-|
G--3\14-14-14-14-14-14-14-14-12-9-9-9-9-9-9--------------------------------------|
D--------------------------------------------------------------------------------|
A--------------------------------------------------------------------------------|
E--------------------------------------------------------------------------------|

Guitar 1:  A E Bm Fm#

Everything's changing when I turn around 
All out of my control 
Everything's changing everywhere I go 
Out of what I know, yeah yeah yeah 

Guitar 1 & Guitar 2 : A E Bm Fm# 

La la la la la la, la la 
La la la la la la, la la 
La la la la la la, la la 
La la la la la la 

Everything's changing when I turn around 
All out of my control I'm a mobile 
Everything's changing out of what I know 
Everywhere I go I'm a mobile 

Bm F#m  A
Everywhere I go I'm a mobile 



××××××××××××××××××××××××××××××××××××××××××××××××××××××××××××××××××××××××××××××××
6.			         U n w a n t e d
××××××××××××××××××××××××××××××××××××××××××××××××××××××××××××××××××××××××××××××××
Tabbed by Navid Navidb86@hotmail.com
Song name - Unwanted (Live on Radio One) [Same as on the CD]

Tuning - Standard (EADGBE)
E5 - 022xxx || A/C#  - 047xxx
C5 - 0355xx || A5    - 577xxx
D5 - 0577xx || Am    - x02210
Em - 022000 || A     - x02220
C  - x32010 || 
D  - xx0232 ||

h  = hammer on    b = bend
/  = slide up     r = release bend
\  = slide down   
~  = vibrato      

                                                      
[INTRO]                                                  
           Guitar 1
      ****     ****     ****     **** 
e/|--0--------0--------3--------0------------------------|\
B||--0--------1--------2--------2------------------------||
G||--0--------0--------3--------2------------------------||
D||--2--------2--------0--------2------------------------||
A||--2--------3--------x--------0------------------------||
E\|--0--------x--------x--------x------------------------|/

           Guitar 1
      **** **** **** **** **** **** **** ****
e/|--0----0----3----0----0----0----3----0----------------|\
B||--0----1----2----2----0----1----2----1----------------||
G||--0----0----3----2----0----0----3----2----------------||
D||--2----2----0----2----2----2----0----2----------------||
A||--2----3----x----0----2----3----x----0----------------||
E\|--0----x----x----x----0----x----x----x----------------|/
  |                                                      |
  |        Guitar 2 distorted                            |
  |                                                      |
e/|------------------------------------------------------|\
B||------------------------------------------------------||
G||-------5----7--------------5----7---------------------||
D||--2----5----7----7----2----5----7----7----------------||
A||--2----3----5----7----2----3----5----4----------------||
E\|--0----0----0----5----0----0----0----0----------------|/

[VERSE 1]
           Guitar 1 plays this 10 times  
e/|------------------------------------------------------|\
B||------------------------------------------------------||
G||-------0--------0--------0----------------------------||
D||--2---------5-5------7-7----------7-------------------||
A||--2---------3-3------5-5------7-7---------------------||
E\|--0--0------------------------5-5---------------------|/
                                                        
           Guitar 2 distorted comes in the 5th times            
   5th time                                                      
e/|------------12----------------------------------------|
B||---------------------12-------------------------------|
G||-------------------------------12---------------------|
D||------------------------------------------------------|
A||------------------------------------------------------|
E\|------------------------------------------------------|
  
   6th time
e/|-----------12-----------------15----------------------|
B||---------------------12-------------------------------|
G||------------------------------------------------------|
D||------------------------------------------------------|
A||------------------------------------------------------|
E\|------------------------------------------------------|
   
   7th and 8th time
      **       **        **       **
e/|------------------------------------------------------|
B||------------------------------------------------------|
G||-----------5---------7--------------------------------|
D||--2--------5---------7--------7-----------------------|
A||--2--------3---------5--------7-----------------------|
E\|--0---------------------------5-----------------------|
   
   9th time 
e/|------------------------------------------------------|
B||-------0--------0--------0----------------------------|
G||---------------------------------7--------------------|
D||--2---------5-5------7-7------------------------------|
A||--2---------3-3------5-5------77----------------------|
E\|--0--0------------------------55----------------------|
   
   10th time                     
e/|------------------------------------------------------|\
B||-------0--------0--------0----------------------------||
G||------------------------------------------------------||
D||--2---------5-5------7-7------7-7-7-------------------||
A||--2---------3-3------5-5------7-7-7-------------------||
E\|--0--0------------------------5-5-5-------------------|/

[CHORUS]
E5/Em              C5/C
You don't know me, don't ignore me
D5/D              A5/A           E5/Em    C5/C D5/D A5/A 
You don't want me there you just shut me out

E5/Em              C5/C
You don't know me, don't ignore me

D5/D             A5/A          E5/Em    C5/C
If you had your way you'd just shut me out

D5/D    C5/C E5/Em C5/C D5/D A/C#/Am
Make me go away
           
           Guitar 1
           Em C D Am   

           Guitar 2 distorted                            
      **   **   **                                            
e/|------------------------------------------------------|\
B||------------------------------------------------------||
G||-------5----7---14\-----------------------------------||
D||--2----x----x---x-------------------------------------||
A||--2----3----5---12\-----------------------------------||
E\|--0---------------------------------------------------|/

[VERSE 2]  
           Guitar 1 plays the same 8 times
           Guitar 2 distorted comes in the 5th times            
   5th time                                                      
e/|------------12----------------------------------------|
B||---------------------12-------------------------------|
G||------------------------------12----------------------|
D||------------------------------------------------------|
A||------------------------------------------------------|
E\|------------------------------------------------------|
   6th time
e/|-----------12-----------------15----------------------|
B||---------------------12-------------------------------|
G||------------------------------------------------------|
D||------------------------------------------------------|
A||------------------------------------------------------|
E\|------------------------------------------------------|   
   7th and 8th time
      **       **        **       **    The last time
e/|------------------------------------|----------------|
B||------------------------------------|----------------|
G||-----------5---------7--------------|----------------|
D||--2--------5---------7--------7-----|--7-7-7---------|
A||--2--------3---------5--------7-----|--7-7-7---------|
E\|--0---------------------------5-----|--5-5-5---------|

[CHORUS]
E5/Em              C5/C
You don't know me, don't ignore me
D5/D              A5/A           E5/Em    C5/C D5/D A5/A 
You don't want me there you just shut me out
E5/Em              C5/C
You don't know me, don't ignore me
D5/D             A5/A          E5/Em    C5/C
If you had your way you'd just shut me out
D5/D    C5/C E5/Em C5/C D5/D A/C#/Am   
Make me go away,  make me  go  away

[BRIDGE]
E5          C5               D5   A/C#           E5 C5 D5 A/C#
I tried to belong it didn't seem wrong, my head aches
E5        C5                  D5  A/C#                     E5 C5 D5
It's been so long I'll write this song, if that's what it takes

D5 D5 D5 <----- slide down the last time

[CHORUS]
E5/Em              C5/C
You don't know me, don't ignore me
D5/D              A5/A           E5/Em    C5/C D5/D A5/A 
You don't want me there you just shut me out
E5/Em              C5/C
You don't know me, don't ignore me
D5/D             A5/A          E5/Em    C5/C
If you had your way you'd just shut me out
D5/D    C5/C E5/Em
Make me go away

[RIFF 1]

E5/Em              C5/C
You don't know me, don't ignore me
D5/D              A5/A           E5/Em    C5/C D5/D A5/A 
You don't want me there you just shut me out
[RIFF 2]
E5/Em              C5/C
You don't know me, don't ignore me

D5/D             A5/A          E5/Em    C5/C
If you had your way you'd just shut me out
             [SOLO]
D5/D    C5/C  E5/Em C5/C D5/D      A/C#/Am     E5/Em C5/C D5/D A/C#/Am   
Make me go   away,                              yeah yeah         
                     
E5/Em C5/C D5/D       A/C#/Am     E5/Em C5/C D5/D A5/A  <---- slide down
           Make me go away
[RIFF 1]
e/|-------------------------------------------------------------|\
B||-------------------------------------------------------------||
G||--7-7-7-7-7-7-7-7-7-7-7-7-7-7-7-7-7-7-7-7-7-7-7-7-7-7-7-7-7--||
D||--x-x-x-x-x-x-x-x-x-x-x-x-x-x-x-x-x-x-x-x-x-x-x-x-x-x-x-x-x--||
A||--5-5-5-5-5-5-5-5-5-5-5-5-5-5-5-5-5-5-5-5-5-5-5-5-5-5-5-5-5--||
E\|-------------------------------------------------------------|/

[RIFF 2]
e/|-------------------------------------------------------------|\
B||-------------------------------------------------------------||
G||------------5--5-5-5---7--7-7-7---9--9-9-9---11-11-11-11-----||
D||-2--2-2-2---x--x-x-x---x--x-x-x---x--x-x-x---x--x--x--x------||
A||-2--2-2-2---3--3-3-3---5--5-5-5---7--7-7-7---9--9--9--9------||
E\|-0--0-0-0----------------------------------------------------|/

e/|-------------------------------------------------------------|\
B||-------------------------------------------------------------||
G||--13--13--13--13-----------------12--------------------------||
D||--x---x---x---x------------12--14----------------------------||
A||--11--11--11--11--/--12--14----------------------------------||
E\|-------------------------------------------------------------|/

[SHORT SOLO]
   [awaay........]
e/|-------------------------------------------------------------------------|\
B||-----------------15-15-15--15-15-15------------------15-15-15--15-15-15\-||
G||--b14-b14-14-14--14-14-15--14-14-14--b14-b14-b14-14--14-14-14--14-14-14\-||
D||----------x--x-----------------------------------x-----------------------||
A||----------12-12----------------------------------12----------------------||
E\|-------------------------------------------------------------------------|/



××××××××××××××××××××××××××××××××××××××××××××××××××××××××××××××××××××××××××××××××
7.			         T o m o r r o w
××××××××××××××××××××××××××××××××××××××××××××××××××××××××××××××××××××××××××××××××
Tuning - Standard EADGBE 
A - x02220     || G#5 - 466xxx 
F#m7 - 2442x0  || D - xx0232 
Dsus2 - xx0230 || C#m - x46654 

A F#m7 Dsus2 

[Verse:]
A F#m7 Dsus2 G 
And I wanna believe you, when you tell me that it will be okay 

A F#m7 Dsus2 
Yeah I try to believe you, But I don't 

A F#m7 Dsus2 A 
When you say that it's gonna be, it always turns out to be a different way 

A F#m7 Dsus2 A 
I try to believe you, not today 

A F#m7 Dsus2 
Today today today today 

[Chorus:]
F#m7 G#5 D C#m 
I don't know how I feel, tomorrow, tomorrow 

F#m7 G#5 D C#m 
I don't know what to say, tomorrow, tomorrow is a different day 

A F#m7 Dsus2 

[Verse:]  
A F#m7 Dsus2 A 
It's always been up to you, it's turning around it's up to me 

A F#m7 Dsus2 
I'm gonna do what I have to do, just don't 

A F#m7 Dsus2 A 
Give me a little time, leave me alone a little while 

A F#m7 Dsus2 A 
Maybe it's not too late, not today 

A F#m7 Dsus2 
Today today today today, oh 
  
[Chorus:]
F#m7 G#5 D C#m 
I don't know how I feel, tomorrow, tomorrow 

F#m7 G#5 D C#m 
I don't know what to say, tomorrow, tomorrow is a different day 

A F#m7 Dsus2 
Hey yeah hey yeah, and I know I'm not ready 

A F#m7 Dsus2 
Hey yeah hey yeah, maybe tomorrow 

A F#m7 Dsus2 
Hey yeah hey yeah, I'm not ready 

A F#m7 Dsus2 
Hey yeah hey yeah, maybe tomorrow 

[Outro:]
A Dsus2 

A F#m7 Dsus2 A 
And I wanna believe you, when you tell me that it will be okay 

A F#m7 Dsus2 A 
Yeah I try to believe you, not today 

A F#m7 Dsus2 
Today today today today 

Dsus2 A F#m7 Dsus2 
Tomorrow it might change 

Dsus2 A F#m7 Dsus2 
Tomorrow it might change 

Dsus2 A F#m7 Dsus2 
Tomorrow it might change 

Dsus2 A F#m7 Dsus2 
Tomorrow it might change 


××××××××××××××××××××××××××××××××××××××××××××××××××××××××××××××××××××××××××××××××
8.			 A n y t h i n g  B u t  O r d i n a r y
××××××××××××××××××××××××××××××××××××××××××××××××××××××××××××××××××××××××××××××××
Tabbed by Charles de la Cruz (http://members.rogers.com/avrillavigne/)
Tuning - Standard EADGBE

Gm - 355333  || G - 320003
F - 133211   || Am - x02210
C - x32013   || Dm - xx0231
C/B - x2x013 || D - xx0232
Am7 - x02013 ||

Gm F C
Gm F C

C C/B Am7 
Sometimes I get so weird, I even freak myself out
F G
I laugh myself to sleep, it's my lullabye
C C/B Am7 
Sometimes I drive so fast, just to feel the danger
F G
I wanna scream, it makes me feel alive

F G C C/B Am
Is it enough to love, is it enough to breathe
F G Am
Somebody rip my heart out and leave me here to bleed
Dm F C C/B Am
Is it enough to die somebody save my life
Gm F Am
I'd rather be anything but ordinary please

C C/B Am7
To walk within the lines would make my life so boring
F G
I want to know that I have been to the extreme
C C/B Am7
So knock me off my feet com'on now give it to me
F G
Anything to make me feel alive

F G C C/B Am
Is it enough to love, is it enough to breathe
F G Am
Somebody rip my heart out and leave me here to bleed
Dm F C C/B Am
Is it enough to die somebody save my life
Gm F Am
I'd rather be anything but ordinary please
Gm F C
I'd rather be anything but ordinary please

Am Em D
Let down your defenses, use no common sense
G
If you look you will see that this world is
Am Em D
Beautiful accident, turbulent, succulent, opulent permanent
G Am C D
No way I wanna taste it, don't wanna waste it away

(no chords)
Sometimes I get so weird I even freak myself out
(no chords) F G 
I laugh myself to sleep it's my lullabye

F G C C/B Am
Is it enough, is it enough, is it enough to breathe
F G Am
Somebody rip my heart out and leave me here to bleed
Dm F C C/B Am
Is it enough to die somebody save my life
Gm F Am
I'd rather be anything but ordinary please, is it enough

Dm F C C/B Am
Is it enough to die somebody save my life
Gm F Am
I'd rather be anything but ordinary please
Gm F (outro riff)
I'd rather be anything but ordinary please

Outro riff
Guitar 1
e||------------------------------------------3--
B||-------3----3------1---1------1---1----------
G||---------3----3------2---2------2---2-----0--
D||---------------------------------------------
A||---------------------------------------------

|| Guitar 2 
e||---------------------------------------------
B||-------3----3----3----1----1----1----1----1--
G||--2-3----3----3----2----2----2----2----2--0--
D||---------------------------------------------
A||---------------------------------------------



××××××××××××××××××××××××××××××××××××××××××××××××××××××××××××××××××××××××××××××××
9.			 T h i n g s   I ' l l   N e v e r  S a y
××××××××××××××××××××××××××××××××××××××××××××××××××××××××××××××××××××××××××××××××
Tabbed by Navid Navidb86@hotmail.com
[Live, but same as on CD.]

Tuning - Standard (EADGBE)
Bm    - x24432 || Em - 022000
G     - 3x0033 || A  - x02220
D     - xx0232 || C  - x32010
Asus2 - x00220 || 

h  = hammer on    pm = palm mute
/  = slide up     x  = scratch
\  = slide down   b  = bend
~  = vibrato      r  = release bend

[INTRO]
          Guitar 1
      ****** * ****** * ****** * ****** *
e/|--2--------0--------2--------3------------------------|\
B||--3--------2--------3--------3------------------------||
G||--2--------2--------4--------0------------------------||
D||--0--------2--------4--------0------------------------||
A||-----------0--------2--------x------------------------||
E\|--------------------x--------3------------------------|/
  |                                                      |
  |        Guitar 2 distorted comes in the second time   |
  |                                                      |
e/|------------------------------------------------------|\
B||------------------------------------------------------||
G||--7--------6--------7---------------------------------||
D||-----------------------------5/9----------------------||
A||--5--------4--------5---------------------------------||
E\|-----------------------------3/7----------------------|/

[VERSE 1]
           Guitar 1
      ** * *   ** * *   ** * *   ** * *
e/|--2--------3--------2--------0------------------------|\
B||--3--------3--------3--------2------------------------||
G||--4--------0--------2--------2------------------------||
D||--4--------0--------0--------2------------------------||
A||--2--------x-----------------0------------------------||
E\|--x--------3------------------------------------------|/
  |                                                      |
  |        Guitar 2 distorted comes in the second time   |       
  |                                                      | 
e/|------------------------------------------------------|\
B||------------------------------------------------------||
G||------------------------------------------------------||
D||--5--------7----------4--------2----------------------||
A||---5--------7----------4--------2---------------------||
E\|----5--------7----------4--------2--------------------|/

[PRE CHORUS]
          Guitar 1
      ** * *   ** * *   ** * *    
e/|--0--------3--------0--------0------------------------|\
B||--0--------3--------0--------0------------------------||
G||--0--------0--------0--------2------------------------||
D||--2--------0--------2--------2------------------------||
A||--2--------x--------2--------0------------------------||
E\|--0--------3--------0--------x------------------------|/
  |                                                      |
  |       Guitar 2 distorted                             |
  |                                                      |
e/|------------------------------------------------------|\
B||------------------------------------------------------||
G||------------------------------------------------------||
D||--2--------5--------2--------5/9----------------------||
A||--2--------5--------2---------------------------------||
E\|--0--------3--------0--------3/7----------------------|/

[CHORUS]
           Guitar 1
      ****** * ****** * ****** * ****** *  ****** *  
e/|--2--------0--------2--------3---------0---------0----|\
B||--3--------2--------3--------3---------0---------1----||
G||--2--------2--------4--------0---------0---------0----||
D||--0--------2--------4--------0---------2---------2----||
A||-----------0--------2--------x---------2---------3----||
E\|--------------------x--------3---------0---------x----|/
  |                                                      |
  |        Guitar 2 distorted                            |
  |                                                      |
e/|------------------------------------------------------|\
B||---------------------------------------9~--7~---------||
G||--7--------6--------7---------------------------------||
D||-----------------------------5--5-7-------------------||
A||---5--------4--------5--------------------------------||
E\|------------------------------3-----------------------|/

[Fill]     
           Guitar 1 plays the chorus again
           Guitar 2 distorted                             
e/|--10----10----10----9----9----9-----------------------|
B||-----10----10----10---10---10---10-------------------|
G||------------------------------------------------------|
D||------------------------------------------------------|
A||------------------------------------------------------|
E\|------------------------------------------------------|

e/|------------------------------------------------------|\
B||--b8r--b7---p8-7-7-7-7-7-b7r--b6-b6-5--4-h6-3-h5-2~~~~||
G||------------------------------------------------------||
D||------------------------------------------------------||
A||------------------------------------------------------||
E\|------------------------------------------------------|/

[VERSE 2]
           Guitar 1
      ** * *   ** * *   ** * *   ** * *
e/|--2--------3--------2--------0------------------------|
B||--3--------3--------3--------2------------------------|
G||--4--------0--------2--------2------------------------|
D||--4--------0--------0--------2------------------------|
A||--2--------x-----------------0------------------------|
E\|--x--------3------------------------------------------|
  |                                                      |
  |        Guitar 2 distorted                            |       
  |                                                      | 
e/|------------------------------------------------------|
B||------------------------------------------------------|
G||------------------------------------------------------|
D||--------------------5----------5----------------------|
A||---------------------5--------5-----------------------|
E\|----------------------5------5------------------------|
           Guitar 1
      ** * *   ** * *   ** * *   ** * *
e/|--2--------3--------2--------0------------------------|\
B||--3--------3--------3--------2------------------------||
G||--4--------0--------2--------2------------------------||
D||--4--------0--------0--------2------------------------||
A||--2--------x-----------------0------------------------||
E\|--x--------3------------------------------------------|/
  |                                                      |
  |        Guitar 2 distorted                            |       
  |                                                      | 
e/|------------------------------------------------------|\
B||------------------------------------------------------||
G||------------------------------------------------------||
D||--3--------3-----------7~~~----5----------------------||
A||---3------3---------7---------5-----------------------||
E\|----3----3-------------------5------------------------|/

[PRE CHORUS]
          Guitar 1
      ** * *   ** * *   ** * *    
e/|--0--------3--------0--------0------------------------|\
B||--0--------3--------0--------0------------------------||
G||--0--------0--------0--------2------------------------||
D||--2--------0--------2--------2------------------------||
A||--2--------x--------2--------0------------------------||
E\|--0--------3--------0--------x------------------------|/
  |                                                      |
  |       Guitar 2 distorted                             |
  |                                                      |
e/|------------------------------------------------------|\
B||------------------------------------------------------||
G||------------------------------------------------------||
D||--2--------5--------2--------5/9----------------------||
A||--2--------5--------2---------------------------------||
E\|--0--------3--------0--------3/7----------------------|/

[CHORUS]
           Guitar 1
      ****** * ****** * ****** * ****** *  ****** *  
e/|--2--------0--------2--------3---------0---------0----|\
B||--3--------2--------3--------3---------0---------1----||
G||--2--------2--------4--------0---------0---------0----||
D||--0--------2--------4--------0---------2---------2----||
A||-----------0--------2--------x---------2---------3----||
E\|--------------------x--------3---------0---------x----|/
  |                                                      |
  |        Guitar 2 distorted                            |
  |                                                      |
e/|------------------------------------------------------|\
B||---------------------------------------9-----9-7b-r--||
G||--7--------6--------7--------------------97----------||
D||-----------------------------5--5-7-------------------||
A||---5--------4--------5--------------------------------||
E\|------------------------------3-----------------------|/

[BRIDGE]
          Guitar 1
      **       **       **          **
e/|--2--------0--------3-----------3---------------------|
B||--3--------2--------3-----------3---------------------|
G||--4--------2--------0-----------0---------------------|
D||--4--------2--------0-----------0---------------------|
A||--2--------0--------x-----------x---------------------|
E\|--x--------x--------3-----------3---------------------|
  |                                                      |
  |       Guitar 2 distorted                             |
  |                                                      |
e/|--------------------------------7--5------------------|
B||--5------------------b3b3b3~2---------8---------------|
G||-----------5~-----------------------------------------|
D||------------------------------------------------------|
A||------------------------------------------------------|
E\|------------------------------------------------------|
          Guitar 1
      **       **       **     
e/|--2--------0--------3-----------0---------------------|\
B||--3--------2--------3-----------0---------------------||
G||--4--------2--------0-----------0---------------------||
D||--4--------2--------0-----------2---------------------||
A||--2--------0--------x-----------2---------------------||
E\|--x--------x--------3-----------0---------------------|/
  |                                                      |
  |       Guitar 2 distorted                             |
  |                                                      |
e/|--------------------------------7--5------------------|\
B||--7-----------------5--7b~5-----------8--6------------||
G||-----------7~-------------5---------------------------||
D||------------------------------------------------------||
A||------------------------------------------------------||
E\|------------------------------------------------------|/

[INTERLUDE] 
          Guitar 1
               **       **    
e/|--0--------3--------0---------------------------------|\
B||--0--------3--------0---------------------------------||
G||--0--------0--------0---------------------------------||
D||--2--------0--------2---------------------------------||
A||--2--------x--------2---------------------------------||
E\|--0--------3--------0---------------------------------|/
  |                                                      |
  |       Guitar 2 distorted                             |
  |                              pm...                   |
e/|--10~~~~~-----------10--------------------------------|\
B||-----------8/7~~------10------------------------------||
G||-------------------------9----777777777799999/--------||
D||------------------------------777777777799999/--------||
A||------------------------------555555555577777/--------||
E\|------------------------------------------------------|/

[CHORUS] 
           Guitar 1
      ****** * ****** * ****** * ****** *  ****** *  
e/|--2--------0--------2--------3---------0---------0----|\
B||--3--------2--------3--------3---------0---------1----||
G||--2--------2--------4--------0---------0---------0----||
D||--0--------2--------4--------0---------2---------2----||
A||-----------0--------2--------x---------2---------3----||
E\|--------------------x--------3---------0---------x----|/
  |                                                      |
  |        Guitar 2 distorted                            |
  |                                                      |
e/|------------------------------------------------------|\
B||---------------------------------------9~--7~-5b-5~~\-||
G||--7--------6--------7---------------------------------||
D||-----------------------------5--5-7-------------------||
A||---5--------4--------5--------------------------------||
E\|------------------------------3-----------------------|/

Then Chorus again, and Guitar 2 ends like this
           Guitar 2 distorted 
e/|-----------------x------------------------------------|\
B||-----------------1------------------------------------||
G||-----------------0---0--------------------------------||
D||--2-----------2--2------------------------------------||
A||-----------3-----3------------------------------------||
E\|----0------------x------------------------------------|/



××××××××××××××××××××××××××××××××××××××××××××××××××××××××××××××××××××××××××××××××
10.			  	M y  W o r l d
××××××××××××××××××××××××××××××××××××××××××××××××××××××××××××××××××××××××××××××××
Tabbed by Fern Alison Hughes 
Tuning - Standard Eb (Eb-Ab-Db-Gb-Bb-Eb)
Chords written according to fret position

D     - xx0232 || G     - 3x0033 || D(V)  - x57775
Dsus2 - xx0230 || Gmaj7 - 3x0032 || Em    - x79987
Dsus4 - xx0233 || Gadd6 - 3x0030 || 
Bm    - x24432 || A     - x0222x || 
Bsus4 - x24430 || Asus4 - x02230 || 
Badd6 - x24433 || C#5   - x466xx || 


D Dsus2 Dsus4 D
D Dsus2 Dsus4 D
          D           Dsus2                  Dsus4            D
  Please tell me what is taking place, Cause I can't seem to find a trace
   Bm           Bsus4                Badd6  Bm
  Guess it must have got erased somehow
    Gmaj7        Gadd6            G                  Gmaj7
  Probably cause I always forget, everytime someone tells me their name
D        Dsus2             Dsus4  D
  It's always gotta be the same      (in my world)

   D        Dsus2      Dsus4      D
  Never wore cover up, always beat the boys up
    Bm          Bsus4           Badd6  Bm
  Grew up in a 5000 population town
   Gmaj7        Gadd6                  G                 Gmaj7
  Made my money by cutting grass, got fired by a fried chicken ass
D                Dsus2       Dsus4  D
  All in a small town Napanee

           A        G  Bm
You know I always stay up without sleeping
      A    G    Bm
And think to myself
  A      G    Bm
Where do I belong forever
A                  Asus4
In who's arms the time and place

G 
Can't help it if I space in a daze
   D
My eyes tune out the other way
   G                                D Dsus2 D
I may switch off and go in a daydream
G
In this head my thoughts are deep
         Bm
And sometimes I can't even speak
       A                         G         A
Would someone be and not pretend I'm off again in my world

D   Dsus2 Dsus4 D

D               Dsus2               Dsus4      D
  I never spend less than an hour, washing my hair in the shower
     Bm            Bsus4                   Badd6  Bm
  It always takes five hours to make it straight
            Gmaj7      Gadd6               G                 Gmaj7
  So I'll braid it in a zillion braids, so it may take all friggin' day
           D                     Dsus2  Dsus4  D
  There's nothing else better to do anyway

            A     G           Bm
When you're all alone in the lands of forever
    A          G    Bm
Lay under the milkyway
A      G        Bm
On and on it's getting too late out
     A                Asus4
I'm not in love this time this night

G 
Can't help it if I space in a daze
   D
My eyes tune out the other way
   G                               D Dsus2 D
I may switch off and go in a daydream
G
In this head my thoughts are deep
         Bm
And sometimes I can't even speak
       A                         G         A
Would someone be and not pretend I'm off again in my world

Gmaj7 Gadd6 Gmaj7
D     Dsus2 D
Gmaj7 Gadd6 Gmaj7

    Bm
It takes some time
 C#5         D(V)
Mellow out, party it up
     Em
But don't fall down
 D(V)                   G          A
Don't get caught sneak out of the house

G 
Can't help it if I space in a daze
   D
My eyes tune out the other way
   G                               D Dsus2 D
I may switch off and go in a daydream
G
In this head my thoughts are deep
         Bm
And sometimes I can't even speak
       A                         G         A
Would someone be and not pretend I'm off again in my world

G 
Can't help it if I space in a daze
   D
My eyes tune out the other way
   G                               D Dsus2 D
I may switch off and go in a daydream
G
In this head my thoughts are deep
         Bm
And sometimes I can't even speak
       A                         G         A
Would someone be and not pretend I'm off again in my world



××××××××××××××××××××××××××××××××××××××××××××××××××××××××××××××××××××××××××××××××
11.			  	N o b o d y s  F o o l
××××××××××××××××××××××××××××××××××××××××××××××××××××××××××××××××××××××××××××××××
Tabbed by Charles de la Cruz (http://www.comeunglued.com/avril/)
Tuning - Standard (EADGBE)
Chords written according to fret position
E      - 022100
E(VII) - x79997
B      - x24442
C#m    - x46654
A      - x02220
E/D#   - x6999x

Opening Riff
     E(VII)            E/D#                B                 A
e||-------------------------------------------------------------------------------|
B||-------------------------------------------------------------------------------|
G||------9-------9---------9-------9-----------9-------9---------9-------9-----9--|
D||----9---9---9---9-----9---9---9---9-------9---9---9---9-----9---9---9---9------|
A||--7-------7-------7-6-------6-------6---------------------0-------0-------0----|
E||--------------------------------------7h9-------9-------9----------------------|

                     Step up...        Step up...
     E(VII)            E/D#                B                 A
e||-----------------------------------------------------------------------------|\
B||-----------------------------------------------------------------------------||
G||------9-------9---------9-------9-----------9-------9---------9-------9------||
D||----9---9---9---9-----9---9---9---9-------9---9---9---9-----9---9---9---9----||
A||--7-------7-------7-6-------6-------6---------------------0-------0----------||
E||--------------------------------------7h9-------9-------9--------------------|/

[Verse:]
      E
Fall back, take a look at me and you'll see
         B                                                        C#m
I'm for real, I'll feel what only I can feel and if that don't appeal to ya
                                    A
Let me know, and I'll go, cause I flow better when my colours show
                       E
And that's the way it has to be, honestly
                        B                                             C#m
Cause creativity could never bloom in my room, I'd throw it all away before I lie
                                       A
So don't call me with the compromise, hang up the phone, I got a backbone
                 E
Stronger than yours

[Pre-chorus:]
E
La la la la la la
B
La la la la la la
C#m
La la la la la la
A
Yeah yeah yeah yeah...

[Chorus:]
E                                 B
If you're trying to turn me into someone else
                          C#m
It's easy to see I'm not down with that
                  A
I'm not nobody's fool
E                                 B
If you're trying to turn me into something else
                             C#m
I've seen it enough that I'm over that
                  A
I'm not nobody's fool
E                        B
If you want to bring me down
            C#m    A
Go ahead and   try,  go ahead and try

[Verse:]
            E
You don't know you think you know me like yourself
       B                                             C#m
But I fear that you're only telling me what I wanna hear
                                           A
But do you give a damn, understand that I can't not be what I am

[Background: Sounds like using an echo effect, some thing like Triplet, 
just pick it right and it sounds ok though.]
e|------------------------------------------------------------------------------------|
B|-----------------------------17-x3--16-x2--14-x2--12-x2-----------------------------|
G|---9-x12(fast, fade out)---------------------------------9-x6(fade in)-9h11p9-9-x8--|
D|------------------------------------------------------------------------------------|
A|------------------------------------------------------------------------------------|
E|------------------------------------------------------------------------------------|
                       E
I'm not the milk and cheerios in your spoon
                    B                                                C#m
It's not as simple here we go not so soon, I might have fallen for that
                                  A
When I was 14 and a little more green
                                                E
But it's amazing what a couple of years can mean

[Pre-chorus:]
E    B
Ohhhhhhh
C#m
Yeah yeah
A
Yeah yeah yeah

[Chorus:]
E                                 B
If you're trying to turn me into someone else
                          C#m
It's easy to see I'm not down with that
                  A
I'm not nobody's fool
E                                 B
If you're trying to turn me into something else
                             C#m
I've seen it enough that I'm over that
                  A
I'm not nobody's fool
E                        B
If you want to bring me down
            C#m    A
Go ahead and   try,  go ahead and try

[Bridge:]
E   B
Ohhhhhh
C#m
Go ahead and try, try to look me in the eye
            A                                  E
But you'll never see inside, until you realize
E
   Things are trying to settle down
B
   Just trying to figure out
C#m
   Exactly what I'm about
            A
   If it's with or without you, I don't need your doubt in me

[Chorus:]
E                                 B
If you're trying to turn me into someone else
                          C#m
It's easy to see I'm not down with that
                  A
I'm not nobody's fool
E                                 B
If you're trying to turn me into something else
                             C#m
I've seen it enough that I'm over that
                  A
I'm not nobody's fool
E                        B
If you want to bring me down
            C#m    A
Go ahead and   try, try
E       B          C#m  A
 Yeah yeah, yeah yeah,  ohhhhh
E                            B
 But you'll be laughing out loud, if I played to my own crowd
C#m     A  E
    Try
Go ahead and try




××××××××××××××××××××××××××××××××××××××××××××××××××××××××××××××××××××××××××××××××
12.			  	T o o  M u c h  T o  A s k
××××××××××××××××××××××××××××××××××××××××××××××××××××××××××××××××××××××××××××××××
Tabbed by Fern Alison Hughes
Tuning - Standard (EADGBE)

Chords written according to fret position
A7     - x02020 || G/F#   - 2x0033 || G/B    - x20033
C      - x32013 || Em7    - 022033 || Cadd9  - x32033
Dsus4  - x54035 || D      - xx0232 || F      - 133211
G      - 3x0033 || Em     - 022000 || 

Opening Riff
      A7               C                A7               C        Dsus4
e||-----------------------------------------------------------------------|
B||----5~~-5~~-5~~~-----8---8---8~~~-----5~~-5~~-5~~~----8--------10~~~~--|
G||-----------------------------------------------------------------------|
D||--/5---5---5----5--/9---9---9----9\-/5---5---5----5--/9----------------|
A||-----------------------------------------------------------------------|
E||-----------------------------------------------------------------------|

          G           G/F#            Em7 
It's the first time I ever felt this lonely
 G	          G/F#        Em7
Wish someone would cure this pain
      C               D               Em      D
It's funny when you think it's gonna work out
                C         D            Em  G/F#
Till you chose weed over me you're so lame

    G               G/F#           Em7
I thought you were cool until the point
G             G/F#             Em7
Up until the point you didn't call me when you said you would
 C              D                   Em  D
Finally figured out you're all the same
        C              D             Em  G/F#
Always coming up with some kind of story

G                   G/B      Cadd9  
Everytime I try to make you smile
       G              G/B           Cadd9  D
You're always feelin sorry for yourself
G                   G/F#     Em7  D
Everytime I try to make you laugh
A7                    C
You can't you're too tough
                      A7
You think you're loveless
             C            Dsus4
Is that too much that I'm askin' for?

G G/F# Em7
G G/F# Em7

  G                G/F#             Em7
Thought you'd come around when I ignored you
       G                     G/F#        Em7
So I thought you'd have the decency to change
     C                D                Em     D
But babe I guess you didn't take that warning
      C         D       Em           G/F#
Cause I'm not about to look at your face again

 G                      G/B        Cadd9
Can't you see that you lie to yourself
     G             G/B             Cadd9 D
You can't see the world through a mirror
G           G/F#       Em7            D
It won't be too late when the smoke clears
      A7             C   Dsus4
Cause I, I am still here

    G                   G/B       Cadd9
But everytime I try to make you smile
      G                      G/B           Cadd9 D
You'd always go off feelin' sorry for yourself
G                   G/F#     Em7  D
Everytime I try to make you laugh
A7                 C
You stand like a stone
               A7
Alone in your zone
             C            Dsus4
Is that too much that I'm asking for?

C                      Em 
                       Yeah yeah, yeah yeah
C                      Em
Can't find where I am, a lying here alone I fear
C                      Em
Afraid of the dark,    no one to claim, alone again
F
  Yeah yeah yeah yeah

 G                      G/B        Cadd9
Can't you see that you lie to yourself
     G             G/B             Cadd9 D
You can't see the world through a mirror
G           G/F#       Em7            D
It won't be too late when the smoke clears
      A7             C   Dsus4
Cause I, I am still here

    G                   G/B       Cadd9
But everytime I try to make you smile
       G               G/B           Cadd9 D
You're always feelin' sorry for yourself
G                   G/F#     Em7  D
Everytime I try to make you laugh
A7                    C
You can't you're too tough
                      A7
You think you're loveless
            C            Dsus4
It was too much that I'm ask him for

G G/F# Em7
G G/F# Em7



××××××××××××××××××××××××××××××××××××××××××××××××××××××××××××××××××××××××××××××××
13.			  	     N a k e d
××××××××××××××××××××××××××××××××××××××××××××××××××××××××××××××××××××××××××××××××

Song name - Naked (Live) [Same as on CD except solo which is not on CD]	
Tuning - Standard (EADGBE)
Em     - 02200x || Cadd9  - x32033
G      - 32000x || G/B    - x20033
Cmaj7  - x3200x || Asus4  - x0223x
Asus2  - x02200 || C      - x32010
D      - xx0232 ||

h  = hammer on    <> = natural harmonic on specified fret
/  = slide up     x  = scratch
\  = slide down   b  = bend
~  = vibrato      r  = release bend

/|-------------------------------------------------------|\
||                         NOTE!                         ||
||There are 3 guitars playing in this song, but guitar 3 ||
||plays the same as guitar 1 basically!                  ||
\|-------------------------------------------------------|/


[INTRO] 
           Guitar 1 with delay (repeat twice)
                                            2nd ending 
e/|--x--x-------x--x-------x----0----x-----|-------------|\
B||--0--0-------0--0-------0----0----0-----|-----0-------||
G||--0--0-------0--0-------0----0----0-----|----0--------||
D||--2--2-------0--0-------2----2----2-----|---2---------||
A||--2--2-------2--2-------3----3----3-----|--3----------||
E\|--0--0-------3—-3-------x----x----x-----|-------------|/
         
           Guitar 1 with delay (repeat twice)
                                        
e/|--x--x-------x--x-------x----0----x-------------------|\
B||--0--0-------0--0-------0----0----0-------------------||
G||--0--0-------0--0-------0----0----0-------------------||
D||--2--2-------0--0-------2----2----2-------------------||
A||--2--2-------2--2-------3----3----3-------------------||
E\|--0--0-------3—-3-------x----x----x-------------------|/

           Guitar 1 with delay
                                        
e/|--x--x-------x--x-------x----0----x-------------------|\
B||--0--0-------0--0-------0----0----0-------------------||
G||--0--0-------0--0-------0----0----0-------------------||
D||--2--2-------0--0-------2----2----2-------------------||
A||--2--2-------2--2-------3----3----3-------------------||
E\|--0--0-------3—-3-------x----x----x-------------------|/
  |                                                      |
  |        Guitar 2 distorted                            |
  |                                                      |
e/|------------------------------------------------------|\
B||------------------------------------------------------||
G||------------------------------------------------------||
D||--2--2-------5--5-------10-10-10-10---10--x-x---------||
A||--2--2-------x--x-------x--x--x--x----x---x-x---------||
E\|--x--x-------3--3-------8--8--8--8----8---x-x---------|/

           Guitar 1 with delay
                                        
e/|--0--0--0--0--0--0--0--0------------------------------|\
B||--0--0--0--0--0--0--0--0------------------------------||
G||--2--2--2--2--2--2--2--2------------------------------||
D||--2--2--2--2--2--2--2--2------------------------------||
A||--0--0--0--0--0--0--0--0------------------------------||
E\|--x--x--x--x--x--x--x--x------------------------------|/
  |                                                      |
  |        Guitar 2 distorted                            |
  |                                                      |
e/|------------------------------------------------------|\
B||------------------------------------------------------||
G||------------------------------------------------------||
D||--7~~~~~~~~~~~~---------------------------------------||
A||--x---------------------------------------------------||
E\|--5~~~~~~~~~~~~---------------------------------------|/


[VERSE 1]
   
           Guitar 1              

e/|--x---------3---------x-------------------------------|\
B||--0---------x---------0-------------------------------||
G||--0---------4---------0-------------------------------||
D||--2---------5---------2-------------------------------||
A||--2---------5---------3-------------------------------||
E\|--0---------3---------x-------------------------------|/ 
  |                                                      |
  |        Guitar 2 distorted                            |
  |                                                      |
e/|------------------------------------------------------|\
B||------------------------------------------------------||
G||------------------------------------------------------||
D||--2--2------5--5------10-10-10-10---10----------------||
A||--2--2------x--x------x--x--x--x----x-----------------||
E\|--x--x------3--3------8--8--8--8----8-----------------|/


           Guitar 1

e/|--0--------------3------------------------------------|\
B||--0--------------2------------------------------------||
G||--2--------------3------------------------------------||
D||--2--------------0------------------------------------||
A||--0---------------------------------------------------||
E\|--x---------------------------------------------------|/
  |                                                      |
  |        Guitar 2 distorted                            |
  |                                                      |
e/|------------------------------------------------------|\
B||------------------------------------------------------||
G||-----------------7~/-\--------------------------------||
D||--7~~~~~~--------x------------------------------------||
A||--x--------------5~/-\--------------------------------||
E\|--5~~~~~~---------------------------------------------|/


[CHORUS]

           Guitar 1 and Guitar 2 distorted
                                        
e/|--3----3----3----0----0----0--------------------------|\
B||--3----3----3----3----0----1--------------------------||
G||--0----0----0----2----0----0--------------------------||
D||--0----2----0----2----2----2--------------------------||
A||--2----3----3----0----2----3--------------------------||
E\|--3----x----x----x----0----x--------------------------|/
  
[Riff 1]

           Guitar 1
                                        
e/|------x-----3--------x--------------------------------|\
B||------0-----x--------0--------------------------------||
G||------0-----4--------0--------------------------------||
D||------2-----5--------2--------------------------------||
A||------2-----5--------3--------------------------------||
E\|------0-----3--------x--------------------------------|/
  |                                                      |
  |        Guitar 2 distorted                            |
  |                                                      |
e/|--1/--7-----7-----------------------------------------|\
B||-------8-----8----8--b7~-b7~-b7~-b7\------------------||
G||--------9---------------------------------------------||
D||------------------------------------------------------||
A||------------------------------------------------------||
E\|------------------------------------------------------|/


[VERSE 2] 

           Guitar 1              

e/|--x---------3---------x-----------------0------3------|\
B||--0---------x---------0-----------------0------2------||
G||--0---------4---------0-----------------2------3------||
D||--2---------5---------2-----------------2------0------||
A||--2---------5---------3-----------------0-------------||
E\|--0---------3---------x-----------------x-------------|/  
  |                                                      |
  |        Guitar 2 distorted                            |
  |                                                      |
e/|--0---------3---------0-------------------------------|\
B||--0---------0---------0-------------------------------||
G||--0---------0---------0------------------------7------||
D||--2---------0---------2-----------------7------x------||
A||--2---------2---------3-----------------x------5------||
E\|--x---------3---------x-----------------5-------------|/


[CHORUS]

   Same as before


[BRIDGE]
           Guitar 1 (repeat twice)

e/|--x-----------------3--------------0------------------|\
B||--0-----------------2--------------1------------------||
G||--0-----------------3--------------0------------------||
D||--2-----------------0--------------2------------------||
A||--2--------------------------------3------------------||
E\|--0--------------------------------x------------------|/
  |                                                      |
  |        Guitar 2 distorted (repeat twice)             |
  |                                                      |
e/|------------------------------------------------------|\
B||------------------------------------------------------||
G||--9---9--9--9--9----11-12--11-15---12-12~-------------||
D||--x---x--x--x--x----x--x---x--x----x--x---------------||
A||--7---7--7--7--7----9--10--9--13---10-10~-------------||
E\|------------------------------------------------------|/


[SOLO]

           Guitar 1 plays the same as in the bridge
 
           Guitar 2 distorted  
                                                          
e/|------------------------------------------------------|\
B||--12/15-15-b15(17)r--15-13----------------------------||
G||--------------------------15-13-----------------------||
D||-------------------------------15-15~~/12-------------||
A||------------------------------------------------------||
E\|------------------------------------------------------|/

e/|------------------------------------------------------|\
B||------------------------------------------12-14-------||
G||-----------------12-14-12--------12--12-14------------||
D||------------12-14--------14-12-14--14-----------------||
A||-------12-14------------------------------------------||
E\|--12-14-----------------------------------------------|/

e/|------------------------------------------------------|\
B||--b16-16-b16-16-b16-16-b16-16-b16-16-b16-16-b16-16----||
G||------------------------------------------------------||
D||------------------------------------------------------||
A||------------------------------------------------------||
E\|------------------------------------------------------|/

e/|--12--------------------------------------------------|\
B||----14-12---------------------------------------------||
G||---------14-12~~~~~-----------------------------------||
D||------------------------------------------------------||
A||------------------------------------------------------||
E\|------------------------------------------------------|/

           Guitar 1 and Guitar 2 distorted
                                        
e/|--3----3----3----0----0----0--------------------------|\
B||--3----3----3----3----0----1--------------------------||
G||--0----0----0----2----0----0--------------------------||
D||--0----2----0----2----2----2--------------------------||
A||--2----3----3----0----2----3--------------------------||
E\|--3----x----x----x----0----x--------------------------|/

           Guitar 1 with delay
    [I'm so naked........]                                     
e/|--x--x-------x--x-------x----0----x--x----------------|\
B||--0--0-------0--0-------0----0----0--0----------------||
G||--0--0-------0--0-------0----0----0--0----------------||
D||--2--2-------0--0-------2----2----2--2----------------||
A||--2--2-------2--2-------3----3----3--3----------------||
E\|--0--0-------3—-3-------x----x----x--x----------------|/
  |                                                      |
  |        Guitar 2 distorted                            |
  |                                                      |
e/|------------------------------------------------------|\
B||------------------------------------------------------||
G||------------------------------------------------------||
D||--2----------5----------10--------10-x----------------||
A||--2----------x----------x---------x--x----------------||
E\|--x----------3----------8---------8--x----------------|/

           Guitar 1 with delay
                            [baby...]           
e/|--x--x-------x-----x---------------0------------------|\
B||--0--0-------0-----0--------------0-------------------||
G||--0--0-------0-----0-------------0--------------------||
D||--2--2-------0-----2------------2---------------------||
A||--2--2-------2-----3-----------2----------------------||
E\|--0--0-------3—----x----------0-----------------------|/
  |                                                      |
  |        Guitar 2 distorted                            |
  |                                                      |
e/|------------------------------------------------------|\
B||------------------------------------------------------||
G||------------------------------------------------------||
D||--2--2-------5-----10---------2-----------------------||
A||--2--2-------x-----x----------2-----------------------||
E\|--x--x-------3-----8----------x-----------------------|/


Hope you enjoyed this album, so now you can learn to play all the songs. ;)
Any comments and corrections are wellcomed: avrildown@yahoo.com
comments
print report bad tab
2 comments total.
0 reply
guitarjunky7272 wrote on April 1 2005, 12:00 am

thats prettty cool

0 reply
PeteHIM wrote on May 26 2007, 04:47 pm

Not even close at some points

I want to post or [tab]
guest
You may want to rate the tab now too:
select rating
Please do not post tabs as comments. Select "correction" instead!