Oops, an error
Loading. Please wait.

Carousel Tab

ver2
ver2

Whole song

More versions @911Tabs.com
487 views 1 this week
no commentswrite comment
1 2 3 4 5
please rate
Autoscroll
+/-
esc
set tempo
stop
Contributor
Difficulty
Tuning
intermediate
D# G# C# F# A# D#
WARNING: You are trying to view
                                    content from Ultimate-Guitar.com
                                    in an unauthorized application,
                                    which is prohibited.

                                    Please use an official Ultimate
                                    Guitar Tabs application for iPhone,
                                    iPad or Android to access legitimate
                                    chords, guitar, bass, and drum tabs
                                    from Ultimate-Guitar.com database.

                                    Type "ultimate guitar tabs" in Apple
                                    App Store's or Android Market's
                                    search to find the application.
                                   Carousel -- Axel Rudi Pell


Tuning: half step down


Rhythm Guitar

      Q    E  Q.     Q       Q    E  Q.     Q       Q    E  Q.     E  E
D#||----------------------|----------------------|-----------------------|
A#||----------------------|----------------------|-----------------------|
F#||--7-------5-----------|--7-------------------|--3-------5---------7--|
C#||--7-------5-----------|--7-------7-----------|--3-------5---------7--|
G#||--5-------3-----------|--5-------7-----------|--1-------3---------5--|
D#||----------------------|----------5-----------|-----------------------|


  W                   Q    E  Q.     Q       Q    E  Q.     Q
-------------------|----------------------|----------------------|
-------------------|----------------------|----------------------|
--L----------------|--7-------5-----------|--7-------------------|
--L----------------|--7-------5-----------|--7-------7-----------|
--L----------------|--5-------3-----------|--5-------7-----------|
-------------------|----------------------|----------5-----------|


  Q    E  Q.     E  E     Q    H.              Q    E  Q.     Q
-----------------------|-------3------------|----------------------|
-----------------------|-------3------------|----------------------|
--3-------5------------|--------------------|--7-------5-----------|
--3-------5---------5--|--L----L------------|--7-------5-----------|
--1-------3---------5--|--L----L------------|--5-------3-----------|
--------------------3--|--L----L------------|----------------------|


  Q    E  Q.     Q       Q    E  Q.     E  E     E  E  E  E  E  E  E  E
----------------------|-----------------------|--------------------------|
----------------------|-----------------------|--------------------------|
--7-------------------|--3-------5---------7--|--L-----------------------|
--7-------7-----------|--3-------5---------7--|--L-----------------------|
--5-------7-----------|--1-------3---------5--|--L--5--5--5--5--5--5--5--|
----------5-----------|-----------------------|--------------------------|


  Q    E  Q.     Q       Q    E  Q.     Q       Q    E  Q.     E  E
----------------------|----------------------|-----------------------|
----------------------|----------------------|-----------------------|
--7-------5-----------|--7-------------------|--3-------5------------|
--7-------5-----------|--7-------7-----------|--3-------5---------5--|
--5-------3-----------|--5-------7-----------|--1-------3---------5--|
----------------------|----------5-----------|--------------------3--|


  W                   Q    E  Q.     Q       Q    E  Q.     Q
-------------------|----------------------|----------------------|
-------------------|----------------------|----------------------|
-------------------|--7-------5-----------|--7-------------------|
--L----------------|--7-------5-----------|--7-------7-----------|
--L----------------|--5-------3-----------|--5-------7-----------|
--L----------------|----------------------|----------5-----------|


  Q    E  Q.     E  E     E  E  E  E  E  E  E  E     Q    E  Q.     Q
-----------------------|--------------------------|----------------------|
-----------------------|--------------------------|----------------------|
--3-------5---------7--|--L-----------------------|--7-------5-----------|
--3-------5---------7--|--L-----------------------|--7-------5-----------|
--1-------3---------5--|--L--5--5--5--5--5--5--5--|--5-------3-----------|
-----------------------|--------------------------|----------------------|


  Q    E  Q.     Q       Q    E  Q.     E  E     W
----------------------|-----------------------|-------------------|
----------------------|-----------------------|-------------------|
--7-------------------|--3-------5------------|-------------------|
--7-------7-----------|--3-------5---------5--|--L----------------|
--5-------7-----------|--1-------3---------5--|--L----------------|
----------5-----------|--------------------3--|--L----------------|


  W                   W                   W
-------------------|-------------------|-------------------|
-------------------|-------------------|-------------------|
-------------------|-------------------|-------------------|
--L----------------|--5----------------|--L----------------|
--L----------------|--5----------------|--L----------------|
--L----------------|--3----------------|--L----------------|


  H.           E   E     H.           E  E     H.           E  E
----------------------|---------------------|---------------------|
----------------------|---------------------|---------------------|
--7------------x--10--|--L------------x--5--|--L------------x--3--|
--7------------x--10--|--L------------x--5--|--L------------x--3--|
--5------------x---8--|--L------------x--3--|--L------------x--1--|
----------------------|---------------------|---------------------|


  W                   H.           E   E     H.           E  E
-------------------|----------------------|---------------------|
-------------------|----------------------|---------------------|
--L----------------|--7------------x--10--|--L------------x--5--|
--L----------------|--7------------x--10--|--L------------x--5--|
--L----------------|--5------------x---8--|--L------------x--3--|
-------------------|----------------------|---------------------|


  H.           E  E     W                   H.           E   E
---------------------|-------------------|----------------------|
---------------------|-------------------|----------------------|
--L------------x--3--|--L----------------|--7------------x--10--|
--L------------x--3--|--L----------------|--7------------x--10--|
--L------------x--1--|--L----------------|--5------------x---8--|
---------------------|-------------------|----------------------|


  H.           E  E     H.           E  E     W
---------------------|---------------------|-------------------|
---------------------|---------------------|-------------------|
--L------------x--5--|--L------------x--3--|--L----------------|
--L------------x--5--|--L------------x--3--|--L----------------|
--L------------x--3--|--L------------x--1--|--L----------------|
---------------------|---------------------|-------------------|


  H.           E   E     H.           E  E     H.           E  E
----------------------|---------------------|---------------------|
----------------------|---------------------|---------------------|
--7------------x--10--|--L------------L--L--|--5------------x--3--|
--7------------x--10--|--L------------L--L--|--5------------x--3--|
--5------------x---8--|--L------------L--L--|--3------------x--1--|
----------------------|---------------------|---------------------|


  W                   W                   W
-------------------|-------------------|-------------------|
-------------------|-------------------|-------------------|
--L----------------|-------------------|-------------------|
--L----------------|--7----------------|--7----------------|
--L----------------|--7----------------|--7----------------|
-------------------|--5----------------|--5----------------|


  H.           E  E     W                   W
---------------------|-------------------|-------------------|
---------------------|-------------------|-------------------|
---------------------|-------------------|-------------------|
--7------------x--3--|--L----------------|--7----------------|
--7------------x--3--|--L----------------|--7----------------|
--5------------x--1--|--L----------------|--5----------------|


  W                   H.           E  E     W
-------------------|---------------------|-------------------|
-------------------|---------------------|-------------------|
-------------------|---------------------|-------------------|
--7----------------|--7------------x--3--|--L----------------|
--7----------------|--7------------x--3--|--L----------------|
--5----------------|--5------------x--1--|--L----------------|


  W                   W                   W
-------------------|-------------------|-------------------|
-------------------|-------------------|-------------------|
-------------------|-------------------|-------------------|
--L----------------|--5----------------|--L----------------|
--L----------------|--5----------------|--L----------------|
--L----------------|--3----------------|--L----------------|


  Q    E  Q.     Q       Q    E  Q.     Q       Q    E  Q.     E  E
----------------------|----------------------|-----------------------|
----------------------|----------------------|-----------------------|
--7-------5-----------|--7-------------------|--3-------5---------7--|
--7-------5-----------|--7-------7-----------|--3-------5---------7--|
--5-------3-----------|--5-------7-----------|--1-------3---------5--|
----------------------|----------5-----------|-----------------------|


  E  E  E  E  E  E  E  E     Q    E  Q.     Q       Q    E  Q.     Q
--------------------------|----------------------|----------------------|
--------------------------|----------------------|----------------------|
--L-----------------------|--7-------5-----------|--7-------------------|
--L-----------------------|--7-------5-----------|--7-------7-----------|
--L--5--5--5--5--5--5--5--|--5-------3-----------|--5-------7-----------|
--------------------------|----------------------|----------5-----------|


  Q    E  Q.     E  E     Q    H.              Q    E  Q.     Q
-----------------------|-------3------------|----------------------|
-----------------------|-------3------------|----------------------|
--3-------5------------|--------------------|--7-------5-----------|
--3-------5---------5--|--L----L------------|--7-------5-----------|
--1-------3---------5--|--L----L------------|--5-------3-----------|
--------------------3--|--L----L------------|----------------------|


  Q    E  Q.     Q       Q    E  Q.     E  E     E  E  E  E  E  E  E  E
----------------------|-----------------------|--------------------------|
----------------------|-----------------------|--------------------------|
--7-------------------|--3-------5---------7--|--L-----------------------|
--7-------7-----------|--3-------5---------7--|--L-----------------------|
--5-------7-----------|--1-------3---------5--|--L--5--5--5--5--5--5--5--|
----------5-----------|-----------------------|--------------------------|


  Q    E  Q.     Q       Q    E  Q.     Q       Q    E  Q.     E  E
----------------------|----------------------|-----------------------|
----------------------|----------------------|-----------------------|
--7-------5-----------|--7-------------------|--3-------5------------|
--7-------5-----------|--7-------7-----------|--3-------5---------5--|
--5-------3-----------|--5-------7-----------|--1-------3---------5--|
----------------------|----------5-----------|--------------------3--|


  Q    H.              W                   Q    E  Q.     Q
-------3------------|--L----------------|----------------------|
-------3------------|--L----------------|----------------------|
--------------------|-------------------|--7-------5-----------|
--L----L------------|--L----------------|--7-------5-----------|
--L----L------------|--L----------------|--5-------3-----------|
--L----L------------|--L----------------|----------------------|


  Q    E  Q.     Q       Q    E  Q.     E  E     E  E  E  E  E  E  E  E
----------------------|-----------------------|--------------------------|
----------------------|-----------------------|--------------------------|
--7-------------------|--3-------5---------7--|--L-----------------------|
--7-------7-----------|--3-------5---------7--|--L-----------------------|
--5-------7-----------|--1-------3---------5--|--L--5--5--5--5--5--5--5--|
----------5-----------|-----------------------|--------------------------|


  Q    E  Q.     Q       Q    E  Q.     Q       Q    E  Q.     E  E
----------------------|----------------------|-----------------------|
----------------------|----------------------|-----------------------|
--7-------5-----------|--7-------------------|--3-------5------------|
--7-------5-----------|--7-------7-----------|--3-------5---------5--|
--5-------3-----------|--5-------7-----------|--1-------3---------5--|
----------------------|----------5-----------|--------------------3--|


  W                   Q    E  Q.     Q       Q    E  Q.     Q
-------------------|----------------------|----------------------|
-------------------|----------------------|----------------------|
-------------------|--7-------5-----------|--7-------------------|
--L----------------|--7-------5-----------|--7-------7-----------|
--L----------------|--5-------3-----------|--5-------7-----------|
--L----------------|----------------------|----------5-----------|


  Q    E  Q.     E  E     E  E  E  E  E  E  E  E     Q    E  Q.     Q
-----------------------|--------------------------|----------------------|
-----------------------|--------------------------|----------------------|
--3-------5---------7--|--L-----------------------|--7-------5-----------|
--3-------5---------7--|--L-----------------------|--7-------5-----------|
--1-------3---------5--|--L--5--5--5--5--5--5--5--|--5-------3-----------|
-----------------------|--------------------------|----------------------|


  Q    E  Q.     Q       Q    E  Q.     E  E     W
----------------------|-----------------------|-------------------|
----------------------|-----------------------|-------------------|
--7-------------------|--3-------5------------|-------------------|
--7-------7-----------|--3-------5---------5--|--L----------------|
--5-------7-----------|--1-------3---------5--|--L----------------|
----------5-----------|--------------------3--|--L----------------|


  W                   W                   W
-------------------|-------------------|-------------------|
-------------------|-------------------|-------------------|
-------------------|-------------------|-------------------|
--L----------------|--5----------------|--L----------------|
--L----------------|--5----------------|--L----------------|
--L----------------|--3----------------|--L----------------|


  H.           E   E     H.           E  E     H.           E  E
----------------------|---------------------|---------------------|
----------------------|---------------------|---------------------|
--7------------x--10--|--L------------x--5--|--L------------x--3--|
--7------------x--10--|--L------------x--5--|--L------------x--3--|
--5------------x---8--|--L------------x--3--|--L------------x--1--|
----------------------|---------------------|---------------------|


  W                   H.           E   E     H.           E  E
-------------------|----------------------|---------------------|
-------------------|----------------------|---------------------|
--L----------------|--7------------x--10--|--L------------x--5--|
--L----------------|--7------------x--10--|--L------------x--5--|
--L----------------|--5------------x---8--|--L------------x--3--|
-------------------|----------------------|---------------------|


  H.           E  E     W                   H.           E   E
---------------------|-------------------|----------------------|
---------------------|-------------------|----------------------|
--L------------x--3--|--L----------------|--7------------x--10--|
--L------------x--3--|--L----------------|--7------------x--10--|
--L------------x--1--|--L----------------|--5------------x---8--|
---------------------|-------------------|----------------------|


  H.           E  E     H.           E  E     W
---------------------|---------------------|-------------------|
---------------------|---------------------|-------------------|
--L------------x--5--|--L------------x--3--|--L----------------|
--L------------x--5--|--L------------x--3--|--L----------------|
--L------------x--3--|--L------------x--1--|--L----------------|
---------------------|---------------------|-------------------|


  H.           E   E     H.           E  E     H.           E  E
----------------------|---------------------|---------------------|
----------------------|---------------------|---------------------|
--7------------x--10--|--L------------L--L--|--5------------x--3--|
--7------------x--10--|--L------------L--L--|--5------------x--3--|
--5------------x---8--|--L------------L--L--|--3------------x--1--|
----------------------|---------------------|---------------------|


  W                   W                   W
-------------------|-------------------|-------------------|
-------------------|-------------------|-------------------|
--L----------------|-------------------|-------------------|
--L----------------|--7----------------|--7----------------|
--L----------------|--7----------------|--7----------------|
-------------------|--5----------------|--5----------------|


  H.           E  E     W                   W
---------------------|-------------------|-------------------|
---------------------|-------------------|-------------------|
---------------------|-------------------|-------------------|
--7------------x--3--|--L----------------|--7----------------|
--7------------x--3--|--L----------------|--7----------------|
--5------------x--1--|--L----------------|--5----------------|


  W                   H.           E  E     W
-------------------|---------------------|-------------------|
-------------------|---------------------|-------------------|
-------------------|---------------------|-------------------|
--7----------------|--7------------x--3--|--L----------------|
--7----------------|--7------------x--3--|--L----------------|
--5----------------|--5------------x--1--|--L----------------|


  W                   W                   W
-------------------|-------------------|-------------------|
-------------------|-------------------|-------------------|
-------------------|-------------------|-------------------|
--L----------------|--5----------------|--L----------------|
--L----------------|--5----------------|--L----------------|
--L----------------|--3----------------|--L----------------|


  Q    E  Q.     Q       Q    E  Q.     Q       Q    E  Q.     E  E
----------------------|----------------------|-----------------------|
----------------------|----------------------|-----------------------|
--7-------5-----------|--7-------------------|--3-------5---------7--|
--7-------5-----------|--7-------7-----------|--3-------5---------7--|
--5-------3-----------|--5-------7-----------|--1-------3---------5--|
----------------------|----------5-----------|-----------------------|


  E  E  E  E  E  E  E  E     Q    E  Q.     Q       Q    E  Q.     Q
--------------------------|----------------------|----------------------|
--------------------------|----------------------|----------------------|
--L-----------------------|--7-------5-----------|--7-------------------|
--L-----------------------|--7-------5-----------|--7-------7-----------|
--L--5--5--5--5--5--5--5--|--5-------3-----------|--5-------7-----------|
--------------------------|----------------------|----------5-----------|


  Q    E  Q.     E  E     Q    H.              Q    E  Q.     Q
-----------------------|-------3------------|----------------------|
-----------------------|-------3------------|----------------------|
--3-------5------------|--------------------|--7-------5-----------|
--3-------5---------5--|--L----L------------|--7-------5-----------|
--1-------3---------5--|--L----L------------|--5-------3-----------|
--------------------3--|--L----L------------|----------------------|


  Q    E  Q.     Q       Q    E  Q.     E  E     E  E  E  E  E  E  E  E
----------------------|-----------------------|--------------------------|
----------------------|-----------------------|--------------------------|
--7-------------------|--3-------5---------7--|--L-----------------------|
--7-------7-----------|--3-------5---------7--|--L-----------------------|
--5-------7-----------|--1-------3---------5--|--L--5--5--5--5--5--5--5--|
----------5-----------|-----------------------|--------------------------|


  Q    E  Q.     Q       Q    E  Q.     Q       Q    E  Q.     E  E
----------------------|----------------------|-----------------------|
----------------------|----------------------|-----------------------|
--7-------5-----------|--7-------------------|--3-------5------------|
--7-------5-----------|--7-------7-----------|--3-------5---------5--|
--5-------3-----------|--5-------7-----------|--1-------3---------5--|
----------------------|----------5-----------|--------------------3--|


  Q    H.              H.           E  E     Q    H.
-------3------------|--L------------L-----|--L----3------------|
-------3------------|--L------------L-----|--L----3------------|
--------------------|---------------------|-------3------------|
--L----L------------|--L------------L--5--|--L-----------------|
--L----L------------|--L------------L--5--|--L-----------------|
--L----L------------|--L------------L--3--|--L-----------------|


  W                   W                   W                   W
--L----------------|-------------------|-------------------|-------------------|
--L----------------|-------------------|-------------------|-------------------|
--L----------------|--7----------------|--L----------------|--L----------------|
--L----------------|--7----------------|--L----------------|--L----------------|
--L----------------|--5----------------|--L----------------|--L----------------|
--L----------------|-------------------|-------------------|-------------------|


  W                   E  E  E  Q    E  E  E     E  E  E  Q    E  Q
-------------------|-------------------------|------------------------|
-------------------|-------------------------|------------------------|
--L----------------|-------------------------|------------------------|
--L----------------|-----------5-------------|------------------------|
--L----------------|--5--7--8-------8--7--8--|--L--7--5--7----5--3----|
-------------------|-------------------------|------------------------|


  E  E  E  Q    E  E  E     E  E  E  E  H           E  E  E  E  E  E  E  E
-------------------------|-----------------------|--------------------------|
-------------------------|-----------------------|--------------------------|
-------------------------|-----------------------|--------------------------|
-----------5-------------|-----------------------|--------------------------|
--5--7--8-------8--7--8--|--L--7--5--7--L--------|--5--5--5--5--5--5--5--5--|
-------------------------|-----------------------|--------------------------|


  E  E  E  E  E  E  E  E     E  E  E  E  E  E  E  E     E  E  E  E  E  E  Q
--------------------------|--------------------------|-------------------------|
--------------------------|--------------------------|-------------------------|
--------------------------|--------------------------|--------------9-----9----|
--------------------------|--------------------------|--------------9-----9----|
--5--5--5--5--5--5--5--5--|--5--5--5--5--5--5--5--5--|--5--5--5--5--7--7--7----|
--------------------------|--------------------------|-------------------------|


  E  E  E  E  E  E  E  E     E  E  E  E  E  E  E  E
--------------------------|--------------------------|
--------------------------|--------------------------|
--------------------------|--------------------------|
--------------------------|--------------------------|
--5--5--5--5--5--5--5--5--|--5--5--5--5--5--5--5--5--|
--------------------------|--------------------------|


  E  E  E  E  E  E  E  E     E  E  E  E  E  E  Q       E  E  E  E  E  E  E  E
--------------------------|-------------------------|--------------------------|
--------------------------|-------------------------|--------------------------|
--------------------------|--------------9-----9----|--------------------------|
--------------------------|--------------9-----9----|--------------------------|
--5--5--5--5--5--5--5--5--|--5--5--5--5--7--7--7----|--5--5--5--5--5--5--5--5--|
--------------------------|-------------------------|--------------------------|


  E  E  E  E  E  E  E  E     E  E  E  E  E  E  E  E     E  E  E  E  E  E  Q
--------------------------|--------------------------|-------------------------|
--------------------------|--------------------------|-------------------------|
--------------------------|--------------------------|--------------9-----9----|
--------------------------|--------------------------|--------------9-----9----|
--5--5--5--5--5--5--5--5--|--5--5--5--5--5--5--5--5--|--5--5--5--5--7--7--7----|
--------------------------|--------------------------|-------------------------|


  E  E  E  E  E  E  E  E     E  E  E  E  E  E  E  E
--------------------------|--------------------------|
--------------------------|--------------------------|
--------------------------|--------------------------|
--------------------------|--------------------------|
--5--5--5--5--5--5--5--5--|--5--5--5--5--5--5--5--5--|
--------------------------|--------------------------|


  E  E  E  E  E  E  E  E     E  E  E  E  E  E  Q       W
--------------------------|-------------------------|-------------------|
--------------------------|-------------------------|-------------------|
--------------------------|--------------9-----9----|-------------------|
--------------------------|--------------9-----9----|--7----------------|
--5--5--5--5--5--5--5--5--|--5--5--5--5--7--7--7----|--7----------------|
--------------------------|-------------------------|--5----------------|


  W                    Q.     Q.     Q       W
-------------------|----------------------|-------------------|
-------------------|----------------------|-------------------|
-------------------|----------------------|-------------------|
--L----------------|--10------9------7----|--3----------------|
--L----------------|--10------9------7----|--3----------------|
--L----------------|---8------7------5----|--1----------------|


  W                   W                    Q.     Q.     Q
-------------------|-------------------|----------------------|
-------------------|-------------------|----------------------|
-------------------|-------------------|----------------------|
--7----------------|--L----------------|--10------9------7----|
--7----------------|--L----------------|--10------9------7----|
--5----------------|--L----------------|---8------7------5----|


  W                   W                   W
-------------------|-------------------|-------------------|
-------------------|-------------------|-------------------|
-------------------|-------------------|-------------------|
--3----------------|--7----------------|--L----------------|
--3----------------|--7----------------|--L----------------|
--1----------------|--5----------------|--L----------------|


   Q.     Q.     Q       W                   W
----------------------|-------------------|-------------------|
----------------------|-------------------|-------------------|
----------------------|-------------------|-------------------|
--10------9------7----|--3----------------|--7----------------|
--10------9------7----|--3----------------|--7----------------|
---8------7------5----|--1----------------|--5----------------|


  W                    Q.     Q.     Q       W
-------------------|----------------------|-------------------|
-------------------|----------------------|-------------------|
-------------------|----------------------|-------------------|
--L----------------|--10------9------7----|--3----------------|
--L----------------|--10------9------7----|--3----------------|
--L----------------|---8------7------5----|--1----------------|


  W                   W                   W
-------------------|-------------------|-------------------|
-------------------|-------------------|-------------------|
-------------------|-------------------|-------------------|
--L----------------|--L----------------|--L----------------|
--L----------------|--L----------------|--L----------------|
--L----------------|--L----------------|--L----------------|


  Q    E  Q.     Q       Q    E  Q.     Q       Q    E  Q.     E  E
----------------------|----------------------|-----------------------|
----------------------|----------------------|-----------------------|
--7-------5-----------|--7-------------------|--3-------5---------7--|
--7-------5-----------|--7-------7-----------|--3-------5---------7--|
--5-------3-----------|--5-------7-----------|--1-------3---------5--|
----------------------|----------5-----------|-----------------------|


  E  E  E  E  E  E  E  E     Q    E  Q.     Q       Q    E  Q.     Q
--------------------------|----------------------|----------------------|
--------------------------|----------------------|----------------------|
--L-----------------------|--7-------5-----------|--7-------------------|
--L-----------------------|--7-------5-----------|--7-------7-----------|
--L--5--5--5--5--5--5--5--|--5-------3-----------|--5-------7-----------|
--------------------------|----------------------|----------5-----------|


  Q    E  Q.     E  E     Q    H.              Q    E  Q.     Q
-----------------------|-------3------------|----------------------|
-----------------------|-------3------------|----------------------|
--3-------5------------|--------------------|--7-------5-----------|
--3-------5---------5--|--L----L------------|--7-------5-----------|
--1-------3---------5--|--L----L------------|--5-------3-----------|
--------------------3--|--L----L------------|----------------------|


  Q    E  Q.     Q       Q    E  Q.     E  E     E  E  E  E  E  E  E  E
----------------------|-----------------------|--------------------------|
----------------------|-----------------------|--------------------------|
--7-------------------|--3-------5---------7--|--L-----------------------|
--7-------7-----------|--3-------5---------7--|--L-----------------------|
--5-------7-----------|--1-------3---------5--|--L--5--5--5--5--5--5--5--|
----------5-----------|-----------------------|--------------------------|


  Q    E  Q.     Q       Q    E  Q.     Q       Q    E  Q.     E  E
----------------------|----------------------|-----------------------|
----------------------|----------------------|-----------------------|
--7-------5-----------|--7-------------------|--3-------5------------|
--7-------5-----------|--7-------7-----------|--3-------5---------5--|
--5-------3-----------|--5-------7-----------|--1-------3---------5--|
----------------------|----------5-----------|--------------------3--|


  Q    H.              Q    E  Q.     Q       Q    E  Q.     Q
-------3------------|----------------------|----------------------|
-------3------------|----------------------|----------------------|
--------------------|--7-------5-----------|--7-------------------|
--L----L------------|--7-------5-----------|--7-------7-----------|
--L----L------------|--5-------3-----------|--5-------7-----------|
--L----L------------|----------------------|----------5-----------|


  Q    E  Q.     E  E     E  E  E  E  E  E  E  E     Q    E  Q.     Q
-----------------------|--------------------------|----------------------|
-----------------------|--------------------------|----------------------|
--3-------5---------7--|--L-----------------------|--7-------5-----------|
--3-------5---------7--|--L-----------------------|--7-------5-----------|
--1-------3---------5--|--L--5--5--5--5--5--5--5--|--5-------3-----------|
-----------------------|--------------------------|----------------------|


  Q    E  Q.     Q       Q    E  Q.     E  E     Q    H.
----------------------|-----------------------|-------3------------|
----------------------|-----------------------|-------3------------|
--7-------------------|--3-------5------------|--------------------|
--7-------7-----------|--3-------5---------5--|--L----L------------|
--5-------7-----------|--1-------3---------5--|--L----L------------|
----------5-----------|--------------------3--|--L----L------------|


  Q    E  Q.     Q       Q    E  Q.     Q       Q    E  Q.     E  E
----------------------|----------------------|-----------------------|
----------------------|----------------------|-----------------------|
--7-------5-----------|--7-------------------|--3-------5---------7--|
--7-------5-----------|--7-------7-----------|--3-------5---------7--|
--5-------3-----------|--5-------7-----------|--1-------3---------5--|
----------------------|----------5-----------|-----------------------|


  E  E  E  E  E  E  E  E     Q    E  Q.     Q       Q    E  Q.     Q
--------------------------|----------------------|----------------------|
--------------------------|----------------------|----------------------|
--L-----------------------|--7-------5-----------|--7-------------------|
--L-----------------------|--7-------5-----------|--7-------7-----------|
--L--5--5--5--5--5--5--5--|--5-------3-----------|--5-------7-----------|
--------------------------|----------------------|----------5-----------|


  Q    E  Q.     E  E     Q    H.              W
-----------------------|-------3------------|--L----------------|
-----------------------|-------3------------|--L----------------|
--3-------5------------|--------------------|-------------------|
--3-------5---------5--|--L----L------------|--L----------------|
--1-------3---------5--|--L----L------------|--L----------------|
--------------------3--|--L----L------------|--L----------------|


  Q    E  Q.     Q       Q    E  Q.     Q       Q    E  Q.     E  E
----------------------|----------------------|-----------------------|
----------------------|----------------------|-----------------------|
--7-------5-----------|--7-------------------|--3-------5---------7--|
--7-------5-----------|--7-------7-----------|--3-------5---------7--|
--5-------3-----------|--5-------7-----------|--1-------3---------5--|
----------------------|----------5-----------|-----------------------|


  W                   Q    E  Q.     Q       Q    E  Q.     Q
-------------------|----------------------|----------------------|
-------------------|----------------------|----------------------|
--L----------------|--7-------5-----------|--7-------------------|
--L----------------|--7-------5-----------|--7-------7-----------|
--L----------------|--5-------3-----------|--5-------7-----------|
-------------------|----------------------|----------5-----------|


  Q    E  Q.     E  E     Q    H.              Q    E  Q.     Q
-----------------------|-------3------------|----------------------|
-----------------------|-------3------------|----------------------|
--3-------5------------|--------------------|--7-------5-----------|
--3-------5---------5--|--L----L------------|--7-------5-----------|
--1-------3---------5--|--L----L------------|--5-------3-----------|
--------------------3--|--L----L------------|----------------------|


  Q    E  Q.     Q       Q    E  Q.     E  E     E  E  E  E  E  E  E  E
----------------------|-----------------------|--------------------------|
----------------------|-----------------------|--------------------------|
--7-------------------|--3-------5---------7--|--L-----------------------|
--7-------7-----------|--3-------5---------7--|--L-----------------------|
--5-------7-----------|--1-------3---------5--|--L--5--5--5--5--5--5--5--|
----------5-----------|-----------------------|--------------------------|


  Q    E  Q.     Q       Q    E  Q.     Q       Q    E  Q.     E  E
----------------------|----------------------|-----------------------|
----------------------|----------------------|-----------------------|
--7-------5-----------|--7-------------------|--3-------5------------|
--7-------5-----------|--7-------7-----------|--3-------5---------5--|
--5-------3-----------|--5-------7-----------|--1-------3---------5--|
----------------------|----------5-----------|--------------------3--|


  Q    H.              Q    E  Q.     Q       Q    E  Q.     Q
-------3------------|----------------------|----------------------|
-------3------------|----------------------|----------------------|
--------------------|--7-------5-----------|--7-------------------|
--L----L------------|--7-------5-----------|--7-------7-----------|
--L----L------------|--5-------3-----------|--5-------7-----------|
--L----L------------|----------------------|----------5-----------|


  Q    E  Q.     E  E     E  E  E  E  E  E  E  E     Q    E  Q.     Q
-----------------------|--------------------------|----------------------|
-----------------------|--------------------------|----------------------|
--3-------5---------7--|--L-----------------------|--7-------5-----------|
--3-------5---------7--|--L-----------------------|--7-------5-----------|
--1-------3---------5--|--L--5--5--5--5--5--5--5--|--5-------3-----------|
-----------------------|--------------------------|----------------------|


  Q    E  Q.     Q       Q    E  Q.     E  E     Q    H.
----------------------|-----------------------|-------3------------|
----------------------|-----------------------|-------3------------|
--7-------------------|--3-------5------------|--------------------|
--7-------7-----------|--3-------5---------5--|--L----L------------|
--5-------7-----------|--1-------3---------5--|--L----L------------|
----------5-----------|--------------------3--|--L----L------------|


  Q    E  Q.     Q       Q    E  Q.     Q       Q    E  Q.     E  E
----------------------|----------------------|-----------------------|
----------------------|----------------------|-----------------------|
--7-------5-----------|--7-------------------|--3-------5---------7--|
--7-------5-----------|--7-------7-----------|--3-------5---------7--|
--5-------3-----------|--5-------7-----------|--1-------3---------5--|
----------------------|----------5-----------|-----------------------|


  E  E  E  E  E  E  E  E     Q    E  Q.     Q       Q    E  Q.     Q
--------------------------|----------------------|----------------------|
--------------------------|----------------------|----------------------|
--L-----------------------|--7-------5-----------|--7-------------------|
--L-----------------------|--7-------5-----------|--7-------7-----------|
--L--5--5--5--5--5--5--5--|--5-------3-----------|--5-------7-----------|
--------------------------|----------------------|----------5-----------|


  Q    E  Q.     E  E     Q    H.              Q    E  Q.     Q
-----------------------|-------3------------|----------------------|
-----------------------|-------3------------|----------------------|
--3-------5------------|--------------------|--7-------5-----------|
--3-------5---------5--|--L----L------------|--7-------5-----------|
--1-------3---------5--|--L----L------------|--5-------3-----------|
--------------------3--|--L----L------------|----------------------|


  Q    E  Q.     Q       Q    E  Q.     E  E     E  E  E  E  E  E  E  E
----------------------|-----------------------|--------------------------|
----------------------|-----------------------|--------------------------|
--7-------------------|--3-------5---------7--|--L-----------------------|
--7-------7-----------|--3-------5---------7--|--L-----------------------|
--5-------7-----------|--1-------3---------5--|--L--5--5--5--5--5--5--5--|
----------5-----------|-----------------------|--------------------------|


  Q    E  Q.     Q       Q    E  Q.     Q       Q    E  Q.     E  E
----------------------|----------------------|-----------------------|
----------------------|----------------------|-----------------------|
--7-------5-----------|--7-------------------|--3-------5------------|
--7-------5-----------|--7-------7-----------|--3-------5---------5--|
--5-------3-----------|--5-------7-----------|--1-------3---------5--|
----------------------|----------5-----------|--------------------3--|


  W                   Q    E  Q.     Q       Q    E  Q.     Q
-------------------|----------------------|----------------------|
-------------------|----------------------|----------------------|
-------------------|--7-------5-----------|--7-------------------|
--L----------------|--7-------5-----------|--7-------7-----------|
--L----------------|--5-------3-----------|--5-------7-----------|
--L----------------|----------------------|----------5-----------|


  Q    E  Q.     E  E     E  E  E  E  E  E  E  E     Q    E  Q.     Q
-----------------------|--------------------------|----------------------|
-----------------------|--------------------------|----------------------|
--3-------5---------7--|--L-----------------------|--7-------5-----------|
--3-------5---------7--|--L-----------------------|--7-------5-----------|
--1-------3---------5--|--L--5--5--5--5--5--5--5--|--5-------3-----------|
-----------------------|--------------------------|----------------------|


                                                 fade out
  Q    E  Q.     Q       Q    E  Q.     E  E     W
----------------------|-----------------------|-------------------||
----------------------|-----------------------|-------------------||
--7-------------------|--3-------5------------|-------------------||
--7-------7-----------|--3-------5---------5--|--L----------------||
--5-------7-----------|--1-------3---------5--|--L----------------||
----------5-----------|--------------------3--|--L----------------||


*************************************************************************************

*************************************************************************************
#####################################################################################
#####################################################################################
*************************************************************************************


Lead Guitar

      W                   W                   W
D#||-------------------|-------------------|-------------------|
A#||-------------------|-------------------|-------------------|
F#||-------------------|-------------------|-------------------|
C#||-------------------|-------------------|-------------------|
G#||-------------------|-------------------|-------------------|
D#||-------------------|-------------------|-------------------|


  W                    W                   W
-------------------|--------------------|-------------------|
-------------------|--15----------------|--L----------------|
-------------------|--------------------|-------------------|
-------------------|--------------------|-------------------|
-------------------|--------------------|-------------------|
-------------------|--------------------|-------------------|


  W                   H        E  E  E  E        Q.     H        E
-------------------|-----------------------|------------------------|
--L----------------|--L--------L-----5--6--|--6g10------8--------L--|
-------------------|--------------7--------|------------------------|
-------------------|-----------------------|------------------------|
-------------------|-----------------------|------------------------|
-------------------|-----------------------|------------------------|


  E  E  E  Q    E  Q       E  E  E  Q    E  E  E     H        E  E  E  E
------------------------|-------------------------|-----------------------|
--6--5--6--5------------|-----5--6--5-------------|-----------------5--6--|
----------------7--5----|--7-------------7--5--7--|--L--------L--7--------|
------------------------|-------------------------|-----------------------|
------------------------|-------------------------|-----------------------|
------------------------|-------------------------|-----------------------|


     Q.     H        E     E  E  E  Q    E  Q       E  E  E  Q    E  E  E
------------------------|------------------------|-------------------------|
--6g10------8--------L--|--6--5--6--5------------|-----5--6--5-------------|
------------------------|----------------7--5----|--7-------------7--5--7--|
------------------------|------------------------|-------------------------|
------------------------|------------------------|-------------------------|
------------------------|------------------------|-------------------------|


  H        E  E  E  E        Q.     H        E     E  E  E  Q    E  Q
-----------------------|------------------------|------------------------|
-----------------5--6--|--6g10------8--------L--|--6--5--6--5------------|
--L--------L--7--------|------------------------|----------------7--5----|
-----------------------|------------------------|------------------------|
-----------------------|------------------------|------------------------|
-----------------------|------------------------|------------------------|


  E  E  E  Q    E  E  E     H        E  E  E  E        Q.     H        E
-------------------------|-----------------------|------------------------|
-----5--6--5-------------|-----------------5--6--|--6g10------8--------L--|
--7-------------7--5--7--|--L--------L--7--------|------------------------|
-------------------------|-----------------------|------------------------|
-------------------------|-----------------------|------------------------|
-------------------------|-----------------------|------------------------|


  E  E  E  Q    E  Q       E  E  E  Q    E  E    E     W
------------------------|---------------------------|-------------------|
--6--5--6--5------------|-----5--6--5---------------|-------------------|
----------------7--5----|--7-------------7--5--<>7--|--L----------------|
------------------------|---------------------------|-------------------|
------------------------|---------------------------|-------------------|
------------------------|---------------------------|-------------------|


  W                     W                   W
-------------------|---------------------|-------------------|
-------------------|---------------------|-------------------|
--L----------------|--<>7----------------|--L----------------|
-------------------|---------------------|-------------------|
-------------------|---------------------|-------------------|
-------------------|---------------------|-------------------|


  H.           E   E     H.           E  E     H.           E  E
----------------------|---------------------|---------------------|
----------------------|---------------------|---------------------|
--7------------x--10--|--L------------x--5--|--L------------x--3--|
--7------------x--10--|--L------------x--5--|--L------------x--3--|
--5------------x---8--|--L------------x--3--|--L------------x--1--|
----------------------|---------------------|---------------------|


  W                   H.           E   E     H.           E  E
-------------------|----------------------|---------------------|
-------------------|----------------------|---------------------|
--L----------------|--7------------x--10--|--L------------x--5--|
--L----------------|--7------------x--10--|--L------------x--5--|
--L----------------|--5------------x---8--|--L------------x--3--|
-------------------|----------------------|---------------------|


  H.           E  E     W                   H.           E   E
---------------------|-------------------|----------------------|
---------------------|-------------------|----------------------|
--L------------x--3--|--L----------------|--7------------x--10--|
--L------------x--3--|--L----------------|--7------------x--10--|
--L------------x--1--|--L----------------|--5------------x---8--|
---------------------|-------------------|----------------------|


  H.           E  E     H.           E  E     W
---------------------|---------------------|-------------------|
---------------------|---------------------|-------------------|
--L------------x--5--|--L------------x--3--|--L----------------|
--L------------x--5--|--L------------x--3--|--L----------------|
--L------------x--3--|--L------------x--1--|--L----------------|
---------------------|---------------------|-------------------|


  H.           E   E     H.           E  E     H.           E  E
----------------------|---------------------|---------------------|
----------------------|---------------------|---------------------|
--7------------x--10--|--L------------L--L--|--5------------x--3--|
--7------------x--10--|--L------------L--L--|--5------------x--3--|
--5------------x---8--|--L------------L--L--|--3------------x--1--|
----------------------|---------------------|---------------------|


  W                   W                    Q.      Q.      Q
-------------------|-------------------|------------------------|
-------------------|-------------------|------------------------|
--L----------------|-------------------|------------------------|
--L----------------|--7----------------|------------------------|
--L----------------|--7----------------|------------------------|
-------------------|--5----------------|--13------12------10----|


  H.           E  E     W                   W
---------------------|-------------------|-------------------|
---------------------|-------------------|-------------------|
---------------------|-------------------|-------------------|
--7------------x--3--|--L----------------|--7----------------|
--7------------x--3--|--L----------------|--7----------------|
--5------------x--1--|--L----------------|--5----------------|


   Q.      Q.      Q       H.           E  E     W
------------------------|---------------------|-------------------|
------------------------|---------------------|-------------------|
------------------------|---------------------|-------------------|
------------------------|--7------------x--3--|--L----------------|
------------------------|--7------------x--3--|--L----------------|
--13------12------10----|--5------------x--1--|--L----------------|


  W                   W                   W
-------------------|-------------------|-------------------|
-------------------|-------------------|-------------------|
-------------------|-------------------|-------------------|
--L----------------|--5----------------|--L----------------|
--L----------------|--5----------------|--L----------------|
--L----------------|--3----------------|--L----------------|


  Q    E  Q.     Q       Q    E  Q.     Q       Q    E  Q.     E  E
----------------------|----------------------|-----------------------|
----------------------|----------------------|-----------------------|
--7-------5-----------|--7-------------------|--3-------5---------7--|
--7-------5-----------|--7-------7-----------|--3-------5---------7--|
--5-------3-----------|--5-------7-----------|--1-------3---------5--|
----------------------|----------5-----------|-----------------------|


  E  E  E  E  E  E  E  E     Q    E  Q.     Q       Q    E  Q.     Q
--------------------------|----------------------|----------------------|
--------------------------|----------------------|----------------------|
--L-----------------------|--7-------5-----------|--7-------------------|
--L-----------------------|--7-------5-----------|--7-------7-----------|
--L--5--5--5--5--5--5--5--|--5-------3-----------|--5-------7-----------|
--------------------------|----------------------|----------5-----------|


  Q    E  Q.     E  E     W                   Q    E  Q.     Q
-----------------------|-------------------|----------------------|
-----------------------|-------------------|----------------------|
--3-------5------------|-------------------|--7-------5-----------|
--3-------5---------5--|--L----------------|--7-------5-----------|
--1-------3---------5--|--L----------------|--5-------3-----------|
--------------------3--|--L----------------|----------------------|


  Q    E  Q.     Q       Q    E  Q.     E  E     E  E  E  E  E  E  E  E
----------------------|-----------------------|--------------------------|
----------------------|-----------------------|--------------------------|
--7-------------------|--3-------5---------7--|--L-----------------------|
--7-------7-----------|--3-------5---------7--|--L-----------------------|
--5-------7-----------|--1-------3---------5--|--L--5--5--5--5--5--5--5--|
----------5-----------|-----------------------|--------------------------|


  Q    E  Q.     Q       Q    E  Q.     Q       Q    E  Q.     E  E
----------------------|----------------------|-----------------------|
----------------------|----------------------|-----------------------|
--7-------5-----------|--7-------------------|--3-------5------------|
--7-------5-----------|--7-------7-----------|--3-------5---------5--|
--5-------3-----------|--5-------7-----------|--1-------3---------5--|
----------------------|----------5-----------|--------------------3--|


  W                   H        E  E  E  E        Q.     H        E
-------------------|-----------------------|------------------------|
-------------------|-----------------5--6--|--6g10------8--------L--|
-------------------|--------------7--------|------------------------|
--L----------------|--L--------L-----------|------------------------|
--L----------------|--L--------L-----------|------------------------|
--L----------------|--L--------L-----------|------------------------|


  E  E  E  Q    E  Q       E  E  E  Q    E  E  E     H        E  E  E  E
------------------------|-------------------------|-----------------------|
--6--5--6--5------------|-----5--6--5-------------|-----------------5--6--|
----------------7--5----|--7-------------7--5--7--|--L--------L--7--------|
------------------------|-------------------------|-----------------------|
------------------------|-------------------------|-----------------------|
------------------------|-------------------------|-----------------------|


     Q.     H        E     E  E  E  Q    E  Q       E  E  E  Q    E  E  E
------------------------|------------------------|-------------------------|
--6g10------8--------L--|--6--5--6--5------------|-----5--6--5-------------|
------------------------|----------------7--5----|--7-------------7--5--7--|
------------------------|------------------------|-------------------------|
------------------------|------------------------|-------------------------|
------------------------|------------------------|-------------------------|


  H        E  E  E  E        Q.     H        E     E  E  E  Q    E  Q
-----------------------|------------------------|------------------------|
-----------------5--6--|--6g10------8--------L--|--6--5--6--5------------|
--L--------L--7--------|------------------------|----------------7--5----|
-----------------------|------------------------|------------------------|
-----------------------|------------------------|------------------------|
-----------------------|------------------------|------------------------|


  E  E  E  Q    E  E  E     H        E  E  E  E        Q.     H        E
-------------------------|-----------------------|------------------------|
-----5--6--5-------------|-----------------5--6--|--6g10------8--------L--|
--7-------------7--5--7--|--L--------L--7--------|------------------------|
-------------------------|-----------------------|------------------------|
-------------------------|-----------------------|------------------------|
-------------------------|-----------------------|------------------------|


  E  E  E  Q    E  Q       E  E  E  Q    E  E    E     W
------------------------|---------------------------|-------------------|
--6--5--6--5------------|-----5--6--5---------------|-------------------|
----------------7--5----|--7-------------7--5--<>7--|--L----------------|
------------------------|---------------------------|-------------------|
------------------------|---------------------------|-------------------|
------------------------|---------------------------|-------------------|


  W                     W                   W
-------------------|---------------------|-------------------|
-------------------|---------------------|-------------------|
--L----------------|--<>7----------------|--L----------------|
-------------------|---------------------|-------------------|
-------------------|---------------------|-------------------|
-------------------|---------------------|-------------------|


  H.           E   E     H.           E  E     H.           E  E
----------------------|---------------------|---------------------|
----------------------|---------------------|---------------------|
--7------------x--10--|--L------------x--5--|--L------------x--3--|
--7------------x--10--|--L------------x--5--|--L------------x--3--|
--5------------x---8--|--L------------x--3--|--L------------x--1--|
----------------------|---------------------|---------------------|


  W                   H.           E   E     H.           E  E
-------------------|----------------------|---------------------|
-------------------|----------------------|---------------------|
--L----------------|--7------------x--10--|--L------------x--5--|
--L----------------|--7------------x--10--|--L------------x--5--|
--L----------------|--5------------x---8--|--L------------x--3--|
-------------------|----------------------|---------------------|


  H.           E  E     W                   H.           E   E
---------------------|-------------------|----------------------|
---------------------|-------------------|----------------------|
--L------------x--3--|--L----------------|--7------------x--10--|
--L------------x--3--|--L----------------|--7------------x--10--|
--L------------x--1--|--L----------------|--5------------x---8--|
---------------------|-------------------|----------------------|


  H.           E  E     H.           E  E     W
---------------------|---------------------|-------------------|
---------------------|---------------------|-------------------|
--L------------x--5--|--L------------x--3--|--L----------------|
--L------------x--5--|--L------------x--3--|--L----------------|
--L------------x--3--|--L------------x--1--|--L----------------|
---------------------|---------------------|-------------------|


  H.           E   E     H.           E  E     H.           E  E
----------------------|---------------------|---------------------|
----------------------|---------------------|---------------------|
--7------------x--10--|--L------------L--L--|--5------------x--3--|
--7------------x--10--|--L------------L--L--|--5------------x--3--|
--5------------x---8--|--L------------L--L--|--3------------x--1--|
----------------------|---------------------|---------------------|


  W                   W                    Q.      Q.      Q
-------------------|-------------------|------------------------|
-------------------|-------------------|------------------------|
--L----------------|-------------------|------------------------|
--L----------------|--7----------------|------------------------|
--L----------------|--7----------------|------------------------|
-------------------|--5----------------|--13------12------10----|


  H.           E  E     W                   W
---------------------|-------------------|-------------------|
---------------------|-------------------|-------------------|
---------------------|-------------------|-------------------|
--7------------x--3--|--L----------------|--7----------------|
--7------------x--3--|--L----------------|--7----------------|
--5------------x--1--|--L----------------|--5----------------|


   Q.      Q.      Q       H.           E  E     W
------------------------|---------------------|-------------------|
------------------------|---------------------|-------------------|
------------------------|---------------------|-------------------|
------------------------|--7------------x--3--|--L----------------|
------------------------|--7------------x--3--|--L----------------|
--13------12------10----|--5------------x--1--|--L----------------|


  W                   W                   W
-------------------|-------------------|-------------------|
-------------------|-------------------|-------------------|
-------------------|-------------------|-------------------|
--L----------------|--5----------------|--L----------------|
--L----------------|--5----------------|--L----------------|
--L----------------|--3----------------|--L----------------|


  Q    E  Q.     Q       Q    E  Q.     Q       Q    E  Q.     E  E
----------------------|----------------------|-----------------------|
----------------------|----------------------|-----------------------|
--7-------5-----------|--7-------------------|--3-------5---------7--|
--7-------5-----------|--7-------7-----------|--3-------5---------7--|
--5-------3-----------|--5-------7-----------|--1-------3---------5--|
----------------------|----------5-----------|-----------------------|


  E  E  E  E  E  E  E  E     Q    E  Q.     Q       Q    E  Q.     Q
--------------------------|----------------------|----------------------|
--------------------------|----------------------|----------------------|
--L-----------------------|--7-------5-----------|--7-------------------|
--L-----------------------|--7-------5-----------|--7-------7-----------|
--L--5--5--5--5--5--5--5--|--5-------3-----------|--5-------7-----------|
--------------------------|----------------------|----------5-----------|


  Q    E  Q.     E  E     W                   Q    E  Q.     Q
-----------------------|-------------------|----------------------|
-----------------------|-------------------|----------------------|
--3-------5------------|-------------------|--7-------5-----------|
--3-------5---------5--|--L----------------|--7-------5-----------|
--1-------3---------5--|--L----------------|--5-------3-----------|
--------------------3--|--L----------------|----------------------|


  Q    E  Q.     Q       Q    E  Q.     E  E     E  E  E  E  E  E  E  E
----------------------|-----------------------|--------------------------|
----------------------|-----------------------|--------------------------|
--7-------------------|--3-------5---------7--|--L-----------------------|
--7-------7-----------|--3-------5---------7--|--L-----------------------|
--5-------7-----------|--1-------3---------5--|--L--5--5--5--5--5--5--5--|
----------5-----------|-----------------------|--------------------------|


  Q    E  Q.     Q       Q    E  Q.     Q       Q    E  Q.     E  E
----------------------|----------------------|-----------------------|
----------------------|----------------------|-----------------------|
--7-------5-----------|--7-------------------|--3-------5------------|
--7-------5-----------|--7-------7-----------|--3-------5---------5--|
--5-------3-----------|--5-------7-----------|--1-------3---------5--|
----------------------|----------5-----------|--------------------3--|


  W                   W                   W                   W
-------------------|-------------------|-------------------|-------------------|
-------------------|-------------------|-------------------|-------------------|
-------------------|-------------------|-------------------|-------------------|
--L----------------|--L----------------|--L----------------|--L----------------|
--L----------------|--L----------------|--L----------------|--L----------------|
--L----------------|--L----------------|--L----------------|--L----------------|


  W                   W                   W                   W
-------------------|-------------------|-------------------|-------------------|
-------------------|-------------------|-------------------|-------------------|
--7----------------|--L----------------|--L----------------|--L----------------|
--7----------------|--L----------------|--L----------------|--L----------------|
--5----------------|--L----------------|--L----------------|--L----------------|
-------------------|-------------------|-------------------|-------------------|


  E  E  E  Q    E  E  E     E  E  E  Q    E  Q       E  E  E  Q    E  E  E
-------------------------|------------------------|-------------------------|
-------------------------|------------------------|-------------------------|
-------------------------|------------------------|-------------------------|
-----------5-------------|------------------------|-----------5-------------|
--5--7--8-------8--7--8--|--L--7--5--7----5--3----|--5--7--8-------8--7--8--|
-------------------------|------------------------|-------------------------|


  E  E  E  E  H           E  E  E  Q    E  E  E     E  E  E  Q    E  Q
-----------------------|-------------------------|------------------------|
-----------------------|-------------------------|------------------------|
-----------------------|-------------------------|------------------------|
-----------------------|-----------5-------------|------------------------|
--L--7--5--7--L--------|--5--7--8-------8--7--8--|--L--7--5--7----5--3----|
-----------------------|-------------------------|------------------------|


  E  E  E  Q    E  E  E     E  E  E  E  H           E  E  E  Q    E  E  E
-------------------------|-----------------------|-------------------------|
-------------------------|-----------------------|-------------------------|
-------------------------|-----------------------|-------------------------|
-----------5-------------|-----------------------|-----------5-------------|
--5--7--8-------8--7--8--|--L--7--5--7--L--------|--5--7--8-------8--7--8--|
-------------------------|-----------------------|-------------------------|


  E  E  E  Q    E  Q       E  E  E  Q    E  E  E     E  E  E  E  H
------------------------|-------------------------|-----------------------|
------------------------|-------------------------|-----------------------|
------------------------|-------------------------|-----------------------|
------------------------|-----------5-------------|-----------------------|
--L--7--5--7----5--3----|--5--7--8-------8--7--8--|--L--7--5--7--L--------|
------------------------|-------------------------|-----------------------|


  E  E  E  Q    E  E  E     E  E  E  Q    E  Q       E  E  E  Q    E  E  E
-------------------------|------------------------|-------------------------|
-------------------------|------------------------|-------------------------|
-------------------------|------------------------|-------------------------|
-----------5-------------|------------------------|-----------5-------------|
--5--7--8-------8--7--8--|--L--7--5--7----5--3----|--5--7--8-------8--7--8--|
-------------------------|------------------------|-------------------------|


  E  E  E  E  H           E  E  E  Q    E  E  E     E  E  E  Q    E  Q
-----------------------|-------------------------|------------------------|
-----------------------|-------------------------|------------------------|
-----------------------|-------------------------|------------------------|
-----------------------|-----------5-------------|------------------------|
--L--7--5--7--L--------|--5--7--8-------8--7--8--|--L--7--5--7----5--3----|
-----------------------|-------------------------|------------------------|


  E  E  E  Q    E  E  E     E  E  E  E  H           W
-------------------------|-----------------------|-------------------|
-------------------------|-----------------------|-------------------|
-------------------------|-----------------------|-------------------|
-----------5-------------|-----------------------|--7----------------|
--5--7--8-------8--7--8--|--L--7--5--7--L--------|--7----------------|
-------------------------|-----------------------|--5----------------|


  Q.     Q.     Q        Q.     Q.     Q       W
---------------------|----------------------|-------------------|
---------------------|----------------------|-------------------|
---------------------|----------------------|-------------------|
---------------------|--10------9------7----|--3----------------|
---------------------|--10------9------7----|--3----------------|
--8------7------5----|---8------7------5----|--1----------------|


  W                   Q.     Q.     Q        Q.     Q.     Q
-------------------|---------------------|----------------------|
-------------------|---------------------|----------------------|
-------------------|---------------------|----------------------|
--7----------------|---------------------|--10------9------7----|
--7----------------|---------------------|--10------9------7----|
--5----------------|--8------7------5----|---8------7------5----|


  W                   W                   Q.     Q.     Q
-------------------|-------------------|---------------------|
-------------------|-------------------|---------------------|
-------------------|-------------------|---------------------|
--3----------------|--7----------------|---------------------|
--3----------------|--7----------------|---------------------|
--1----------------|--5----------------|--8------7------5----|


   Q.     Q.     Q       W                   W
----------------------|-------------------|-------------------|
----------------------|-------------------|-------------------|
----------------------|-------------------|-------------------|
--10------9------7----|--3----------------|--7----------------|
--10------9------7----|--3----------------|--7----------------|
---8------7------5----|--1----------------|--5----------------|


  Q.     Q.     Q        Q.     Q.     Q       W
---------------------|----------------------|-------------------|
---------------------|----------------------|-------------------|
---------------------|----------------------|-------------------|
---------------------|--10------9------7----|--3----------------|
---------------------|--10------9------7----|--3----------------|
--8------7------5----|---8------7------5----|--1----------------|


  W                   W                   H        E  E  E  E
-------------------|-------------------|-----------------------|
-------------------|-------------------|-----------------5--6--|
-------------------|-------------------|--------------7--------|
--L----------------|--L----------------|--L--------L-----------|
--L----------------|--L----------------|--L--------L-----------|
--L----------------|--L----------------|--L--------L-----------|


                                    |--3--|
     Q.     Q    E  E  E       Q    S  S  S H         E
----------------------------|----------------------------|
--6g10------8----6--8--8br--|--L----6h-8p-6-5~--------L--|
----------------------------|----------------------------|
----------------------------|----------------------------|
----------------------------|----------------------------|
----------------------------|----------------------------|


  E  E  E  Q    E  E    E
----------------------------|
-----5--6--5----------/15~--|
--7-------------7--5--------|
----------------------------|
----------------------------|
----------------------------|


      |--3--|  |--3--|  |--3--|  |--3--|
  E   S  S  S  S  S  S  S  S  S  S  S  S  E   E   E
-----------------------------------------------------|
--L--15-15-15-15-15-15-15-15-15-15-15-15-15--17--18--|
-----------------------------------------------------|
-----------------------------------------------------|
-----------------------------------------------------|
-----------------------------------------------------|


   Q     Q     E   T  T  T  T  T  T  T  T  T  T  T  T
--17----17~----L--13-15-17-15-13-15-17-15-13-15-17-15-|
------------------------------------------------------|
------------------------------------------------------|
------------------------------------------------------|
------------------------------------------------------|
------------------------------------------------------|


   T  T  T  T  T  T  T  T  T  T  T  T  T  T  T  T  Q      E   E
--13-15-17-15-13-------------------------------------------------|
-----------------17-15-13-15-17-15-13-15-17-15-13-15~----15--17--|
-----------------------------------------------------------------|
-----------------------------------------------------------------|
-----------------------------------------------------------------|
-----------------------------------------------------------------|


   E   E   E   Q      E   E   E      H        E   E   E   E
------15--------------------------|---------------------------|
--18------18--17~----15--13--15~--|--L--------L---------------|
----------------------------------|------------------10--12b--|
----------------------------------|--------------12-----------|
----------------------------------|---------------------------|
----------------------------------|---------------------------|


   H         E     E     E     E
------------------------------------|
------------------------------------|
---L--------12pb--12pb--12pb--12pb--|
------------------------------------|
------------------------------------|
------------------------------------|


   |--6--|  |--6--|  |--6--|  |--6--|  |--6--|  |--6--|
   S  S  S  S  S  S  S  S  S  S  S  S  S  S  S  S  S  S  Q
---------------------------------------------------------------|
--------10-11-10----10-11-13-11-10----------10-----------------|
--10-12----------12----------------12-10-12----12-10-12-10b----|
---------------------------------------------------------------|
---------------------------------------------------------------|
---------------------------------------------------------------|


         |---3--|      |---3--|
  E   E  S   S  S  S S S   S  S  S  S  S  S S S    H         E  E  E  E
------------------------------------------------|------------------------|
------------------------------------------------|------------------------|
--L--10--9h-10p-9----9-9h-10p-9-----------------|------------------7-----|
------------------12------------12-10-----------|------------------------|
--------------------------------------12-10-8-7-|--5~--------L--5--5--5--|
------------------------------------------------|------------------------|


  E  E  E  E   E  E   E   E      E  E  E  Q.      E   E
-----------------------------|---------------------------|
-----------------------------|---------------------------|
--7-----9-----10-----12------|--10--9-----7~------9--10--|
-----------------------------|---------------------------|
-----5-----7------8------10--|---------------------------|
-----------------------------|---------------------------|


  Q     E  Q     E  E  E      H.            Q
---------------------------|---------------10----|
---------------------------|---------------------|
--9~----7--5~-------5--7~--|--L------------------|
-----------------7---------|---------------------|
---------------------------|---------------------|
---------------------------|---------------------|


   T  T  T  T  T  T  T  T  T  T  T  T  T  T  T  T  T  T  T  T  T  T  T  T  T  T
-----10-12-13-15-13-12-13-15-13-12-13-15-13-12-13-15-13-12-------12----------12-|
--12-------------------------------------------------------15-13----13-15-13----|
--------------------------------------------------------------------------------|
--------------------------------------------------------------------------------|
--------------------------------------------------------------------------------|
--------------------------------------------------------------------------------|


   T  T  T  T  T  T  T  T  T  T  T  T  T  T  T  T  H
--12-13-15-13-12-13-15-13-12-13-15-13-12-13-15-13------------|
--------------------------------------------------15~--------|
-------------------------------------------------------------|
-------------------------------------------------------------|
-------------------------------------------------------------|
-------------------------------------------------------------|


   Something like this (I'm not shure)
   T                                   T  T  T  T  T  T  T  T  T  T  E    Q
--12----------------------------------13-15-13-12-------------------------------|
--------------------------------------------------13-11-13----------------------|
-----------------------------------------------------------14-12----12b--12~----|
-----------------------------------------------------------------14-------------|
--------------------------------------------------------------------------------|
--------------------------------------------------------------------------------|


   T  T  T  T  T  T  T  T  T  T  T  T  T  T  T  T  Q.       E
---------------------------------------------------------------|
---------------------------------------------------------------|
---------------------------------------------------------------|
--15-14-12-14-15-14-12-------------------------------------12--|
-----------------------15-13-12----12-13-----------------------|
--------------------------------15-------15-13-12-10~----------|


   E   E   E   E   E   E   E   E      E  E  E  Q     E  E   E
----------------------------------|-----------------------------|
----------------------------------|-----------------------------|
--14------15------14------12------|--10--9-----7~----7--9--10~--|
------12------12------12------12--|-----------------------------|
----------------------------------|-----------------------------|
----------------------------------|-----------------------------|


  E  E  E  Q     E  E  E      W
---------------------------|-------------------|
---------------------------|-------------------|
--L--9--7--5~-------5------|-------------------|
-----------------7-----5~--|--L----------------|
---------------------------|-------------------|
---------------------------|-------------------|


   T  T  T  T  T  T  T  T  T  T  T  T  T  T  T  T  T  T  T  T  T  T  T  T  T  T
--13-15-17-15-13-15-17-15-13-15-17-15-13-15-17-15-12-13-15-13-12-13-15-13-12-13-|
--------------------------------------------------------------------------------|
--------------------------------------------------------------------------------|
--------------------------------------------------------------------------------|
--------------------------------------------------------------------------------|
--------------------------------------------------------------------------------|


   T  T  T  T  T  T  T  T  T  T  T  T  T  T  T  T  T  T  T  T  T  T  T  T  T  T
--13-15-17-15-13-15-17-15-13-15-17-15-13-15-17-15-13-15-17-15-13-15-17-15-------|
--------------------------------------------------------------------------13-15-|
--------------------------------------------------------------------------------|
--------------------------------------------------------------------------------|
--------------------------------------------------------------------------------|
--------------------------------------------------------------------------------|


   T  T  T  T  T  T  T  T  T  T  T  T  T  T  T  T  T  T  T  T  T  T  T  T  T  T
--13-15-17-15-13-15-17-15-13-15-17-15-13-15-17-15-12-13-15-13-12-13-15-13-12-13-|
--------------------------------------------------------------------------------|
--------------------------------------------------------------------------------|
--------------------------------------------------------------------------------|
--------------------------------------------------------------------------------|
--------------------------------------------------------------------------------|


   T  T  T  T  T  T  T  T  T  T  T  T  T  T  T  T  T  T  T  T  T  T  T  T  T  T
--13-15-17-15-13-15-17-15-13-15-17-15-13-15-17-15-13-15-17-15-13-15-17-15-13-15-|
--------------------------------------------------------------------------------|
--------------------------------------------------------------------------------|
--------------------------------------------------------------------------------|
--------------------------------------------------------------------------------|
--------------------------------------------------------------------------------|


   T  T  T  T  T  T  T  T  T  T  T  T  T  T  T  T  T  T  T  T  T  T  T  T  T  T
--13-15-17-15-13-15-17-15-13-15-17-15-13-15-17-15-12-13-15-13-12-13-15-13-12-13-|
--------------------------------------------------------------------------------|
--------------------------------------------------------------------------------|
--------------------------------------------------------------------------------|
--------------------------------------------------------------------------------|
--------------------------------------------------------------------------------|


   T  T  T  T  T  T  T  T  T  T  T  T  T  T  T  T  T  T  T  T  T  T  T  T  T  T
--13-15-17-15-13-15-17-15-13-15-17-15-13-15-17-15-13-15-17-15-13-15-17-15-------|
--------------------------------------------------------------------------13-15-|
--------------------------------------------------------------------------------|
--------------------------------------------------------------------------------|
--------------------------------------------------------------------------------|
--------------------------------------------------------------------------------|


   T  T  T  T  T  T  T  T  T  T  T  T  T  T  T  T  T  T  T  T  T  T  T  T  T  T
--13-15-17-15-13-15-17-15-13-15-17-15-13-15-17-15-12-13-15-13-12-13-15-13-15-17-|
--------------------------------------------------------------------------------|
--------------------------------------------------------------------------------|
--------------------------------------------------------------------------------|
--------------------------------------------------------------------------------|
--------------------------------------------------------------------------------|


  W                   W                   Q    E  Q.     Q
--L----------------|--L----------------|----------------------|
-------------------|-------------------|----------------------|
-------------------|-------------------|--7-------5-----------|
-------------------|-------------------|--7-------5-----------|
-------------------|-------------------|--5-------3-----------|
-------------------|-------------------|----------------------|


  Q    E  Q.     Q       Q    E  Q.     E  E     W
----------------------|-----------------------|-------------------|
----------------------|-----------------------|-------------------|
--7-------------------|--3-------5---------7--|--L----------------|
--7-------7-----------|--3-------5---------7--|--L----------------|
--5-------7-----------|--1-------3---------5--|--L----------------|
----------5-----------|-----------------------|-------------------|


  Q    E  Q.     Q       Q    E  Q.     Q       Q    E  Q.     E  E
----------------------|----------------------|-----------------------|
----------------------|----------------------|-----------------------|
--7-------5-----------|--7-------------------|--3-------5------------|
--7-------5-----------|--7-------7-----------|--3-------5---------5--|
--5-------3-----------|--5-------7-----------|--1-------3---------5--|
----------------------|----------5-----------|--------------------3--|


  Q    H.              Q    E  Q.     Q       Q    E  Q.     Q
-------3------------|----------------------|----------------------|
-------3------------|----------------------|----------------------|
--------------------|--7-------5-----------|--7-------------------|
--L----L------------|--7-------5-----------|--7-------7-----------|
--L----L------------|--5-------3-----------|--5-------7-----------|
--L----L------------|----------------------|----------5-----------|


  Q    E  Q.     E  E     E  E  E  E  E  E  E  E     Q    E  Q.     Q
-----------------------|--------------------------|----------------------|
-----------------------|--------------------------|----------------------|
--3-------5---------7--|--L-----------------------|--7-------5-----------|
--3-------5---------7--|--L-----------------------|--7-------5-----------|
--1-------3---------5--|--L--5--5--5--5--5--5--5--|--5-------3-----------|
-----------------------|--------------------------|----------------------|


  Q    E  Q.     Q       Q    E  Q.     E  E     W
----------------------|-----------------------|-------------------|
----------------------|-----------------------|-------------------|
--7-------------------|--3-------5------------|-------------------|
--7-------7-----------|--3-------5---------5--|--L----------------|
--5-------7-----------|--1-------3---------5--|--L----------------|
----------5-----------|--------------------3--|--L----------------|


  Q    E  Q.     Q       Q    E  Q.     Q       Q    E  Q.     E  E
----------------------|----------------------|-----------------------|
----------------------|----------------------|-----------------------|
--7-------5-----------|--7-------------------|--3-------5---------7--|
--7-------5-----------|--7-------7-----------|--3-------5---------7--|
--5-------3-----------|--5-------7-----------|--1-------3---------5--|
----------------------|----------5-----------|-----------------------|


  E  E  E  E  E  E  E  E     Q    E  Q.     Q       Q    E  Q.     Q
--------------------------|----------------------|----------------------|
--------------------------|----------------------|----------------------|
--L-----------------------|--7-------5-----------|--7-------------------|
--L-----------------------|--7-------5-----------|--7-------7-----------|
--L--5--5--5--5--5--5--5--|--5-------3-----------|--5-------7-----------|
--------------------------|----------------------|----------5-----------|


  Q    E  Q.     E  E     W                   Q    E  Q.     Q
-----------------------|-------------------|----------------------|
-----------------------|-------------------|----------------------|
--3-------5------------|-------------------|--7-------5-----------|
--3-------5---------5--|--L----------------|--7-------5-----------|
--1-------3---------5--|--L----------------|--5-------3-----------|
--------------------3--|--L----------------|----------------------|


  Q    E  Q.     Q       Q    E  Q.     E  E     E  E  E  E  E  E  E  E
----------------------|-----------------------|--------------------------|
----------------------|-----------------------|--------------------------|
--7-------------------|--3-------5---------7--|--L-----------------------|
--7-------7-----------|--3-------5---------7--|--L-----------------------|
--5-------7-----------|--1-------3---------5--|--L--5--5--5--5--5--5--5--|
----------5-----------|-----------------------|--------------------------|


  Q    E  Q.     Q       Q    E  Q.     Q       Q    E  Q.     E  E
----------------------|----------------------|-----------------------|
----------------------|----------------------|-----------------------|
--7-------5-----------|--7-------------------|--3-------5------------|
--7-------5-----------|--7-------7-----------|--3-------5---------5--|
--5-------3-----------|--5-------7-----------|--1-------3---------5--|
----------------------|----------5-----------|--------------------3--|


  W                      Q.     H        E     E  E  E  Q    E  Q
-------------------|------------------------|------------------------|
-------------------|--6g10------8--------L--|--6--5--6--5------------|
-------------------|------------------------|----------------7--5----|
--L----------------|------------------------|------------------------|
--L----------------|------------------------|------------------------|
--L----------------|------------------------|------------------------|


  E  E  E  Q    E  E  E     H        E  E  E  E        Q.     H        E
-------------------------|-----------------------|------------------------|
-----5--6--5-------------|-----------------5--6--|--6g10------8--------L--|
--7-------------7--5--7--|--L--------L--7--------|------------------------|
-------------------------|-----------------------|------------------------|
-------------------------|-----------------------|------------------------|
-------------------------|-----------------------|------------------------|


  E  E  E  Q    E  Q       E  E  E  Q    E  E  E     H        E  E  E  E
------------------------|-------------------------|-----------------------|
--6--5--6--5------------|-----5--6--5-------------|-----------------5--6--|
----------------7--5----|--7-------------7--5--7--|--L--------L--7--------|
------------------------|-------------------------|-----------------------|
------------------------|-------------------------|-----------------------|
------------------------|-------------------------|-----------------------|


     Q.     H        E     E  E  E  Q    E  Q       E  E  E  Q    E  E  E
------------------------|------------------------|-------------------------|
--6g10------8--------L--|--6--5--6--5------------|-----5--6--5-------------|
------------------------|----------------7--5----|--7-------------7--5--7--|
------------------------|------------------------|-------------------------|
------------------------|------------------------|-------------------------|
------------------------|------------------------|-------------------------|


  H        E  E  E  E        Q.     H        E     E  E  E  Q    E  Q
-----------------------|------------------------|------------------------|
-----------------5--6--|--6g10------8--------L--|--6--5--6--5------------|
--L--------L--7--------|------------------------|----------------7--5----|
-----------------------|------------------------|------------------------|
-----------------------|------------------------|------------------------|
-----------------------|------------------------|------------------------|


                            fade out
  E  E  E  Q    E  E  E     W
-------------------------|-------------------||
-----5--6--5-------------|-------------------||
--7-------------7--5--7--|--L----------------||
-------------------------|-------------------||
-------------------------|-------------------||
-------------------------|-------------------||


Duration Legend
---------------
W - whole
H - half
Q - quarter
E - 8th
S - 16th
T - 32nd
X - 64th
. - note dotted
|-n-|  - n-tuplets


Tablature Legend
----------------
L - tied note
x - dead note
g - grace note
(n) - ghost note
> - accentuded note
NH - natural harmonic
AH - artificial harmonic
TH - tapped harmonic
SH - semi harmonic
PH - pitch harmonic
h - hammer on
p - pull off
b - bend
br - bendRelease
pb - preBend
pbr - preBendRelease
brb - bendReleaseBend
\n/ - tremolo bar dip
\n - tremolo bar dive
-/n - tremolo bar Release up
/n\ - tremolo bar inverted dip
/n - tremolo bar return
-\n - tremolo bar Release down
S - shift slide
s - legato slide
/ -  slide into from below or out of upwards
\ -  slide into from above or out of downwards
~ - vibrato
W - wide vibrato
tr - trill
TP - tremolo picking
T - tapping
S - slap
P - pop
< - fade in
^ - brush up
v - brush down
comments
We did not receive enough feedback on this tab! Please rate:
print report bad tab
1 2 3 4 5
I want to post or [tab]
guest
You may want to rate the tab now too:
select rating
Please do not post tabs as comments. Select "correction" instead!