Oops, an error
Loading. Please wait.

Silent Angel Tab

2,722 views 9 this week
no commentswrite comment
1 2 3 4 5
please rate
Autoscroll
+/-
esc
set tempo
stop
Contributor
Tuning
D# G# C# F# A# D#
WARNING: You are trying to view
                                    content from Ultimate-Guitar.com
                                    in an unauthorized application,
                                    which is prohibited.

                                    Please use an official Ultimate
                                    Guitar Tabs application for iPhone,
                                    iPad or Android to access legitimate
                                    chords, guitar, bass, and drum tabs
                                    from Ultimate-Guitar.com database.

                                    Type "ultimate guitar tabs" in Apple
                                    App Store's or Android Market's
                                    search to find the application.
                                 Silent Angel -- Axel Rudi Pell                                  

Tuning: Half step down
                                                                 
Lead Guitar

                       
      W                                                  W                 
D#||--------------------------------------------------|-------------------|
A#||--------------------------------------------------|-------------------|
F#||--------------------------------------------------|-------------------|
C#||--------------------------------------------------|-------------------|
G#||--------------------------------------------------|-------------------|
D#||--------------------------------------------------|-------------------|


  W                   Q.      S S  E.   E.   E      H.             Q      
-------------------|----------------------------|------------------------|
-------------------|---------13---13---15---13--|--12~------------12S----|
-------------------|----------------------------|------------------------|
-------------------|----------------------------|------------------------|
-------------------|----------------------------|------------------------|
-------------------|----------------------------|------------------------|


                       
  Q.                                              S S  E.   E.   E   
--------------------------------------------------------------------|
--x----------------------------------------------10---10---12---10--|
--------------------------------------------------------------------|
--------------------------------------------------------------------|
--------------------------------------------------------------------|
--------------------------------------------------------------------|

                                 
   E  H         E  E  E                    H         E   S S S S S S  
-------------------------------------|-------------------------------|
-------------------------------------|-------------------------------|
--12--9~--------L-----9--------------|--9g10~--------L--10---9---7---|
-------------------------------------|-------------------------------|
-------------------------------------|-------------------------------|
-------------------------------------|-------------------------------|


               PM                                                            
  H         E  E  E  E       Q.      E  H            S  S  H.            E   
------------------------|-------------------------|-------------------------|
------------------------|-------------------------|-------------------------|
--5~--------L-----5--7--|--7g9~------7--7~--------|-------------------------|
---------------5--------|-------------------------|--5S-7S-5~------------L--|
------------------------|-------------------------|-------------------------|
------------------------|-------------------------|-------------------------|


  Q.      S S  E.   E.      E      H.             E   S  S  
-------------------------------|---------------------------|
---------13---13---15---15g17--|--15~-------------L--13-15-|
-------------------------------|---------------------------|
-------------------------------|---------------------------|
-------------------------------|---------------------------|
-------------------------------|---------------------------|


   H.              E   E      S   S  H         Q     E   
--------------------------|-----------------------------|
--15br-------------L--13--|--12h-13-12~-----------------|
--------------------------|-------------------------12--|
--------------------------|-----------------------------|
--------------------------|-----------------------------|
--------------------------|-----------------------------|


      H          E   E.   E.     H         E  S S  S S   E   
------------------------------|-----------------------------|
------------------------------|-----------------------------|
--12g14~---------L--12---10---|--9~--------L--7--------<>7--|
------------------------------|-------------------10--------|
------------------------------|-----------------------------|
------------------------------|-----------------------------|


    E    H.            S  S    H.            Q        H.               E   E    
----------------------------|---------------------|----------------------------|
----------------------------|---------------------|--15~------------<>13--13b--|
--7g9--<>7~-----------------|---------------------|----------------------------|
-----------------------5S-7-|--5~-----------------|----------------------------|
----------------------------|---------------------|----------------------------|
----------------------------|---------------------|----------------------------|


  H        Q     E      E      H.             E   E      H        Q     E   E   
----------------12--12g13--|--12~---------------------|------------------------|
--L------------------------|-----------------15--13~--|--L-------------10--13--|
---------------------------|--------------------------|------------------------|
---------------------------|--------------------------|------------------------|
---------------------------|--------------------------|------------------------|
---------------------------|--------------------------|------------------------|


      H.             E   E       Q.     S  S  Q.      E   
------------------------------|--------------------------|
--13g15~------------13--13br--|--L-------------------15--|
------------------------------|--------------------------|
------------------------------|---------5S-7S-5----------|
------------------------------|--------------------------|
------------------------------|--------------------------|


     S  S  Q     Q     Q     E       W                  
----------------------15----15b--|--15~----------------|
--<>17-18-17----18---------------|---------------------|
---------------------------------|---------------------|
---------------------------------|---------------------|
---------------------------------|---------------------|
---------------------------------|---------------------|


  Q.      S S  E.   E.   E      H.             Q      
----------------------------|------------------------|
---------13---13---15---13--|--12~------------12S----|
----------------------------|------------------------|
----------------------------|------------------------|
----------------------------|------------------------|
----------------------------|------------------------|


  Q.      S S  E.   E.   E      E  H         E  E  E   
----------------------------|-------------------------|
--x------10---10---12---10--|-------------------------|
----------------------------|--12--9~--------L-----9--|
----------------------------|-------------------------|
----------------------------|-------------------------|
----------------------------|-------------------------|


     H        E      S S  S S S S    E  H         S S S S S S  
----------------------------------|---------------------------|
----------------------------------|---------------------------|
--9g10--------L--10g12---10---9---|--7--5~----------5-5---7---|
----------------------------------|---------------7-----------|
----------------------------------|---------------------------|
----------------------------------|---------------------------|


                       PM PM                 PM PM PM PMPM  PM PM    
    Q.     E    Q.     S  S     S  S Q.      S  S  S  S S   S  S  S  
-----------------------------|--------------------------------------|
-----------------------------|-----------------------------------13-|
--7g9------7--<>7------------|--------------------------9--12-12----|
-----------------------5--5--|--5S-7-5------------10-12-------------|
-----------------------------|--------------10-12-------------------|
-----------------------------|--------------------------------------|


   H         E   Q     S   S     H         E   S S  S S  E     
----------------10----12S-13-|--12~--------L------------------|
--13~--------L---------------|----------------15---13---12br--|
-----------------------------|--------------------------------|
-----------------------------|--------------------------------|
-----------------------------|--------------------------------|
-----------------------------|--------------------------------|


  E   Q.      Q.      E       E  Q.      Q.      S S  
---------------------------|-------------------------|
--L--10~-------------12br--|--L----------------------|
---------------------------|-----9~-------------10---|
---------------------------|-------------------------|
---------------------------|-------------------------|
---------------------------|-------------------------|


                                                   PM      
      Q     S S Q.     S S S S    Q     E  Q.      E  E    
-------------------------------|--------------------------|
-------------------------------|--------------------------|
--10g12----10---9------7---5---|--5~----------------------|
-------------------------------|--------7--5~---------5S--|
-------------------------------|-------------------7------|
-------------------------------|--------------------------|


                 PM                               
  S H         S. S. Q          H.           Q     
----------------------------|--------------------|
----------------------------|--------------------|
----------------------------|--------------------|
--7-5~--------L-------------|--------------------|
-----------------7--5br~----|--L-----------------|
----------------------------|--------------------|


  Q.      S S  Q       E   E        H        Q     E   E   
---------------------------------|----------------12--13--|
---------15---15----<>13--13br~--|--L---------------------|
---------------------------------|------------------------|
---------------------------------|------------------------|
---------------------------------|------------------------|
---------------------------------|------------------------|


                                      |---3--|                     
      H         E   S S  E     E      S  S   S  H         E  Q     
--13g15~--------L--13-------------|-------------------------------|
------------------------13--<>15--|--13-15S-13--------------------|
----------------------------------|------------14~--------L-------|
----------------------------------|-------------------------------|
----------------------------------|-------------------------------|
----------------------------------|-------------------------------|


  E   S  S  S  T S  T S  T S  T S  T T    Q        Q.      S  S     Q.      E   
--------12-13-15---15---13---12---13---<>12b----|--L---------------------------|
-----15-----------------------------------------|---------15-13-14g15----------|
------------------------------------------------|--------------------------14--|
------------------------------------------------|------------------------------|
------------------------------------------------|------------------------------|
------------------------------------------------|------------------------------|


   H          E  S S  S S  E        W                 
---------------------------------|-------------------|
---------------------------------|-------------------|
--12br--------L--9---12---12br~--|--L----------------|
---------------------------------|-------------------|
---------------------------------|-------------------|
---------------------------------|-------------------|


  Q.      S S  E.   E.   E      H.             Q      
----------------------------|------------------------|
---------13---13---15---13--|--12~------------12S----|
----------------------------|------------------------|
----------------------------|------------------------|
----------------------------|------------------------|
----------------------------|------------------------|


  Q.      S S  E.   E.   E      E    H         E  E  E   
----------------------------|---------------------------|
--x------10---10---12---10--|---------------------------|
----------------------------|--12--<>9~--------L-----9--|
----------------------------|---------------------------|
----------------------------|---------------------------|
----------------------------|---------------------------|


                                                  PM        
     H        E      S S  S S S S    E  H         E  E  E   
----------------------------------|------------------------|
----------------------------------|------------------------|
--9g10--------L--10g12---10---9---|--7--5~-----------5--7--|
----------------------------------|---------------5--------|
----------------------------------|------------------------|
----------------------------------|------------------------|


                         PM PM                 PM PM PM PMPM  PM PM    
    Q.       E    Q.     S  S     S  S Q.      S  S  S  S S   S  S  S  
-------------------------------|--------------------------------------|
-------------------------------|-----------------------------------13-|
--7g9------<>7--<>7------------|--------------------------9--12-12----|
-------------------------5--5--|--5S-7-5------------10-12-------------|
-------------------------------|--------------10-12-------------------|
-------------------------------|--------------------------------------|


   H         E   Q        E      H.            E   S  S  
----------------10----10g12--|--10~------------L--------|
--13~--------L---------------|--------------------13-15-|
-----------------------------|--------------------------|
-----------------------------|--------------------------|
-----------------------------|--------------------------|
-----------------------------|--------------------------|


   H.             E   E      S   S  H         Q    S  S  
-------------------------|------------------------------|
--15br------------L--13--|--12h-13-12~------------------|
-------------------------|-------------------------9-12-|
-------------------------|------------------------------|
-------------------------|------------------------------|
-------------------------|------------------------------|


   S  H          S  E.   E.     H         E  E   E  E   
-----------------------------|-------------------------|
-----------------------------|-------------------------|
--12-14~---------L-12---10---|--9~--------L--7------7--|
-----------------------------|------------------10-----|
-----------------------------|-------------------------|
-----------------------------|-------------------------|


  Q.        E  H            S  S H         Q.        Q.      S S  E.   E.   E   
-------------------------|------------------------|----------------------------|
-------------------------|------------------------|---------13---13---15---13--|
--7br----------7~--------|------------------------|----------------------------|
-----------10------------|--5S-7-5~--------L------|----------------------------|
-------------------------|------------------------|----------------------------|
-------------------------|------------------------|----------------------------|


   H.             Q        Q.      S S  E.   E.   E      E  H         E  E  E   
------------------------|----------------------------|-------------------------|
--12~------------12S----|--x------10---10---12---10--|-------------------------|
------------------------|----------------------------|--12--9~--------L-----9--|
------------------------|----------------------------|-------------------------|
------------------------|----------------------------|-------------------------|
------------------------|----------------------------|-------------------------|


                                                  PM        
     H        E      S S  S S S S    E  H         E  E  E   
----------------------------------|------------------------|
----------------------------------|------------------------|
--9g10--------L--10g12---10---9---|--7--5~-----------5--7--|
----------------------------------|---------------5--------|
----------------------------------|------------------------|
----------------------------------|------------------------|


    Q.      E    H            S  S    Q.       S  S  S  S S  S  S  S  
---------------------------|-----------------------------------------|
---------------------------|--------------------------------------13-|
--7g9~------7--<>7~--------|------------------------------9-12-12----|
---------------------------|--5h-7p-<>5~------------10-12------------|
---------------------------|------------------10-12------------------|
---------------------------|-----------------------------------------|


   H         E   E   Q         H         Q.      S  S  
----------------10--10b----|--10~--------L------------|
--13~--------L-------------|--------------------13-15-|
---------------------------|--------------------------|
---------------------------|--------------------------|
---------------------------|--------------------------|
---------------------------|--------------------------|


   H.              E   E      S   S  H         E  E   E   
--------------------------|------------------------------|
--15br-------------L--13--|--12h-13-12~------------------|
--------------------------|-----------------------9--12--|
--------------------------|------------------------------|
--------------------------|------------------------------|
--------------------------|------------------------------|


      H          E   S S  S S  S S    H         E  E   E  E   
-----------------------------------|-------------------------|
-----------------------------------|-------------------------|
--12g14~---------L--14---12---10---|--9~--------L--7------7--|
-----------------------------------|------------------10-----|
-----------------------------------|-------------------------|
-----------------------------------|-------------------------|


  H          Q.      E     S  S H         Q.        Q.      S S  E.   E.   E   
------------------------|------------------------|----------------------------|
------------------------|------------------------|---------13---13---15---13--|
--7br--------7~---------|------------------------|----------------------------|
---------------------7--|--5S-7-5~--------L------|----------------------------|
------------------------|------------------------|----------------------------|
------------------------|------------------------|----------------------------|


   H.             Q        Q.      S S  E.   E.   E   
------------------------|----------------------------|
--12~------------12S----|--x------10---10---12---10--|
------------------------|----------------------------|
------------------------|----------------------------|
------------------------|----------------------------|
------------------------|----------------------------|


   E  H         E  E  S S    E   H            S S  S S S S  
--------------------------|--------------------------------|
--------------------------|--------------------------------|
--12--9~--------L-----9---|--9--10--------10g12---10---9---|
--------------------------|--------------------------------|
--------------------------|--------------------------------|
--------------------------|--------------------------------|


  E  H        E.  S S S      Q.       E    H            W                  
------------------------|----------------------------|-------------------||
------------------------|----------------------------|-------------------||
--7--5--------L-----5-7-|--7g9------<>7--<>7~--------|--L----------------||
------------------7-----|----------------------------|-------------------||
------------------------|----------------------------|-------------------||
------------------------|----------------------------|-------------------||




Duration Legend
---------------
W - whole
H - half
Q - quarter
E - 8th
S - 16th
T - 32nd
X - 64th
. - note dotted
|-n-|  - n-tuplets


Tablature Legend
----------------
L - tied note
x - dead note
g - grace note
(n) - ghost note
> - accentuded note
NH - natural harmonic
AH - artificial harmonic
TH - tapped harmonic
SH - semi harmonic
PH - pitch harmonic
h - hammer on
p - pull off
b - bend
br - bendRelease
pb - preBend
pbr - preBendRelease
brb - bendReleaseBend
\n/ - tremolo bar dip
\n - tremolo bar dive
-/n - tremolo bar Release up
/n\ - tremolo bar inverted dip
/n - tremolo bar return
-\n - tremolo bar Release down
S - shift slide
s - legato slide
/ -  slide into from below or out of upwards
\ -  slide into from above or out of downwards
~ - vibrato
W - wide vibrato
tr - trill
TP - tremolo picking
T - tapping
S - slap
P - pop
< - fade in
^ - brush up
v - brush down
comments
We did not receive enough feedback on this tab! Please rate:
1 2 3 4 5
I want to post or [tab]
guest
You may want to rate the tab now too:
select rating
Please do not post tabs as comments. Select "correction" instead!