Oops, an error
Loading. Please wait.

Day Two Isolation Tab

ver1
ver1

Whole song

Interactive

More versions @911Tabs.com
3,388 views 6 this week
no commentswrite comment
1 2 3 4 5
excellent!
x 2
Autoscroll
+/-
esc
set tempo
stop
Contributor
Hey! There's an official Ultimate Guitar app which is ideal
for learning songs when you're away from computer. Get the app
WARNING: You are trying to view
                                    content from Ultimate-Guitar.com
                                    in an unauthorized application,
                                    which is prohibited.

                                    Please use an official Ultimate
                                    Guitar Tabs application for iPhone,
                                    iPad or Android to access legitimate
                                    chords, guitar, bass, and drum tabs
                                    from Ultimate-Guitar.com database.

                                    Type "ultimate guitar tabs" in Apple
                                    App Store's or Android Market's
                                    search to find the application.
 DAY TWO: ISOLATION
                              


          Am                    G                    C                  D5/A
      x 0 2 2 1 x          3 2 0 0 0 x          x 3 2 0 1 x          x 0 0 2 3 x

          Bb                    F
      x 1 3 3 3 x          1 3 3 2 1 1

Gtr I (E A D G B E) - 'clean'
Gtr II (E A D G B E) - 'synth'
Gtr III (E A D G B E) - 'clean with delay'
Gtr IV (B E A D G B E) - '7 string'
Gtr V (E A D G B E) - 'organ'
Gtr VI (E A D G B E) - 'flute'

   Verse
    Q=83                                                  1.
    B/F#    B/F       Eb5     Eb5/C#    B       B/F       F#      C#5/F#
   4/4
    Gtr I
    E E E E E E E E   E E E E E E E E   E E E E E E E E   E E E E E E E E
||------------------|-----------------|-----------------|------------------||
||o-----4-------4---|-----4-------4---|-----4-------4---|-----2-------2---o||
||----4---4---4---4-|---3---3---3---3-|---4---4---4---4-|---3---3---1---1--||
||--4-------3-------|-1---------------|---------3-------|-4-------4--------||
||o-----------------|---------4-------|-2---------------|-----------------o||
||------------------|-----------------|-----------------|------------------||
    H       H         H       H         H       H         H       H


  2.
  F#maj7            C#
                    Gtr II
  W                 Q   S  S S S S   S +E     +Q
|-----------------|----------------------------------------|
|-----------------|--------------6---9-(9)----18)-21-19----|
|-----------------|----------6-8-------18--20-----------20-|
|-----------------|-------\6-------\18---------------------|
|-----------------|----------------------------------------|
|-----------------|----------------------------------------|
|                   H            S   S  S   S  S   S  S  S
|
| Gtr I
| E E E E E E E E   E E E    E   E      E      E      E
|---------1-------|----------------------------------------|
|-----2-----2---2-|--------------2-------------------------|
|---3---3-----3---|-----1---------------1-------------1----|
|-4---------------|---3------3-----------------3-----------|
|-----------------|-4--------------------------------------|
|-----------------|----------------------------------------|
  W                 W


   ~~~
   E.     S  S  S  S   S  S   S  S   S  S  S  S  S
|-------/21-20-18----/18----------------------------|
|-18--------------21-----21--19-18-/19-18-----------|
|-----------------------------------------18--------|
|--------------------------------------------18-15--|
|---------------------------------------------------|
|---------------------------------------------------|
|  H                      H
|
|     >
|  E  E      E     E     +H
|---------------------------------------------------|
|------------------2-----(2)------------------------|
|------------1--------------------------------------|
|-----3---------------------------------------------|
|--4------------------------------------------------|
|---------------------------------------------------|
   W


  B/F#        B/F           Eb5                 Eb5/C#
  Gtr II
   ~~~~~~~~~
   Q    +H.                   H                  H
|-------------------------|---------------------------------|
|-------------------------|---------------------------------|
|-------------------------|---------------------------------|
|-16---(16)---------------|-(16)----------------------------|
|-------------------------|---------------------------------|
|-------------------------|---------------------------------|
|
| Gtr III
|  H           E  E  E  E     E    E    E    E   E  E  E  E
|-------------------13----|-----------(13)------------13----|
|----------------16----16-|------(16)------(16)----16----16-|
|-16----------16----------|--15-----------------15----------|
|-------------------------|---------------------------------|
|-------------------------|---------------------------------|
|-------------------------|---------------------------------|
|
| Gtr I
|  E E   E  E  E  E  E  E     E    E    E    E   E  E  E  E
|-------------------------|---------------------------------|
|--------4-----------4----|-------------4--------------4----|
|----4------4-----4-----4-|--------3---------3------3-----3-|
|--4-----------3----------|---1-----------------------------|
|-------------------------|----------------------4----------|
|-------------------------|---------------------------------|
   H           H              H                  H


  B                 B/F           F#                C#5/F#
   W                               W
|-------------------------------|-------------------------------|
|-------------------------------|-------------------------------|
|-------------------------------|-------------------------------|
|-------------------------------|-------------------------------|
|-------------------------------|-------------------------------|
|-------------------------------|-------------------------------|
|
|  E   E    E    E   E  E  E  E    E   E    E    E   E  E  E  E
|---------(13)------------13----|---------(13)------------13----|
|----(16)------(16)----16----16-|----(16)------(16)----14----14-|
|-16----------------16----------|-15----------------15----------|
|-------------------------------|-------------------------------|
|-------------------------------|-------------------------------|
|-------------------------------|-------------------------------|
|
|  E   E    E    E   E  E  E  E    E   E    E    E   E  E  E  E
|-------------------------------|-------------------------------|
|-----------4--------------4----|-----------2--------------2----|
|------4---------4------4-----4-|------3---------3------1-----1-|
|--------------------3----------|--4-----------------4----------|
|--2----------------------------|-------------------------------|
|-------------------------------|-------------------------------|
   H                 H             H                 H


  B/F#              B/F           Eb5               Eb5/C#
  Gtr III
   E   E    E    E   E  E  E  E    E   E    E    E   E  E  E  E
|---------(13)------------13----|---------(13)------------13----|
|----(14)------(14)----16----16-|----(16)------(16)----16----16-|
|-16----------------16----------|-15----------------15----------|
|-------------------------------|-------------------------------|
|-------------------------------|-------------------------------|
|-------------------------------|-------------------------------|
|
| Gtr I
|  E   E    E    E   E  E  E  E    E   E    E    E   E  E  E  E
|-------------------------------|-------------------------------|
|-----------4--------------4----|-----------4--------------4----|
|------4---------4------4-----4-|------3---------3------3-----3-|
|--4-----------------3----------|--1----------------------------|
|-------------------------------|--------------------4----------|
|-------------------------------|-------------------------------|
   H                 H             H                 H


  B                 B/F           F#
   E   E    E    E   E  E  E  E    E  E  E  E  E  Q    E
|---------(13)------------13----|-------------13---------|
|----(16)------(16)----16----16-|-------14-------14---14-|
|-16----------------16----------|----15----15------------|
|-------------------------------|-16---------------------|
|-------------------------------|------------------------|
|-------------------------------|------------------------|
|                                  W
|
|  E   E    E    E   E  E  E  E    E  E  E  E  E  E E  E
|-------------------------------|--------------1---------|
|-----------4--------------4----|--------2--------2----2-|
|------4---------4------4-----4-|-----3-----3-------3----|
|--------------------3----------|--4---------------------|
|--2----------------------------|------------------------|
|-------------------------------|------------------------|
   H                 H             W


  C#
  Gtr II
    S   S   S  S S  S  +E     +S   S  S  S   Q
|------------------------------------------/18----------|
|----------------6--9--(9)----18)-21-----------21-18----|
|-----------6--8-------18--20-----------18-----------18-|
|------/6----------18----------------18-----------------|
|-------------------------------------------------------|
|-------------------------------------------------------|
|   Q            S  S   S   S  S   S  E      S  S  S  S
|
| Gtr III
|   E       Q           E      E      Q            E
|-(13)------------------------13------------------------|
|---------(14)--------(14)-----------14-----------14----|
|-------------------------------------------------------|
|-------------------------------------------------------|
|-------------------------------------------------------|
|-------------------------------------------------------|
|
| Gtr I
|   E       E    E      E      E      E      E     E
|-------------------------------------------------------|
|------------------------------2------------------------|
|----------------1--------------------1------------1----|
|-----------3-----------3--------------------3----------|
|---4---------------------------------------------------|
|-------------------------------------------------------|
    W


  B
    ~~~~
    H.                   +E   S  S
|----------------------------------|
|----------------------------------|
|----------------------------------|
|--21-------------------(21)-20-18-|
|----------------------------------|
|----------------------------------|
|
|   E    Q      E   Q     Q
|-(13)-----------------------------|
|------(14)---(14)-16---(16)-------|
|----------------------------------|
|----------------------------------|
|----------------------------------|
|----------------------------------|
|
|   E    E  E   E   E E   E   E
|----------------------------------|
|-------------------4--------------|
|-----------4---------4-------4----|
|--------4------4---------4--------|
|---2------------------------------|
|----------------------------------|
    W


  F#
   ~~~~~~~~~~~~~~~~~~~~~~~~~~~
   W                      +W
|----------------------|-----------------------||
|----------------------|-----------------------||
|----------------------|-----------------------||
|-20-------------------|-(20)------------------||
|----------------------|-----------------------||
|----------------------|-----------------------||
|
|  H        Q     Q        H          Q    Q
|----------------------|------------^14--(14)--||
|----------14---(14)---|--14--------^14--(14)--||
|----------------------|------------^15--(15)--||
|----------------------|-----------------------||
|----------------------|-----------------------||
|----------------------|-----------------------||
|
|  E E E E  E E   E  E     E  E E E   H
|----------------------|-----------------------||
|----------------------|-----------------------||
|-----------3----------|----------3-^-3--------||
|------4------4------4-|--------4---^-4--------||
|----4---4--------4----|------4-----^-4--------||
|--2-------------------|---2--------^-2--------||
   W                       W


 Pre-Chorus
  B5        Bb      A         B     Bb       B5        Bb      A
  Gtr IV
  PM    PM--|   PM|     PM|     PM--|        PM    PM--|   PM|
  E E E S S E E S S E   S S E E S S E E Q    E E E S S E E S S E
|---------------------|--------------------|----------------------|
|---------------------|--------------------|----------------------|
|---------------------|--------------------|----------------------|
|---------------------|--------------------|----------------------|
|-----2-----1-1-----0-|-------2-----1-1----|-----2-----1-1-----0--|
|-2-2-----------------|-2-2-2--------------|-2-2------------------|
|-0-0---0-0-----0-0---|-0-0-0---0-0--------|-0-0---0-0-----0-0----|


        G#    G
  Gtr V
              |------3------| |----------3----------|  |----------------------3-----------------------|  |----------------3-----------------|
  H           X X X X X X X X X X X X X X X X X X X X  X   X   X  X  X  X  X  X  X  X  X  X  X  X  X  X  X  X  X  X  X  X  X  X  X   X   X  X
|----------------------------------------------------------------------------------------------------------------------------------------------|
|-------------------------------------------------x-x--x---x---x--x--x--x--x--x--x--x--x--x--x--x--x--x--x--x--x--x--x--x--x--x--x---x---x--x--|
|----------------------------------------------------------------------------------------------------------------------------------------------|
|----------------------------------------------------------------------------------------------------------------------------------------------|
|---------------------------------1---1---1---2-----x-(x)-(x)-(x)-x-(x)-x-(x)-x-(x)-x-(x)-x-(x)-x-(x)-x-(3)-x-(x)-x-(x)-x-(x)-x-(x)-(x)-(x)-x/-|
|-------------0-1-0-1-0-1-0-1-1-2-1-2-1-2-1-2-2-3-2-3--2---3---2--3--2--3--2--x--x--x--x--x--2--x--x--x--x--x--x--x--x--x--x--x--x---x---x--x/-|
|
| Gtr IV
| PM|     PM|
| S S E E S S E                       E                              Q
|----------------------------------------------------------------------------------------------------------------------------------------------|
|----------------------------------------------------------------------------------------------------------------------------------------------|
|----------------------------------------------------------------------------------------------------------------------------------------------|
|----------------------------------------------------------------------------------------------------------------------------------------------|
|----------------------------------------------------------------------------------------------------------------------------------------------|
|-2-2-2-4-----3-----------------------3--------------------------------------------------------------------------------------------------------|
|-0-0-0---0-0----------------------------------------------------------------------------------------------------------------------------------|


  Bm         Bbm  D5/A     Bm           Bbm
   ~~                       ~~
   H          Q    Q        H            Q.      +E
|-10----------9---10-----|-10------------9-------(9)\-|
|-12---------11---10-----|-12-----------11------(11)\-|
|------------------------|----------------------------|
|------------------------|----------------------------|
|------------------------|----------------------------|
|------------------------|----------------------------|
|
| Gtr IV
|  PM    PM--|     PM|      PM|     PM--|
|  E E E S S  E E  S S E    S S E E S S  E  E Q
|------------------------|----------------------------|
|------------------------|----------------------------|
|------------------------|----------------------------|
|------------------------|----------------------------|
|------2------1-1------0-|--------2------1--1---------|
|--2-2-------------------|--2-2-2---------------------|
|--0-0---0-0-------0-0---|--0-0-0---0-0---------------|


  B5          Bbm    D5/A
    ~~~
    H          +H
|-/14---------(14)-----------|
|--------------14----15------|
|--16----------15----14------|
|----------------------------|
|----------------------------|
|----------------------------|
|   H           Q     Q
|
|   PM    PM--|       PM|
|   E E E S S   E  E  S S E
|----------------------------|
|----------------------------|
|----------------------------|
|----------------------------|
|-------2-------1--1------0--|
|---2-2----------------------|
|---0-0---0-0---------0-0----|


  Bm             Bbm      Em          Ebm  G5/D
 3/4                     4/4
    ~~~~                    ~~~
    H.                      H          Q    Q
|-(14)----------------||---15---------14---15-----|
|--15------------14---||o-------------------------|
|--16------------15---||--/16---------15---16-----|
|---------------------||--/14---------13----------|
|---------------------||o------------------17-----|
|---------------------||--------------------------|
|   H             Q         H          Q    Q
|
|   PM-|     PM---------------|   PM--|     PM|
|   S  S E E S S  E E       E E E S S  E E  S S E
|---------------------||--------------------------|
|---------------------||--------------------------|
|---------------------||o-------------------------|
|---------------------||--------2------1-1------0-|
|---------------------||o---2-2-------------------|
|---2--2-2-3------2-2-||----0-0---0-0-------0-0---|
|---0--0-0---0-0------||--------------------------|


  Em           Ebm
   H            H
|-15-----------14------(14)\---|
|------------------------------|
|-16---------------------------|
|-14-----------13------(13)\---|
|------------------------------|
|------------------------------|
|  H            Q.      +E
|
|  PM|     PM--|     PM------|
|  S S E E S S  E  E e   S   S
|------------------------------|
|------------------------------|
|------------------------------|
|--------2------1--1-----------|
|--2-2-2-----------------------|
|--0-0-0---0-0-------0---0---0-|
|------------------------------|


                            1.                          2.
  Em          Ebm  G5/D     A/C#         C              C            B
                                                       3/4
    ~~~
    H          Q    Q        H            H              H            Q
|--15---------14---15-----|-17-----------20----------||-20-----------19----||
|-------------------------|-------------------------o||--------------------||
|-/16---------15---16-----|-18-----------17----------||-17-----------16----||
|-/14---------13----------|--------------------------||--------------------||
|------------------17-----|-16----------------------o||--------------------||
|-------------------------|--------------------------||--------------------||
|   H          Q    Q        H            H
|
|   PM|   PM--|     PM|      PM|     PM--|    PM-----------|     PM--|
|   E E E S S  E E  S S E    S S E E S S  E E e s s      S S E E S S  E E
|-------------------------|--------------------------||--------------------||
|-------------------------|--------------------------||--------------------||
|-------------------------|-------------------------o||--------------------||
|-------2------1-1------0-|--------------------------||--------------------||
|---2-2-------------------|--------4------3-3-------o||--------3------2-2--||
|---0-0---0-0-------0-0---|--0-0-0---0-0------0-0-0--||--0-0-0---0-0-------||
|-------------------------|--------------------------||--------------------||


   Verse
    Am   G                 C        D5/A  Bb
   4/4
    Gtr I
    Q  E S S S S E E S S   Q  E S S S S E E S S
    |  | | | | | | | | |   |  | | | | | | | | |
    /  / x / x / / / / /   /  / x / / x / / x x

    W                      W
||-----------------------|----------------------|
||o----------------------|----------------------|
||-----------------------|----------------------|
||-----------------------|----------------------|
||o----------------------|----------------------|
||-----------------------|----------------------|


  Am   G                 C        D5/A  F
  Q  E S S S S E E S S   Q  E S S S S E E S S
  |  | | | | | | | | |   |  | | | | | | | | |
  /  / x / x / / / x x   /  x x x / x / / x x

  W                      W
|----------------------|------------------------||
|----------------------|-----------------------o||
|----------------------|------------------------||
|----------------------|------------------------||
|----------------------|-----------------------o||
|----------------------|------------------------||


 Chorus
  Bm       Bbm D5/A  Bm         Bbm
  Gtr V
   ~~                 ~~
   H        Q   Q     H          Q.    +E
|-10--------9--10--|-10----------9-----(9)\-|
|-12-------11--10--|-12---------11----(11)\-|
|------------------|------------------------|
|------------------|------------------------|
|------------------|------------------------|
|------------------|------------------------|
|
| Gtr IV
|  PM                 PM|
|  E E H.             S S E H.
|------------------|------------------------|
|------------------|------------------------|
|------------------|------------------------|
|------------------|------------------------|
|------------------|------------------------|
|--2-2-------------|--2-2-2-----------------|
|--0-0-------------|--0-0-0-----------------|


  B5                 BD5/E5/B       Bm
    ~~~
    H        +H           H          H
|-/14-------(14)-------|-12---------10----|
|------------14---15---|-12---------12----|
|--16--------15---14---|------------------|
|----------------------|------------------|
|----------------------|------------------|
|----------------------|------------------|
|   H         Q    Q
|
|   PM                    PM|
|   E E H.                S S E H.
|----------------------|------------------|
|----------------------|------------------|
|----------------------|------------------|
|----------------------|------------------|
|----------------------|------------------|
|---2-2----------------|--2-2-2-----------|
|---0-0----------------|--0-0-0-----------|


  B5          Bbm  D5/A     B5             Bbm
    ~~~                       ~~~~
    H          Q    Q         H             Q.      +E
|-/14---------------------|-(14)-------------------------|
|-/15---------14---15-----|--15------------14------(14)\-|
|-/16---------15---14-----|--16------------15------(15)\-|
|-------------------------|------------------------------|
|-------------------------|------------------------------|
|-------------------------|------------------------------|
|   W                         W
|
|   PM    PM--|     PM|       PM-|     PM--|
|   E E E S S  E E  S S E     S  S E E S S  E  E Q
|-------------------------|------------------------------|
|-------------------------|------------------------------|
|-------------------------|------------------------------|
|-------------------------|------------------------------|
|-------2------1-1------0-|----------2------1--1---------|
|---2-2-------------------|---2--2-2---------------------|
|---0-0---0-0-------0-0---|---0--0-0---0-0---------------|


  B5          Bbm    D5/A
    ~~~
    H          +H
|-/14---------(14)-----------|
|--------------14----15------|
|--16----------15----14------|
|----------------------------|
|----------------------------|
|----------------------------|
|   H           Q     Q
|
|   PM    PM--|       PM|
|   E E E S S   E  E  S S E
|----------------------------|
|----------------------------|
|----------------------------|
|----------------------------|
|-------2-------1--1------0--|
|---2-2----------------------|
|---0-0---0-0---------0-0----|


  Bm             Bbm      Em          Ebm  G5/D
 3/4                     4/4
    ~~~~                    ~~~
    H.                      H          Q    Q
|-(14)----------------||---15---------14---15-----|
|--15------------14---||o-------------------------|
|--16------------15---||--/16---------15---16-----|
|---------------------||--/14---------13----------|
|---------------------||o------------------17-----|
|---------------------||--------------------------|
|   H             Q         H          Q    Q
|
|   PM-|     PM---------------|   PM--|     PM|
|   S  S E E S S  E E       E E E S S  E E  S S E
|---------------------||--------------------------|
|---------------------||--------------------------|
|---------------------||o-------------------------|
|---------------------||--------2------1-1------0-|
|---------------------||o---2-2-------------------|
|---2--2-2-3------2-2-||----0-0---0-0-------0-0---|
|---0--0-0---0-0------||--------------------------|


  Em           Ebm
   H            H
|-15-----------14------(14)\---|
|------------------------------|
|-16---------------------------|
|-14-----------13------(13)\---|
|------------------------------|
|------------------------------|
|  H            Q.      +E
|
|  PM|     PM--|     PM------|
|  S S E E S S  E  E e   S   S
|------------------------------|
|------------------------------|
|------------------------------|
|--------2------1--1-----------|
|--2-2-2-----------------------|
|--0-0-0---0-0-------0---0---0-|
|------------------------------|


                            1.                          2.
  Em          Ebm  G5/D     A/C#         C              C            B
                                                       3/4
    ~~~
    H          Q    Q        H            H              H            Q
|--15---------14---15-----|-17-----------20----------||-20-----------19----||
|-------------------------|-------------------------o||--------------------||
|-/16---------15---16-----|-18-----------17----------||-17-----------16----||
|-/14---------13----------|--------------------------||--------------------||
|------------------17-----|-16----------------------o||--------------------||
|-------------------------|--------------------------||--------------------||
|   H          Q    Q        H            H
|
|   PM|   PM--|     PM|      PM|     PM--|    PM-----------|     PM--|
|   E E E S S  E E  S S E    S S E E S S  E E e s s      S S E E S S  E E
|-------------------------|--------------------------||--------------------||
|-------------------------|--------------------------||--------------------||
|-------------------------|-------------------------o||--------------------||
|-------2------1-1------0-|--------------------------||--------------------||
|---2-2-------------------|--------4------3-3-------o||--------3------2-2--||
|---0-0---0-0-------0-0---|--0-0-0---0-0------0-0-0--||--0-0-0---0-0-------||
|-------------------------|--------------------------||--------------------||


 Verse
  Am   G                 C        D5/A  Bb
 4/4
  Gtr I
  Q  E S S S S E E S S   Q  E S S S S E E S S
  |  | | | | | | | | |   |  | | | | | | | | |
  /  / x / x / / / / /   /  / x / / x / / x x

  W                      W
|----------------------|----------------------|
|----------------------|----------------------|
|----------------------|----------------------|
|----------------------|----------------------|
|----------------------|----------------------|
|----------------------|----------------------|


  Am   G                 C        D5/A  F
  Q  E S S S S E E S S   Q  E S S S S E E S S
  |  | | | | | | | | |   |  | | | | | | | | |
  /  / x / x / / / x x   /  x x x / x / / x x

  W                      W
|----------------------|------------------------|
|----------------------|------------------------|
|----------------------|------------------------|
|----------------------|------------------------|
|----------------------|------------------------|
|----------------------|------------------------|


  Am            G
   Q        E    S S S  S E    E   S  S
   |        |    | | |  | |    |   |  |
   /        /    x / x  / /    /   /  /

  Gtr V
   S S  S S S S  S S S  S S S  S S S  S
|---------7-8-7----8-7----7-8-10-8-7-10-|
|-10-8-10-------10-----10---------------|
|---------------------------------------|
|---------------------------------------|
|---------------------------------------|
|---------------------------------------|


  C                       D5/A        Bb
   Q           E     S  S  S  S  E     E     S  S
   |           |     |  |  |  |  |     |     |  |
   /           /     x  /  /  x  /     /     x  x

   S  S  S  S  S  S  S  S  S  S  S  S  S  S  S  S
|--8-------10-12-10----12-10----10-12-13-12-10-13-|
|-13-12-13----------13-------13-------------------|
|-------------------------------------------------|
|-------------------------------------------------|
|-------------------------------------------------|
|-------------------------------------------------|
   W


  Am            G
   Q        E    S S S  S E    E    S  S
   |        |    | | |  | |    |    |  |
   /        /    x / x  / /    /    x  x

   S S  S S S S  S S S  S S S  S S  S  S
|-12------7-8-7----8-7----7-8-10-8-10-13-|
|-10-8-10-------10-----10----------------|
|----------------------------------------|
|----------------------------------------|
|----------------------------------------|
|----------------------------------------|
   W


  C                       D5/A        F
   Q           E     S  S  S  S  E     E     S   S
   |           |     |  |  |  |  |     |     |   |
   /           x     x  x  /  x  /     /     x   x

   S  S  S  S  S  S  S  S  S  S  S  S  S  S  S   S
|-12----------12-------12-------------17----17--20--||
|-13-12-13-15----15-13----18-17-18-20-17-20---------||
|-------------------------17-16-17-19----19-17-(17)-||
|---------------------------------------------------||
|---------------------------------------------------||
|---------------------------------------------------||
   W


 Chorus
  B5/F#    Bbm D5/A  Bm         Bbm
  Gtr V
                      ~~
   H        Q   Q     H          Q.    +E
|-----------9--10--|-10----------9-----(9)\-|
|-24-------11--10--|-12---------11----(11)\-|
|-23---------------|------------------------|
|------------------|------------------------|
|------------------|------------------------|
|------------------|------------------------|
|
| Gtr IV
|  PM                 PM|
|  E E H.             S S E H.
|------------------|------------------------|
|------------------|------------------------|
|------------------|------------------------|
|------------------|------------------------|
|------------------|------------------------|
|--2-2-------------|--2-2-2-----------------|
|--0-0-------------|--0-0-0-----------------|


  B5                 BD5/E5/B       Bm
    ~~~
    H        +H           H          H
|-/14-------(14)-------|-12---------10----|
|------------14---15---|-12---------12----|
|--16--------15---14---|------------------|
|----------------------|------------------|
|----------------------|------------------|
|----------------------|------------------|
|   H         Q    Q
|
|   PM                    PM|
|   E E H.                S S E H.
|----------------------|------------------|
|----------------------|------------------|
|----------------------|------------------|
|----------------------|------------------|
|----------------------|------------------|
|---2-2----------------|--2-2-2-----------|
|---0-0----------------|--0-0-0-----------|


  B5          Bbm  D5/A     B5             Bbm
    ~~~                       ~~~~
    H          Q    Q         H             Q.      +E
|-/14---------------------|-(14)---------------------------|
|--15---------14---15-----|--15------------14------(14)\---|
|--16---------15---14-----|--16------------15------(15)\---|
|-------------------------|--------------------------------|
|-------------------------|--------------------------------|
|-------------------------|--------------------------------|
|   W                         W
|
|   PM    PM--|     PM|       PM-|     PM--|     PM---------
|   E E E S S  E E  S S E     S  S E E S S  E  E e   S   S
|-------------------------|--------------------------------|
|-------------------------|--------------------------------|
|-------------------------|--------------------------------|
|-------------------------|--------------------------------|
|-------2------1-1------0-|----------2------1--1-----------|
|---2-2-------------------|---2--2-2-----------------------|
|---0-0---0-0-------0-0---|---0--0-0---0-0-------0---0---0-|


  B5          Bbm    D5/A
    ~~~
    H          +H
|-/14---------(14)----------|
|--------------14----15-----|
|--16----------15----14-----|
|---------------------------|
|---------------------------|
|---------------------------|
|   H           Q     Q
|
|-|       PM--|       PM|
|   E E E S S   E  E  S S E
|---------------------------|
|---------------------------|
|---------------------------|
|---------------------------|
|-------2-------1--1------0-|
|---2-2---------------------|
|---0-0---0-0---------0-0---|


  Bm             Bbm          Em          Ebm  G5/D
 3/4                         4/4
    ~~~~                        ~~~
    H.                          H          Q    Q
|-(14)--------------------||---15---------14---15-----|
|--15------------14-------||o-/17---------16---15-----|
|--16------------15-------||--/16---------15---16-----|
|-------------------------||--------------------------|
|-------------------------||o-------------------------|
|-------------------------||--------------------------|
|   H             Q             H          Q    Q
|
|   PM-|     PM-------------------|   PM--|     PM|
|   S  S E E S S  S S S S       E E E S S  E E  S S E
|-------------------------||--------------------------|
|-------------------------||--------------------------|
|-------------------------||o-------------------------|
|-------------------------||--------2------1-1------0-|
|-------------------------||o---2-2-------------------|
|---2--2-2-3------2-0-2-0-||----0-0---0-0-------0-0---|
|---0--0-0---0-0----------||--------------------------|


  Em           Ebm
   ~~
   H            Q.      +E
|-15-----------14------(14)\----|
|-------------------------------|
|-16----------------------------|
|-14-----------13------(13)\----|
|-------------------------------|
|-------------------------------|
|  H            Q.      +E
|
|  PM|     PM--|     PM------|
|  S S E E S S  E  E e   S   S
|-------------------------------|
|-------------------------------|
|-------------------------------|
|--------2------1--1------------|
|--2-2-2------------------------|
|--0-0-0---0-0-------0---0---0--|
|-------------------------------|


                            1.                          2.
  Em          Ebm  G5/D     A/C#         C              C            B
    ~~~
    H          Q    Q        H            H              H            H
|--15---------14---15-----|-17-----------20----------||-20-----------19----||
|-------------------------|-14----------------------o||--------------------||
|-/16---------15---16-----|--------------17----------||-17-----------16----||
|-/14---------13----------|--------------------------||--------------------||
|------------------17-----|-------------------------o||--------------------||
|-------------------------|--------------------------||--------------------||
|   H          Q    Q        H            H
|
|   PM|   PM--|     PM|      PM|     PM--|    PM-----------|     PM--|
|   E E E S S  E E  S S E    S S E E S S  E E e s s      S S E E S S  H
|-------------------------|--------------------------||--------------------||
|-------------------------|--------------------------||--------------------||
|-------------------------|-------------------------o||--------------------||
|-------2------1-1------0-|--------------------------||--------------------||
|---2-2-------------------|--------4------3-3-------o||--------3------2----||
|---0-0---0-0-------0-0---|--0-0-0---0-0------0-0-0--||--0-0-0---0-0-------||
|-------------------------|--------------------------||--------------------||


 Flute Solo
  B          Eb5       Eb5/C#
 6/4
       Gtr I
    >
    E  E E E E E  E  E E   E  E    E
|-(19)----------------------------------|
|--12----4--------4-----------4---------|
|----------4---3-----3-----3-------3----|
|------------1--------------------------|
|----------------------4----------------|
|---------------------------------------|
|   H        H         H
|
| Gtr VI
|   H.           +E  E E a E.   S.   S.
|---------------------------------------|
|---7------------(7)-9-7-9-6------------|
|-------------------------------8----6--|
|---------------------------------------|
|---------------------------------------|
|---------------------------------------|
|
| Gtr IV
|            >
|  +H        H         H
|---------------------------------------|
|---------------------------------------|
|---------------------------------------|
|---------------------------------------|
|--(2)-------1--------------------------|
|---------------------------------------|
|---------------------------------------|


  B       B/F       F#             C#5/F#
 4/4
  E E E E E E E E   E  E E    E    E  E E E
|-----------------|-------------------------|
|-----4-------4---|------2--------------2---|
|---4---4---4---4-|----3------3-------1---1-|
|---------3-------|-4--------------4--------|
|-2---------------|-------------------------|
|-----------------|-------------------------|
| H       H         H              H
|
| W                 Q.      a E  a Q.     E
|-----------------|-------------------------|
|-----------------|-------------------------|
|-8---------------|-6-----------------------|
|-----------------|--------13-9-11-8------9-|
|-----------------|-------------------------|
|-----------------|-------------------------|
|
| W                 W
|-----------------|-------------------------|
|-----------------|-------------------------|
|-----------------|-------------------------|
|-----------------|-------------------------|
|-----------------|-------------------------|
|-----------------|-------------------------|
|-----------------|-------------------------|


  B/F#    B/F       Eb5           Eb5/C#        B            B/F
  Gtr I
  E E E E E E E E    E  E E  E     E  E  E  E     E  E  E  E E   E   E  E
|-----------------|---------------------------|----------------------------|
|-----4-------4---|-------4--------------4----|---------4------------4-----|
|---4---4---4---4-|-----3----3--------3-----3-|------4-----4-----4------4--|
|-4-------3-------|--1------------------------|--------------3-------------|
|-----------------|----------------4----------|---2------------------------|
|-----------------|---------------------------|----------------------------|
| H       H          H             H              H          H
|
| Gtr VI
|                                                 ~~~~           ~~~~
| W                  Q.      S  S  E  E  E  E    +Q     E  Q    +E   E  E
|-----------------|---------------------------|----------------------------|
|-----------------|---------------------------|-----------16---(16)-14-----|
|-----------------|---------------13-15-16-15-|-(15)-------------------16--|
|-9---------------|-13------15-16-------------|--------13------------------|
|-----------------|---------------------------|----------------------------|
|-----------------|---------------------------|----------------------------|


  Bbm/F#                      C#
                                                             >
   E E E E   E   E     E  E    E E E E   E   E     E  E    E E E E   H
|------------1--------------|---------------------------|------------------||
|------2---------2--------2-|------------2--------------|--------2---2-----||
|----3---3-------------3----|------1---------1--------1-|------1-----------||
|--4------------------------|----3---3-------------3----|----3-------------||
|---------------------------|--4------------------------|--4---------------||
|---------------------------|---------------------------|------------------||
|  W                           W                           W
|
|                                                                    >
|            ~~~~                        ~~~~                        ~~~~
|  H         E   S  S  E  E    H         E   S  S  E  E    H        +H
|-----------18--19-18-16----|---------------------------|------------------||
|------------------------19-|-18-------(18)-------------|------------------||
|-15-------(15)-------------|-----------15--16-15-------|------------------||
|---------------------------|---------------------18-16-|-15-------(15)----||
|---------------------------|---------------------------|------------------||
|---------------------------|---------------------------|------------------||
   H        +H                 H        +H                 W


   Verse
                                                          1.
    B/F#    B/F       Eb5     Eb5/C#    B       B/F       F#      C#5/F#
    E E E E E E E E   E E E E E E E E   E E E E E E E E   E E E E E E E E
||------------------|-----------------|-----------------|-------------------||
||o-----4-------4---|-----4-------4---|-----4-------4---|-----2-------2----o||
||----4---4---4---4-|---3---3---3---3-|---4---4---4---4-|---3---3---1---1---||
||--4-------3-------|-1---------------|---------3-------|-4-------4---------||
||o-----------------|---------4-------|-2---------------|------------------o||
||------------------|-----------------|-----------------|-------------------||
    H       H         H       H         H       H         H       H


  2.
  Bbm/F#            C#
  Gtr IV
  W                 H.           a a  E.      +T   T
|-----------------|----------------------------------|
|-----------------|------------------18b19r==(18)p16-|
|-----------------|----------------x-----------------|
|-----------------|--------------x-------------------|
|-----------------|----------------------------------|
|-----------------|----------------------------------|
|-----------------|----------------------------------|
|
| Gtr I
| E E E E E E E E   E  E E E E E      E    E
|---------1-------|----------------------------------|
|-----2-----2---2-|----------2-----------------------|
|---3---3-----3---|------1-----1-----------1---------|
|-4---------------|----3---3----------3--------------|
|-----------------|-4--------------------------------|
|-----------------|----------------------------------|
  W                 W


   Q    +E.    T  T  +Q.    +E
|--------------------------------|
|-18---(18)h==19p18-(18)---(18)S=|
|--------------------------------|
|--------------------------------|
|--------------------------------|
|--------------------------------|
|--------------------------------|
|
|    >
|  E E   E  E         H
|--------------------------------|
|-----------2---------2----------|
|--------1-----------------------|
|----3---------------------------|
|--4-----------------------------|
|--------------------------------|
   W


  B/F#     B/F       Eb5     Eb5/C#    B       B/F       F#      C#5/F#
   >
   W                 W                 W                 W
|------------------|-----------------|-----------------|-----------------|
|-16---------------|-----------------|-----------------|-----------------|
|------------------|-----------------|-----------------|-----------------|
|------------------|-----------------|-----------------|-----------------|
|------------------|-----------------|-----------------|-----------------|
|------------------|-----------------|-----------------|-----------------|
|------------------|-----------------|-----------------|-----------------|
|
| Gtr III
|  Q   E Q   E E E   Q   E Q   E E E   Q   E Q   E E E   Q   E Q   E E E
|------------------|-----------------|-----------------|-----------------|
|------4-------4---|-----4-------4---|-----4-------4---|-----2-------2---|
|--4-----4---4---4-|-3-----3---3---3-|-4-----4---4---4-|-3-----3---3---3-|
|------------------|-----------------|-----------------|-----------------|
|------------------|-----------------|-----------------|-----------------|
|------------------|-----------------|-----------------|-----------------|
|
| Gtr I
|  E E E E E E E E   E E E E E E E E   E E E E E E E E   E E E E E E E E
|------------------|-----------------|-----------------|-----------------|
|------4-------4---|-----4-------4---|-----4-------4---|-----2-------2---|
|----4---4---4---4-|---3---3---3---3-|---4---4---4---4-|---3---3---1---1-|
|--4-------3-------|-1---------------|---------3-------|-4-------4-------|
|------------------|---------4-------|-2---------------|-----------------|
|------------------|-----------------|-----------------|-----------------|
   H       H         H       H         H       H         H       H


  B/F#    B/F       Eb5     Eb5/C#    B       B/F       F#
  Gtr III
  Q   E Q   E E E   Q   E Q   E E E   Q   E Q   E E E   Q   E Q   E E E
|-----------------|-----------------|-----------------|-----------------|
|-----4-------4---|-----4-------4---|-----4-------4---|-----2-------2---|
|-4-----4---4---4-|-3-----3---3---3-|-4-----4---4---4-|-3-----3---3---3-|
|-----------------|-----------------|-----------------|-----------------|
|-----------------|-----------------|-----------------|-----------------|
|-----------------|-----------------|-----------------|-----------------|
|
| Gtr I
| E E E E E E E E   E E E E E E E E   E E E E E E E E   E E E E E E E E
|-----------------|-----------------|-----------------|---------1-------|
|-----4-------4---|-----4-------4---|-----4-------4---|-----2-----2---2-|
|---4---4---4---4-|---3---3---3---3-|---4---4---4---4-|---3---3-----3---|
|-4-------3-------|-1---------------|---------3-------|-4---------------|
|-----------------|---------4-------|-2---------------|-----------------|
|-----------------|-----------------|-----------------|-----------------|
  H       H         H       H         H       H         W


  C#                B                 F#
  Q   E Q   E E E   Q   E Q   E E E   W                 W
|-----------------|-----------------|-----------------|---------------||
|-----2-------2---|-----4-------4---|-----------------|---------------||
|-1-----1---1---1-|-4-----4---4---4-|-----------------|---------------||
|-----------------|-----------------|-----------------|---------------||
|-----------------|-----------------|-----------------|---------------||
|-----------------|-----------------|-----------------|---------------||
|
| E E E E E E E E   E E E E E E E E   E E E E E E E E   E E E E  H
|-----------------|-----------------|-----------------|---------------||
|---------2-------|---------4-------|-----------------|---------------||
|-----1-----1---1-|-----4-----4---4-|---------3-------|-------3-^3----||
|---3---3-----3---|---4---4-----4---|-----4-----4---4-|-----4---^4----||
|-4---------------|-2---------------|---4---4-----4---|---4-----^4----||
|-----------------|-----------------|-2---------------|-2-------^2----||
  W                 W                 W                 W


 Breakdown
  Fm
  Gtr II
  T T T T T T T T T T T T T T T T T T T T T T T T T T T T T T T T
|-----------------------------------------------------------------|
|-----------------------------------------------------------------|
|-----------------------------------------------------------------|
|-----------------------------------------------------------------|
|-3-----------3-----------3-----------3-----------3-----------3---|
|---1-4-1-4-1---1-4-1-4-1---1-4-1-4-1---1-4-1-4-1---1-4-1-4-1---1-|
|
| Gtr I
| H                               H
|-----------------------------------------------------------------|
|-----------------------------------------------------------------|
|-1---------------------------------------------------------------|
|-3---------------------------------------------------------------|
|-3---------------------------------------------------------------|
|-1---------------------------------------------------------------|


  N.C.
  T T T T T T T T T T T T T T T T T T T T T T T T T T T T T T T T
|--------------------------------------------------------------------|
|--------------------------------------------------------------------|
|--------------------------------------------------------------------|
|--------------------------------------------------------------------|
|---------3-----------3-----------3-----------3-----------3----------|
|-4-1-4-1---1-4-1-4-1---1-4-1-4-1---1-4-1-4-1---1-4-1-4-1---1-4-1----|
|
| W
|--------------------------------------------------------------------|
|--------------------------------------------------------------------|
|--------------------------------------------------------------------|
|--------------------------------------------------------------------|
|--------------------------------------------------------------------|
|--------------------------------------------------------------------|


  Gtr II
  T T T T T T T T T T T T T T T T T T T T T T T T T T T T T T T T
|-----------------------------------------------------------------|
|-----------------------------------------------------------------|
|-----------------------------------------------------------------|
|-----------------------------------------------------------------|
|-----3-----------3-----------3-----------6-----------6-----------|
|-4-1---1-4-1-4-1---1-4-1-4-1---1-4-1-4-1---4-8-4-8-4---4-8-4-8-4-|


  T T T T T T T T T T T T T T T T T T T T T T T T T T T T T T T T
|--------------------------------------------------------------------|
|--------------------------------------------------------------------|
|--------------------------------------------------------------------|
|--------------------------------------------------------------------|
|-5-----------5-----------5-----------5-----------5-----------5------|
|---3-6-3-6-3---3-6-3-6-3---3-6-3-6-3---3-6-3-6-3---3-6-3-6-3---3----|


  T T T T T T T T T T T T T T T T T T T T T T T T T T T T T T T T
|-----------------------------------------------------------------|
|-----------------------------------------------------------------|
|-----------------------------------------------------------------|
|-----------------------------------------------------------------|
|---------5-----------5-----------5-----------5-----------5-------|
|-6-3-6-3---3-6-3-6-3---3-6-3-6-3---3-6-3-6-3---3-6-3-6-3---3-6-3-|


  T T T T T T T T T T T T T T T T T T T T T T T T T T T T T T T T
|--------------------------------------------------------------------|
|--------------------------------------------------------------------|
|--------------------------------------------------------------------|
|--------------------------------------------------------------------|
|-----5-----------5-----------5-----------4-----------4--------------|
|-6-3---3-6-3-6-3---3-6-3-6-3---3-6-3-6-3---1-6-1-6-1---1-6-1-6-1----|


  T T T T T T T T T T T T T T T T T T T T T T T T T T T T T T T T
|-----------------------------------------------------------------|
|-----------------------------------------------------------------|
|-----------------------------------------------------------------|
|-----------------------------------------------------------------|
|-3-----------3-----------3-----------3-----------3-----------3---|
|---1-4-1-4-1---1-4-1-4-1---1-4-1-4-1---1-4-1-4-1---1-4-1-4-1---1-|


  T T T T T T T T T T T T T T T T T T T T T T T T T T T T T T T T
|--------------------------------------------------------------------|
|--------------------------------------------------------------------|
|--------------------------------------------------------------------|
|--------------------------------------------------------------------|
|---------3-----------3-----------3-----------3-----------3----------|
|-4-1-4-1---1-4-1-4-1---1-4-1-4-1---1-4-1-4-1---1-4-1-4-1---1-4-1----|


  T T T T T T T T T T T T T T T T T T T T T T T T T T T T T T T T
|-----------------------------------------------------------------|
|-----------------------------------------------------------------|
|-----------------------------------------------------------------|
|-----------------------------------------------------------------|
|-----3-----------3-----------3-----------6-----------6-----------|
|-4-1---1-4-1-4-1---1-4-1-4-1---1-4-1-4-1---4-8-4-8-4---4-8-4-8-4-|


  T T T T T T T T T T T T T T T T T T T T T T T T T T T T T T T T
|--------------------------------------------------------------------|
|--------------------------------------------------------------------|
|--------------------------------------------------------------------|
|--------------------------------------------------------------------|
|-3-6---6---6-3-6---6---6-3-6---6---6-3-6---6---6-3-6---6---6-3-6----|
|-----3---3-------3---3-------3---3-------3---3-------3---3----------|


  T T T T T T T T T T T T T T T T T T T T T T T T T T T T T T T T
|-----------------------------------------------------------------|
|-----------------------------------------------------------------|
|-----------------------------------------------------------------|
|-----------------------------------------------------------------|
|---6---6-3-6---6---6-3-6---6---6-3-6---6---6-3-6---6---6-3-6---6-|
|-3---3-------3---3-------3---3-------3---3-------3---3-------3---|
|
| W
|-----------------------------------------------------------------|
|-----------------------------------------------------------------|
|-----------------------------------------------------------------|
|-----------------------------------------------------------------|
|-----------------------------------------------------------------|
|-----------------------------------------------------------------|


                                  Bb5/F
  T T T T T T T T T T T T T T T T  T T T T T T T T   T  T T T T T T T
|------------------------------------------------------------------------|
|------------------------------------------------------------------------|
|------------------------------------------------------------------------|
|------------------------------------------------------------------------|
|---6-3-6---6---6-3-6---6---6-3-6----6---6-4--------------4--------------|
|-3-------3---3-------3---3--------3---3-----1-6-1---6--1---1-6-1-6-1----|
|
| Gtr VI
|                                  <
| H                                Q                +Q
|---------------------------------18---------------(18)------------------|
|---------------------------------18---------------(18)------------------|
|------------------------------------------------------------------------|
|------------------------------------------------------------------------|
|------------------------------------------------------------------------|
|------------------------------------------------------------------------|


                     F5/C
    T  T T T T T T T  T  T T T T T T T T T T T T T T T T T T T T T T T
|----------------------------------------------------------------------|
|----------------------------------------------------------------------|
|----------------------------------------------------------------------|
|----------------------------------------------------------------------|
|---3------------3-------------3-----------3-----------3-----------3---|
|------1-4-1-4-1---1--4--1-4-1---1-4-1-4-1---1-4-1-4-1---1-4-1-4-1---1-|
|
|   >                 <
|  +Q                 H.
|-(18)---------------13------------------------------------------------|
|-(18)---------------13------------------------------------------------|
|----------------------------------------------------------------------|
|----------------------------------------------------------------------|
|----------------------------------------------------------------------|
|----------------------------------------------------------------------|


    T  T T T T T T T T T T T T T T T T T T T T T T T T T T T T T T T
|-----------------------------------------------------------------------|
|-----------------------------------------------------------------------|
|-----------------------------------------------------------------------|
|-----------------------------------------------------------------------|
|------------3-----------3-----------3-----------3-----------3----------|
|---4--1-4-1---1-4-1-4-1---1-4-1-4-1---1-4-1-4-1---1-4-1-4-1---1-4-1----|
|
|  +W
|-(13)------------------------------------------------------------------|
|-(13)------------------------------------------------------------------|
|-----------------------------------------------------------------------|
|-----------------------------------------------------------------------|
|-----------------------------------------------------------------------|
|-----------------------------------------------------------------------|


                                     Fm
    T  T T T T T T T T T T T T T T T  T T T T T T T T   T  T T T T T T T
|------------------------------------------------------------------------|
|------------------------------------------------------------------------|
|------------------------------------------------------------------------|
|------------------------------------------------------------------------|
|--------3-----------3-----------3------------6--------------6-----------|
|---4--1---1-4-1-4-1---1-4-1-4-1---1--4-1-4-1---4-8-4---8--4---4-8-4-8-4-|
|
|   >                                 <                 >
|  +H                                 Q                +Q
|-(13)-------------------------------16---------------(16)---------------|
|-(13)-------------------------------18---------------(18)---------------|
|------------------------------------------------------------------------|
|------------------------------------------------------------------------|
|------------------------------------------------------------------------|
|------------------------------------------------------------------------|


  G5/D
   T T T T T T T T T T T T T T T T T T T T T T T T T T T T T T T T
|---------------------------------------------------------------------|
|---------------------------------------------------------------------|
|---------------------------------------------------------------------|
|---------------------------------------------------------------------|
|--5-----------5-----------5-----------5-----------5-----------5------|
|----3-6-3-6-3---3-6-3-6-3---3-6-3-6-3---3-6-3-6-3---3-6-3-6-3---3----|
|
|  <
|  W
|-15------------------------------------------------------------------|
|-15------------------------------------------------------------------|
|---------------------------------------------------------------------|
|---------------------------------------------------------------------|
|---------------------------------------------------------------------|
|---------------------------------------------------------------------|


    T  T T T T T T T T T T T T T T T T T T T T T T T T T T T T T T T
|--------------------------------------------------------------------|
|--------------------------------------------------------------------|
|--------------------------------------------------------------------|
|--------------------------------------------------------------------|
|------------5-----------5-----------5-----------5-----------5-------|
|---6--3-6-3---3-6-3-6-3---3-6-3-6-3---3-6-3-6-3---3-6-3-6-3---3-6-3-|
|
|  +W
|-(15)---------------------------------------------------------------|
|-(15)---------------------------------------------------------------|
|--------------------------------------------------------------------|
|--------------------------------------------------------------------|
|--------------------------------------------------------------------|
|--------------------------------------------------------------------|


                                     Bb5/F
    T  T T T T T T T T T T T T T T T  T T T T T T T T   T  T T T T T T T
|---------------------------------------------------------------------------|
|---------------------------------------------------------------------------|
|---------------------------------------------------------------------------|
|---------------------------------------------------------------------------|
|--------5-----------5-----------5------------4--------------4--------------|
|---6--3---3-6-3-6-3---3-6-3-6-3---3--6-3-6-3---1-6-1---6--1---1-6-1-6-1----|
|
|   >                                 <                 >
|  +H                                 Q                +Q
|-(15)-------------------------------18---------------(18)------------------|
|-(15)-------------------------------18---------------(18)------------------|
|---------------------------------------------------------------------------|
|---------------------------------------------------------------------------|
|---------------------------------------------------------------------------|
|---------------------------------------------------------------------------|


  F5/C
   T T T T T T T T T T T T T T T T T T T T T T T T T T T T T T T T
|------------------------------------------------------------------|
|------------------------------------------------------------------|
|------------------------------------------------------------------|
|------------------------------------------------------------------|
|--3-----------3-----------3-----------3-----------3-----------3---|
|----1-4-1-4-1---1-4-1-4-1---1-4-1-4-1---1-4-1-4-1---1-4-1-4-1---1-|
|
|  <
|  W
|-13---------------------------------------------------------------|
|-13---------------------------------------------------------------|
|------------------------------------------------------------------|
|------------------------------------------------------------------|
|------------------------------------------------------------------|
|------------------------------------------------------------------|


    T  T T T T T T T T T T T T T T T T T T T T T T T T T T T T T T T
|-----------------------------------------------------------------------|
|-----------------------------------------------------------------------|
|-----------------------------------------------------------------------|
|-----------------------------------------------------------------------|
|------------3-----------3-----------3-----------3-----------3----------|
|---4--1-4-1---1-4-1-4-1---1-4-1-4-1---1-4-1-4-1---1-4-1-4-1---1-4-1----|
|
|  +W
|-(13)------------------------------------------------------------------|
|-(13)------------------------------------------------------------------|
|-----------------------------------------------------------------------|
|-----------------------------------------------------------------------|
|-----------------------------------------------------------------------|
|-----------------------------------------------------------------------|


                                     Fm
    T  T T T T T T T T T T T T T T T  T T T T T T T T   T  T T T T T T T
|------------------------------------------------------------------------|
|------------------------------------------------------------------------|
|------------------------------------------------------------------------|
|------------------------------------------------------------------------|
|--------3-----------3-----------3------------6--------------6-----------|
|---4--1---1-4-1-4-1---1-4-1-4-1---1--4-1-4-1---4-8-4---8--4---4-8-4-8-4-|
|
|   >                                 <                 >
|  +H                                 Q                +Q
|-(13)-------------------------------16---------------(16)---------------|
|-(13)-------------------------------18---------------(18)---------------|
|------------------------------------------------------------------------|
|------------------------------------------------------------------------|
|------------------------------------------------------------------------|
|------------------------------------------------------------------------|


  Eb
   T T T T T T T T T T T T T T T T T T T T T T T T T T T T T T T T
|---------------------------------------------------------------------|
|---------------------------------------------------------------------|
|---------------------------------------------------------------------|
|---------------------------------------------------------------------|
|--3-6---6---6-3-6---6---6-3-6---6---6-3-6---6---6-3-6---6---6-3-6----|
|------3---3-------3---3-------3---3-------3---3-------3---3----------|
|
|  <
|  W
|-15------------------------------------------------------------------|
|-16------------------------------------------------------------------|
|---------------------------------------------------------------------|
|---------------------------------------------------------------------|
|---------------------------------------------------------------------|
|---------------------------------------------------------------------|


    T  T T T T T T T T T T T T T T T T T T T T T T T T T T T T T T T
|--------------------------------------------------------------------|
|--------------------------------------------------------------------|
|--------------------------------------------------------------------|
|--------------------------------------------------------------------|
|------6---6-3-6---6---6-3-6---6---6-3-6---6---6-3-6---6---6-3-6---6-|
|---3----3-------3---3-------3---3-------3---3-------3---3-------3---|
|
|  +W
|-(15)---------------------------------------------------------------|
|-(16)---------------------------------------------------------------|
|--------------------------------------------------------------------|
|--------------------------------------------------------------------|
|--------------------------------------------------------------------|
|--------------------------------------------------------------------|


                                     Bb5/F
    T  T T T T T T T T T T T T T T T  T T T T T T T T   T  T T T T T T T
|---------------------------------------------------------------------------||
|---------------------------------------------------------------------------||
|---------------------------------------------------------------------------||
|---------------------------------------------------------------------------||
|------6-3-6---6---6-3-6---6---6-3-6----6---6-4--------------4--------------||
|---3--------3---3-------3---3--------3---3-----1-6-1---6--1---1-6-1-6-1----||
|
|   >                                 <                 >
|  +H                                 Q                +Q
|-(15)-------------------------------18---------------(18)------------------||
|-(16)-------------------------------18---------------(18)------------------||
|---------------------------------------------------------------------------||
|---------------------------------------------------------------------------||
|---------------------------------------------------------------------------||
|---------------------------------------------------------------------------||


 Guitar Solo
  F5/C                Eb5/Bb           F5/C                       G#
  Gtr IV
        ~~~                                             ~~~
   E E +H.         E  Q    +E      +Q        E     E    H      E   Q   S S
|---------------|-----8----(8)b9---(8)-------8S===13S|==8------8S==6--------|
|--1S6-(6)------|--6---------------------------------|-----------------9-9--|
|---------------|------------------------------------|----------------------|
|---------------|------------------------------------|----------------------|
|---------------|------------------------------------|----------------------|
|---------------|------------------------------------|----------------------|
|---------------|------------------------------------|----------------------|
|
| Gtr III
|  W              +E  E E.       S  S  S S E   E.      +H     +E   Q.
|---------------|------------------------------------|------------^4--------|
|-^6------------|-(6)-4-4--------4--4--6-6-6---6-----|-(6)----(6)-^4--------|
|-^5------------|-(5)-3-3--------3--3--5-5-5---5-----|-(5)----(5)-^5--------|
|-^3------------|-(3)-1-1--------1--1--3-3-3---3-----|-(3)----(3)-^6--------|
|-^3------------|-(3)-1-1--------1--1--3-3-3---3-----|-(3)----(3)-^6--------|
|---------------|------------------------------------|------------^4--------|


  Gm                     Fm               Gm
             ~~~
   Q  S S E +H        E.    E.     E.      Q..
|------------------|----------------------------------|
|--9--8-8-8-(8)----|--8----/9-----\6------/8----------|
|------------------|----------------------------------|
|------------------|----------------------------------|
|------------------|----------------------------------|
|------------------|----------------------------------|
|------------------|----------------------------------|
|
|  W                 +E  E     E.     S S  S   S E E.
|-^3---------------|-(3)-1-----1------1-1--3---3-3-3--|
|-^3---------------|-(3)-1-----1------1-1--3---3-3-3--|
|-^3---------------|-(3)-1-----1------1-1--3---3-3-3--|
|-^5---------------|-(5)-3-----3------3-3--5---5-5-5--|
|-^5---------------|-(5)-3-----3------3-3--5---5-5-5--|
|-^3---------------|-(3)-1-----1------1-1--3---3-3-3--|


                Bbm
   E   Q.    E    E   E   E
|---------------------------|
|--8S=15----16--/18--18-/20-|
|---------------------------|
|---------------------------|
|---------------------------|
|---------------------------|
|---------------------------|
|
| +H        +E    Q.
|-(3)-------(3)-^-1---------|
|-(3)-------(3)-^-2---------|
|-(3)-------(3)-^-3---------|
|-(5)-------(5)-^-3---------|
|-(5)-------(5)-^-1---------|
|-(3)-------(3)-------------|


  F5/C                                Eb5/Bb         F5/C
   +E   Q   Q   +E   E  E       Q        E.      Q        E  E   +S
|----------------------------|---------------------------------------|
|-(20)-20--20--(20)-20-20b21-|-20pb21---20pb21-\20-------18----------|
|----------------------------|------------------------------17--(17)S|
|----------------------------|---------------------------------------|
|----------------------------|---------------------------------------|
|----------------------------|---------------------------------------|
|----------------------------|---------------------------------------|
|
|   W                          +E     E  E.      S S S S  E  E.
|----------------------------|---------------------------------------|
|-^-6------------------------|-(6)----4--4-------4-4-6-6--6--6-------|
|-^-5------------------------|-(5)----3--3-------3-3-5-5--5--5-------|
|-^-3------------------------|-(3)----1--1-------1-1-3-3--3--3-------|
|-^-3------------------------|-(3)----1--1-------1-1-3-3--3--3-------|
|----------------------------|---------------------------------------|


                      G#
   E   Q   +E.      S  E   S  E  S
|----------------------------------|
|----------------------------------|
|-20S=17--(17)-----15-15--13-13-13-|
|----------------------------------|
|----------------------------------|
|----------------------------------|
|----------------------------------|
|
| +H           +E      Q.
|---------------------^4-----------|
|-(6)----------(6)----^4-----------|
|-(5)----------(5)----^5-----------|
|-(3)----------(3)----^6-----------|
|-(3)----------(3)----^6-----------|
|---------------------^4-----------|


  Cm                    Fsus4/Bb       Cm
  Gtr IV
       ~~~
   Q   H.         S   S  Q     S  S  S  +E.         S  E.
|--------------|------------------------------------------|
|--------------|--------20----20-20-20-(20)b21-----20-20--|
|-13S=17-------|-17s=18-----------------------------------|
|--------------|------------------------------------------|
|--------------|------------------------------------------|
|--------------|------------------------------------------|
|--------------|------------------------------------------|
|
|  W              W
|--------------|------------------------------------------|
|--------------|------------------------------------------|
|--------------|------------------------------------------|
|--------------|------------------------------------------|
|--------------|------------------------------------------|
|--------------|------------------------------------------|
|
| Gtr III
|  W             +E      E E.     S  S   S     S E     E.
|-^3-----------|-(3)-----1-1------1--1---3-----3-3-----3--|
|-^4-----------|-(4)-----1-1------1--1---4-----4-4-----4--|
|-^5-----------|-(5)-----3-3------3--3---5-----5-5-----5--|
|-^5-----------|-(5)-----3-3------3--3---5-----5-5-----5--|
|-^3-----------|-(3)-----1-1------1--1---3-----3-3-----3--|
|--------------|------------------------------------------|


              Bbm
    ~~~~
   +H      E   E.    E.
|-------------------18-------------||
|-(20)----20S=21-------------------||
|----------------------------------||
|----------------------------------||
|----------------------------------||
|----------------------------------||
|----------------------------------||
|
|             Gtr II
|   H.            S  T  T T T T T
|----------------------------------||
|----------------------------------||
|---------------------------5-6-8--||
|--------------------5--6-8--------||
|----------------------------------||
|----------------------------------||
|
|  +H     +E   Q.
|--(3)----(3)-^1-------------------||
|--(4)----(4)-^2-------------------||
|--(5)----(5)-^3-------------------||
|--(5)----(5)-^3-------------------||
|--(3)----(3)-^1-------------------||
|----------------------------------||


 Synth Solo
  Fsus4                                   Bb5                 F5
  Gtr II
    ~~~~~
    Q      S S a  Q   S  S   E  E    E      E  E  E     E   S  E  +E.
|--------------8s11---------------|-----------------------------------|
|---6------8-9-------13-11-\11-13-|-----------------------------------|
|---------------------------------|-13----\13-12-10---/12--13-10-(10)S|
|---------------------------------|-----------------------------------|
|---------------------------------|-----------------------------------|
|---------------------------------|-----------------------------------|
|
| Gtr IV
|  +E   H.                      E   +S  S   e  e  S S   E.     E   E.
|-(18)S20-------------------------|-----------------------------------|
|---------------------------------|-----------------------------------|
|---------------------------------|---------3--3--------3-------------|
|---3-----------------------------|-(3)-----3--3--------3------3---3--|
|---3-----------------------------|-(3)-x---1--1--x-x---1------3---3--|
|---1-----------------------------|-(1)------------------------1---1--|
|---------------------------------|-----------------------------------|
    W


                          G#5
              ~~~~
   S    S S   Q.        E     E  E  T  T
|-11--/13s1-/13-------/16----15-13-15-13--|
|-----------------------------------------|
|-----------------------------------------|
|-----------------------------------------|
|-----------------------------------------|
|-----------------------------------------|
|
| +H              +S    S Q.
|-----------------------------------------|
|-----------------------------------------|
|-----------------------------------------|
|-(3)-------------(3)-----6---------------|
|-(3)-------------(3)-----6---------------|
|-(1)-------------(1)---1S4---------------|
|-----------------------------------------|


  G5
   H     +S.   T  T  T  Q   +S
|----------------------13--(13)-|
|-------------------------------|
|-12----(12)\-12-14-15----------|
|-------------------------------|
|-------------------------------|
|-------------------------------|
|
|  W
|-------------------------------|
|-------------------------------|
|-------------------------------|
|--5----------------------------|
|--5----------------------------|
|--3----------------------------|
|-------------------------------|


         C5                   G5                          Bb5
                                              ~~~~~
   S   S   E  E  E     E    E     E     E    +H.              Q
|-----------------------------------------|-------------------------|
|-16--15-/15--------------/15---/16----15-|-(15)s============14\----|
|------------17-15---/17------------------|-------------------------|
|-----------------------------------------|-------------------------|
|-----------------------------------------|-------------------------|
|-----------------------------------------|-------------------------|
|
| +S   S   e  e  S S   E.     E     E.       +H     +S  S E.     E.
|-----------------------------------------|-------------------------|
|-----------------------------------------|-------------------------|
|----------5--5--------5------------------|-------------------------|
|-(5)------5--5--------5------5-----5-----|--(5)----(5)---8------8--|
|-(5)--x---3--3--x-x---3------5-----5-----|--(5)----(5)---8------8--|
|-(3)-------------------------3-----3-----|--(3)----(3)-3S6------6--|
|-----------------------------------------|-------------------------|


  F5
   T  T  T  T  T  T  E   E.  E  E  a  a  E  E
|-------------------13-/13--15-16-15h16p15-13-|
|----------------13---------------------------|
|----------10S13------------------------------|
|-------10------------------------------------|
|----11---------------------------------------|
|-13------------------------------------------|
|
|  W
|---------------------------------------------|
|---------------------------------------------|
|---------------------------------------------|
|--3------------------------------------------|
|--3------------------------------------------|
|--1------------------------------------------|
|---------------------------------------------|


        Bb5               F5                                        G#5
                                           T      T
   E      E  E  E    a  H             +E   a  E.  a  E.  a  E     a  Q   E
|-------/13------------------------|----------------------------------------|
|-16--------13---------------------|----------------------------------------|
|--------------15---15-17----------|-(17)-20-17--20-17--20-17----20-17s=16\-|
|----------------------------------|----------------------------------------|
|----------------------------------|----------------------------------------|
|----------------------------------|----------------------------------------|
|
| +S  S   e  e  S S     S S S E E.    +H                   +S  S     Q.
|----------------------------------|----------------------------------------|
|----------------------------------|----------------------------------------|
|---------3--3----------3----------|----------------------------------------|
|-(3)-----3--3----------3---3-3-3--|--(3)------------------(3)-------6------|
|-(3)-x---1--1--x-x-----1-3-3-3-3--|--(3)------------------(3)-------6------|
|-(1)---------------------1-1-1-1--|--(1)------------------(1)-1S====4------|
|----------------------------------|----------------------------------------|


  C5
    T   T  T T  T T     E.   T   T  T T   T  T     E.   T   T  T T   T  T     S
|-----------------------8-------------------------10-------------------------11-|
|-----------------8--------------------------8--------------------------8-------|
|------------8h10---------------------8h(10)---------------------8h(10)---------|
|---------10-----------------------10-------------------------10----------------|
|------10-----------------------10-------------------------10-------------------|
|-\11----------------------\11------------------------\11-----------------------|
|
|                       ~~~                        ~~~                        ~~
|   W
|-------------------------------------------------------------------------------|
|-------------------14S16----------------------16S18----------------------18S20-|
|---5---------------------------------------------------------------------------|
|---5---------------------------------------------------------------------------|
|---3---------------------------------------------------------------------------|
|-------------------------------------------------------------------------------|
|-------------------------------------------------------------------------------|
    E.               a  E.   E.                 a  E.   E.                 a  S


           Bb5                     C5
   +E    E    E    S  S       E.       +E      +E.      +E.  a  Q..     E       T  T  S  S  S
|-(11)-/11---10----8---------/8-------/(8)----/(8)---|--(8)h11p=8-----------------------------|
|--------------------11------------------------------|----------------------------------------|
|----------------------------------------------------|----------------/15------13-12----------|
|----------------------------------------------------|-------------------------------15-13-15-|
|----------------------------------------------------|----------------------------------------|
|----------------------------------------------------|----------------------------------------|
|
|  +E    E    E    S  S   a   E.       +E      +E.      +E.  a  H          +E         S  S  S
|------/18---17---15-13-(13)S15------/(15)---/(15)---|-(15)-18p15---------(15)----------------|
|-(20)-----------------------------------------------|-------------------------------15-------|
|--(5)-----3----3----------------3------5--5-------5-|--(5)-----------------------------17-15-|
|--(5)-----3----3----------------3-5----5--5-------5-|--(5)-----------------------------------|
|--(3)---x-1----1-----x-------x--1-3----3--3-------3-|--(3)-----------------------------------|
|----------------------------------------------------|----------------------------------------|
|----------------------------------------------------|----------------------------------------|
   +E    S e    E     S       S  S S    S  E       E    +W


  Bb5
  Gtr II
    S  S  S  S  S  S  S  S  S  S  S  S  S  S  S  S
|-----------------------------------------------15-|
|-----------------------------16----16-18----18----|
|-\15----15-17----17-19----19----------------------|
|-----15-------15-------15-------15-------15-------|
|--------------------------------------------------|
|--------------------------------------------------|
|
| Gtr V
|   S  S  S  S  S  S  S  S  S  S  S  S  S  S  S  S
|-----------------------------------------------15-|
|-----------------------------16----16-18----18----|
|-\15----15-17----17-19----19----------------------|
|-----15-------15-------15-------15-------15-------|
|--------------------------------------------------|
|--------------------------------------------------|
|
| Gtr IV
|   W
|--------------------------------------------------|
|--------------------------------------------------|
|---3----------------------------------------------|
|---3----------------------------------------------|
|---1----------------------------------------------|
|--------------------------------------------------|
|--------------------------------------------------|


                           A5
   S   S  S  S  S  S  S  S  T  T  T  T  T  T  T  T  T  T  T  T  T  T  T  T
|-----15-16----16-18----18-17-18-17-16-15----------15-----------------------|
|-----------------------------------------19-18-19----19-18-17-16-----------|
|-----------------------------------------------------------------19-18-19--|
|-15--------15-------15-----------------------------------------------------|
|---------------------------------------------------------------------------|
|---------------------------------------------------------------------------|
|
|  S   S  S  S  S  S  S  S  T  T  T  T  T  T  T  T  T  T  T  T  T  T  T  T
|-----15-16----16-18----18-17-18-17-16-15----------15-----------------------|
|-----------------------------------------19-18-19----19-18-17-16-----------|
|-----------------------------------------------------------------19-18-19--|
|-15--------15-------15-----------------------------------------------------|
|---------------------------------------------------------------------------|
|---------------------------------------------------------------------------|
|
| +H                        S     S     S     S     S     S     S     S
|---------------------------------------------------------------------------|
|---------------------------------------------------------------------------|
|-(3)-----------------------2-----------------2-----------------2-----------|
|-(3)-----------------------2-----------------2-----------------2-----------|
|-(1)-----------------------0-----0-----0-----0-----0-----0-----0-----0-----|
|---------------------------------------------------------------------------|
|---------------------------------------------------------------------------|


   T  T  T  T  T  T  T  T  T  T  T  T  T  T  T  T  T  T  T  T  T  T  T  T  T  T   T  T  T  T   T  T
|---------------------------------------------------------------------------------------------------||
|-16-17-16---------------------------------------------------------------------------------------14-||
|----------19-18-17-16-15-16-17-16-15-------------------------------------------/14----------/14----||
|-------------------------------------19-18-19-18-17-16-15-14-13-------------14-----14----14--------||
|----------------------------------------------------------------17-16----16-----------16-----------||
|----------------------------------------------------------------------17---------------------------||
|
|  T  T  T  T  T  T  T  T  T  T  T  T  T  T  T  T  T  T  T  T  T  T  T  T  T  T   T  T  T  T   T  T
|---------------------------------------------------------------------------------------------------||
|-16-17-16---------------------------------------------------------------------------------------14-||
|----------19-18-17-16-15-16-17-16-15-------------------------------------------/14----------/14----||
|-------------------------------------19-18-19-18-17-16-15-14-13-------------14-----14----14--------||
|----------------------------------------------------------------17-16----16-----------16-----------||
|----------------------------------------------------------------------17---------------------------||
|
|  S     S     S     S     S     S     S     S     S     S     S     S     S      S     S      S
|---------------------------------------------------------------------------------------------------||
|---------------------------------------------------------------------------------------------------||
|--------2-----------------2-----------------2-----------------2------------------2-----------------||
|--------2-----------------2-----------------2-----------------2------------------2-----------------||
|--0-----0-----0-----0-----0-----0-----0-----0-----0-----0-----0-----0-----0------0-----0------0----||
|---------------------------------------------------------------------------------------------------||
|---------------------------------------------------------------------------------------------------||


 Chorus
  B5
   H          H
|-17b19------------|
|------------------|
|------------------|
|------------------|
|------------------|
|------------------|
|
|  W
|-17b19------------|
|------------------|
|------------------|
|------------------|
|------------------|
|------------------|
|
|  PM---|
|  E    E H.
|------------------|
|------------------|
|------------------|
|------------------|
|------------------|
|--2----2----------|
|--0----0----------|


             B5
  Gtr V
  W          W               W
|----------|---------------|---------------|
|----------|---------------|---------------|
|----------|---------------|---------------|
|----------|---------------|---------------|
|----------|---------------|---------------|
|----------|---------------|---------------|
|
| Gtr IV
|            PM|               PM|
| W          E E H    E. S   S S E H.
|----------|---------------|---------------|
|----------|---------------|---------------|
|----------|---------------|---------------|
|----------|---------------|---------------|
|----------|---------------|-2-------------|
|----------|-2-2-----------|---------------|
|----------|-0-0---------0-|---0-0---------|


  B5                    Bbm  D5/A
    ~~~
    H                    Q    Q
|-/14---------------------------------|
|--15-------------------14---15-------|
|--16-------------------15---14-------|
|-------------------------------------|
|-------------------------------------|
|-------------------------------------|
|   W
|
|   PM--------|   PM  PM|     PM  PM
|   |----3----|   |-3-|       |-3-|
|   S S S S S S E S S S  E E  S S S E
|-------------------------------------|
|-------------------------------------|
|-------------------------------------|
|-------------------------------------|
|---------------2--------1-1--------0-|
|-------------------------------------|
|---0-0-0-0-0-0---0-0-0-------0-0-0---|


  B5                         Bbm
    ~~~~
    H                         Q.      +E
|-(14)-------------------------------------|
|--15------------------------14------(14)\-|
|--16------------------------15------(15)\-|
|------------------------------------------|
|------------------------------------------|
|------------------------------------------|
|   W
|
|   PM---------|   PM--------|
|   |----3-----| |----3----|
|   S  S S S S S S S S S S S  E  E Q
|------------------------------------------|
|------------------------------------------|
|------------------------------------------|
|------------------------------------------|
|----------------2------------1--1---------|
|------------------------------------------|
|---0--0-0-0-0-0---0-0-0-0-0---------------|


  B5                    Bbm    D5/A
    ~~~
    H                    +H
|-/14-------------------(14)------------|
|------------------------14----15-------|
|-/16--------------------15----14-------|
|---------------------------------------|
|---------------------------------------|
|---------------------------------------|
|   H                     Q     Q
|
|   PM--------|   PM  PM|       PM  PM
|   |----3----|   |-3-|         |-3-|
|   S S S S S S E S S S   E  E  S S S E
|---------------------------------------|
|---------------------------------------|
|---------------------------------------|
|---------------------------------------|
|---------------2---------1--1--------0-|
|---------------------------------------|
|---0-0-0-0-0-0---0-0-0---------0-0-0---|


  Bm                         Bbm
 3/4
    ~~~~
    H.
|-(14)----------------------------|
|--15------------------------14---|
|--16------------------------15---|
|---------------------------------|
|---------------------------------|
|---------------------------------|
|   H                         Q
|
|   PM---------|   PM--------|
|   |----3-----| |----3----|
|   S  S S S S S S S S S S S  E E
|---------------------------------|
|---------------------------------|
|---------------------------------|
|---------------------------------|
|---------------------------------|
|----------------3------------2-2-|
|---0--0-0-0-0-0---0-0-0-0-0------|


  Em          Ebm  G5/D     Em           Ebm
 4/4
    ~~~                      ~~
    H          Q    Q        H            H
|--15---------14---15-----|-15-----------14------(14)\----|
|-------------------------|-------------------------------|
|-/16---------15---16-----|-16----------------------------|
|-/14---------13----------|-14-----------13------(13)\----|
|------------------17-----|-------------------------------|
|-------------------------|-------------------------------|
|   H          Q    Q        H            Q.      +E
|
|   PM|   PM--|     PM|      PM|     PM--|     PM------|
|   E E E S S  E E  S S E    S S E E S S  E  E e   S   S
|-------------------------|-------------------------------|
|-------------------------|-------------------------------|
|-------------------------|-------------------------------|
|-------2------1-1------0-|--------2------1--1------------|
|---2-2-------------------|--2-2-2------------------------|
|---0-0---0-0-------0-0---|--0-0-0---0-0-------0---0---0--|
|-------------------------|-------------------------------|


  Em          Ebm  G5/D     A/C#         C
    ~~~
    H          Q    Q        H            H
|--15---------14---15-----|-17-----------20---------|
|-------------------------|-14----------------------|
|-/16---------15---16-----|--------------17---------|
|-/14---------13----------|-------------------------|
|------------------17-----|-------------------------|
|-------------------------|-------------------------|
|   H          Q    Q        H            H
|
|   PM|   PM--|     PM|      PM|     PM--|    PM-----
|   E E E S S  E E  S S E    S S E E S S  E E e s s
|-------------------------|-------------------------|
|-------------------------|-------------------------|
|-------------------------|-------------------------|
|-------2------1-1------0-|-------------------------|
|---2-2-------------------|--------4------3-3-------|
|---0-0---0-0-------0-0---|--0-0-0---0-0------0-0-0-|
|-------------------------|-------------------------|


  Em                   Ebm  G5/D
   ~~
   H                    Q    Q
|-15-------------------14---15-------|
|------------------------------------|
|-16-------------------15---16-------|
|-14-------------------13------------|
|---------------------------17-------|
|------------------------------------|
|  H                    Q    Q
|
|------------|   PM  PM|     PM  PM
|  |----3----|   |-3-|       |-3-|
|  S S S S S S E S S S  E E  S S S E
|------------------------------------|
|------------------------------------|
|------------------------------------|
|--------------2--------1-1--------0-|
|------------------------------------|
|--0-0-0-0-0-0---0-0-0-------0-0-0---|
|------------------------------------|


  Em                       Ebm
   ~~
   H                        Q.      +E
|-15-----------------------14------(14)\-|
|----------------------------------------|
|-16-------------------------------------|
|-14-----------------------13------(13)\-|
|----------------------------------------|
|----------------------------------------|
|
|  PM--------|   PM--------|
|  |----3----| |----3----|
|  S S S S S S S S S S S S  E  E Q
|----------------------------------------|
|----------------------------------------|
|----------------------------------------|
|--------------2------------1--1---------|
|----------------------------------------|
|--0-0-0-0-0-0---0-0-0-0-0---------------|
|----------------------------------------|


  Em                    Ebm  G5/D       C                        B
                                       3/4
    ~~~
    H                    Q    Q          H                        Q
|--15-------------------14---15-------|-20-----------------------19----*|
|-------------------------------------|--------------------------------*|
|-/16-------------------15---16-------|-17-----------------------16----*|
|-/14-------------------13------------|--------------------------------*|
|----------------------------17-------|--------------------------------*|
|-------------------------------------|--------------------------------*|
|   H                    Q    Q
|
|   PM--------|   PM  PM|     PM  PM     PM--------|   PM--------|
|   |----3----|   |-3-|       |-3-|      |----3----| |----3----|
|   S S S S S S E S S S  E E  S S S E    S S S S S S S S S S S S  E E
|-------------------------------------|--------------------------------*|
|-------------------------------------|--------------------------------*|
|-------------------------------------|--------------------------------*|
|---------------2--------1-1--------0-|--------------------------------*|
|-------------------------------------|--------------3------------2-2--*|
|---0-0-0-0-0-0---0-0-0-------0-0-0---|--0-0-0-0-0-0---0-0-0-0-0-------*|
|-------------------------------------|--------------------------------*|


Duration Legend
---------------
W - whole; H - half; Q - quarter; E - 8th; S - 16th; T - 32nd; X - 64th; a - acciaccatura
+ - note tied to previous; . - note dotted; .. - note double dotted
Uncapitalized letters represent notes that are staccato (1/2 duration)
Irregular groupings are notated above the duration line
Duration letters will always appear directly above the note/fret number it represents the
duration for.  Duration letters with no fret number below them represent rests.  Multi-
bar rests are notated in the form Wxn, where n is the number of bars to rest for.  Low
melody durations appear below the staff

Tablature Legend
----------------
 h   - hammer-on
 p   - pull-off
 b   - bend
 pb  - pre-bend
 r   - bend release (if no number after the r, then release immediately)
 /\  - slide into or out of (from/to "nowhere")
 s   - legato slide
 S   - shift slide
  - natural harmonic
[n]  - artificial harmonic
n(n) - tapped harmonic
 ~   - vibrato
 tr  - trill
 T   - tap
 TP  - trem. picking
 PM  - palm muting
\n/  - tremolo bar dip; n = amount to dip
 \n  - tremolo bar down
 n/  - tremolo bar up
/n\  - tremolo bar inverted dip
 =   - hold bend; also acts as connecting device for hammers/pulls
 <>  - volume swell (louder/softer)
 x   - on rhythm slash represents muted slash
 o   - on rhythm slash represents single note slash

Misc Legend
-----------
 |  - bar
||  - double bar
||o - repeat start
o|| - repeat end
*|  - double bar (ending)
 :  - bar (freetime)
 $  - Segno
 &  - Coda
comments
We did not receive enough feedback on this tab! Please rate:
print report bad tab
1 2 3 4 5
I want to post or [tab]
guest
You may want to rate the tab now too:
select rating
Please do not post tabs as comments. Select "correction" instead!