Oops, an error
Loading. Please wait.

American Jesus Tab

ver7
ver7
More versions @911Tabs.com
1,122 views 6 this week
no commentswrite comment
1 2 3 4 5
excellent!
x 1
Autoscroll
+/-
esc
set tempo
stop
Contributor
NEW! There's an official Ultimate Guitar app which is ideal
for learning songs when you're away from computer. Get the app
WARNING: You are trying to view
                                    content from Ultimate-Guitar.com
                                    in an unauthorized application,
                                    which is prohibited.

                                    Please use an official Ultimate
                                    Guitar Tabs application for iPhone,
                                    iPad or Android to access legitimate
                                    chords, guitar, bass, and drum tabs
                                    from Ultimate-Guitar.com database.

                                    Type "ultimate guitar tabs" in Apple
                                    App Store's or Android Market's
                                    search to find the application.
Lead Guitar
                                                                              
E||------------------------|------------------------|------------------------|
B||------------------------|------------------------|------------------------|
G||------------------------|------------------------|------------------------|
D||------------------------|--0---------------------|------------------------|
A||--0----0--2--3----2--3--|-------3--2--3--2--0----|--0----0--2--3----2--3--|
E||------------------------|------------------------|------------------------|


                                                                           
------------------------|------------------------|------------------------|
------------------------|------------------------|------------------------|
------------------------|------------------------|------------------------|
--0---------------------|------------------------|--0---------------------|
-------3--2--3--2--0----|--0----0--2--3----2--3--|-------3--2--3--2--0----|
------------------------|------------------------|------------------------|


                                                                           
------------------------|------------------------|------------------------|
------------------------|------------------------|------------------------|
------------------------|------------------------|------------------------|
------------------------|--0---------------------|------------------------|
--0----0--2--3----2--3--|-------3--2--3--2--0----|--0----0--2--3----2--3--|
------------------------|------------------------|------------------------|


                                                                     
------------------------|-----------------------|-------------------|
------------------------|-----------------------|-------------------|
------------------------|-----------------------|-------------------|
--0---------------------|-----------------------|--3----------------|
-------3--2--3--2--0----|--0----0--2--3----2----|-------------------|
------------------------|-----------------------|-------------------|


                                                           
-------------------|-------------------|------------------|
-------------------|-------------------|------------------|
-------------------|-------------------|------------------|
--3----------------|--5b---------------|------------------|
-------------------|-------------------|------------------|
-------------------|-------------------|------------------|


                                                              
--------------------------|----------------------------------|
--------------------------|----------------------------------|
--------------------------|----------------------------------|
--7--7--7--7--7--7--7--7--|--10--10--10--10--10--10--10--10--|
--7--7--7--7--7--7--7--7--|--10--10--10--10--10--10--10--10--|
--5--5--5--5--5--5--5--5--|--8---8---8---8---8---8---8---8---|


                                                      
--------------------------|--------------------------|
--------------------------|--------------------------|
--------------------------|--------------------------|
--3--3--3--3--3--3--3--3--|--5--5--5--5--5--5--5--5--|
--3--3--3--3--3--3--3--3--|--5--5--5--5--5--5--5--5--|
--1--1--1--1--1--1--1--1--|--3--3--3--3--3--3--3--3--|


                                                              
--------------------------|----------------------------------|
--------------------------|----------------------------------|
--------------------------|----------------------------------|
--7--7--7--7--7--7--7--7--|--10--10--10--10--10--10--10--10--|
--7--7--7--7--7--7--7--7--|--10--10--10--10--10--10--10--10--|
--5--5--5--5--5--5--5--5--|--8---8---8---8---8---8---8---8---|


                                                      
--------------------------|--------------------------|
--------------------------|--------------------------|
--------------------------|--------------------------|
--3--3--3--3--3--3--3--3--|--5--5--5--5--5--5--5--5--|
--3--3--3--3--3--3--3--3--|--5--5--5--5--5--5--5--5--|
--1--1--1--1--1--1--1--1--|--3--3--3--3--3--3--3--3--|


                                                              
--------------------------|----------------------------------|
--------------------------|----------------------------------|
--------------------------|----------------------------------|
--7--7--7--7--7--7--7--7--|--10--10--10--10--10--10--10--10--|
--7--7--7--7--7--7--7--7--|--10--10--10--10--10--10--10--10--|
--5--5--5--5--5--5--5--5--|--8---8---8---8---8---8---8---8---|


                                                      
--------------------------|--------------------------|
--------------------------|--------------------------|
--------------------------|--------------------------|
--3--3--3--3--3--3--3--3--|--5--5--5--5--5--5--5--5--|
--3--3--3--3--3--3--3--3--|--5--5--5--5--5--5--5--5--|
--1--1--1--1--1--1--1--1--|--3--3--3--3--3--3--3--3--|


                                                              
--------------------------|----------------------------------|
--------------------------|----------------------------------|
--------------------------|----------------------------------|
--7--7--7--7--7--7--7--7--|--10--10--10--10--10--10--10--10--|
--7--7--7--7--7--7--7--7--|--10--10--10--10--10--10--10--10--|
--5--5--5--5--5--5--5--5--|--8---8---8---8---8---8---8---8---|


                                                      
--------------------------|--------------------------|
--------------------------|--------------------------|
--------------------------|--------------------------|
--3--3--3--3--3--3--3--3--|--2--2--2--2--2--2--2--2--|
--3--3--3--3--3--3--3--3--|--2--2--2--2--2--2--2--2--|
--1--1--1--1--1--1--1--1--|--0--0--0--0--0--0--0--0--|


                                                          
--------------------------|------------------------------|
--------------------------|------------------------------|
--------------------------|------------------------------|
--2--2--2--2--2--2--2--2--|--7--7--7--7--10--10--10--10--|
--2--2--2--2--2--2--2--2--|--7--7--7--7--10--10--10--10--|
--0--0--0--0--0--0--0--0--|--5--5--5--5--8---8---8---8---|


                                                          
--------------------------|------------------------------|
--------------------------|------------------------------|
--------------------------|------------------------------|
--3--3--3--3--5--5--5--5--|--7--7--7--7--10--10--10--10--|
--3--3--3--3--5--5--5--5--|--7--7--7--7--10--10--10--10--|
--1--1--1--1--3--3--3--3--|--5--5--5--5--8---8---8---8---|


                                                          
--------------------------|------------------------------|
--------------------------|------------------------------|
--------------------------|------------------------------|
--3--3--3--3--5--5--5--5--|--7--7--7--7--10--10--10--10--|
--3--3--3--3--5--5--5--5--|--7--7--7--7--10--10--10--10--|
--1--1--1--1--3--3--3--3--|--5--5--5--5--8---8---8---8---|


                                                              
----------------------------------|--------------------------|
----------------------------------|--------------------------|
--10--10--10--10--12--12--12--12--|--------------------------|
--10--10--10--10--12--12--12--12--|--7--7--7--7--7--7--7--7--|
--8---8---8---8---10--10--10--10--|--7--7--7--7--7--7--7--7--|
----------------------------------|--5--5--5--5--5--5--5--5--|


                                                      
--------------------------|--------------------------|
--------------------------|--------------------------|
--------------------------|--------------------------|
--5--5--5--5--5--5--5--5--|--3--3--3--3--3--3--3--3--|
--5--5--5--5--5--5--5--5--|--3--3--3--3--3--3--3--3--|
--3--3--3--3--3--3--3--3--|--1--1--1--1--1--1--1--1--|


                                                                             
--------------------------|------------------------|------------------------|
--------------------------|------------------------|------------------------|
--------------------------|------------------------|------------------------|
--3--3--3--3--3--3--3--3--|------------------------|--0---------------------|
--3--3--3--3--3--3--3--3--|--0----0--2--3----2--3--|-------3--2--3--2--0----|
--1--1--1--1--1--1--1--1--|------------------------|------------------------|


                                                                           
------------------------|------------------------|------------------------|
------------------------|------------------------|------------------------|
------------------------|------------------------|------------------------|
------------------------|--0---------------------|------------------------|
--0----0--2--3----2--3--|-------3--2--3--2--0----|--0----0--2--3----2--3--|
------------------------|------------------------|------------------------|


                                                                           
------------------------|------------------------|------------------------|
------------------------|------------------------|------------------------|
------------------------|------------------------|------------------------|
--0---------------------|------------------------|--0---------------------|
-------3--2--3--2--0----|--0----0--2--3----2--3--|-------3--2--3--2--0----|
------------------------|------------------------|------------------------|


                                                              
--------------------------|----------------------------------|
--------------------------|----------------------------------|
--------------------------|----------------------------------|
--7--7--7--7--7--7--7--7--|--10--10--10--10--10--10--10--10--|
--7--7--7--7--7--7--7--7--|--10--10--10--10--10--10--10--10--|
--5--5--5--5--5--5--5--5--|--8---8---8---8---8---8---8---8---|


                                                      
--------------------------|--------------------------|
--------------------------|--------------------------|
--------------------------|--------------------------|
--3--3--3--3--3--3--3--3--|--5--5--5--5--5--5--5--5--|
--3--3--3--3--3--3--3--3--|--5--5--5--5--5--5--5--5--|
--1--1--1--1--1--1--1--1--|--3--3--3--3--3--3--3--3--|


                                                              
--------------------------|----------------------------------|
--------------------------|----------------------------------|
--------------------------|----------------------------------|
--7--7--7--7--7--7--7--7--|--10--10--10--10--10--10--10--10--|
--7--7--7--7--7--7--7--7--|--10--10--10--10--10--10--10--10--|
--5--5--5--5--5--5--5--5--|--8---8---8---8---8---8---8---8---|


                                                      
--------------------------|--------------------------|
--------------------------|--------------------------|
--------------------------|--------------------------|
--3--3--3--3--3--3--3--3--|--5--5--5--5--5--5--5--5--|
--3--3--3--3--3--3--3--3--|--5--5--5--5--5--5--5--5--|
--1--1--1--1--1--1--1--1--|--3--3--3--3--3--3--3--3--|


                                                              
--------------------------|----------------------------------|
--------------------------|----------------------------------|
--------------------------|----------------------------------|
--7--7--7--7--7--7--7--7--|--10--10--10--10--10--10--10--10--|
--7--7--7--7--7--7--7--7--|--10--10--10--10--10--10--10--10--|
--5--5--5--5--5--5--5--5--|--8---8---8---8---8---8---8---8---|


                                                      
--------------------------|--------------------------|
--------------------------|--------------------------|
--------------------------|--------------------------|
--3--3--3--3--3--3--3--3--|--5--5--5--5--5--5--5--5--|
--3--3--3--3--3--3--3--3--|--5--5--5--5--5--5--5--5--|
--1--1--1--1--1--1--1--1--|--3--3--3--3--3--3--3--3--|


                                                              
--------------------------|----------------------------------|
--------------------------|----------------------------------|
--------------------------|----------------------------------|
--7--7--7--7--7--7--7--7--|--10--10--10--10--10--10--10--10--|
--7--7--7--7--7--7--7--7--|--10--10--10--10--10--10--10--10--|
--5--5--5--5--5--5--5--5--|--8---8---8---8---8---8---8---8---|


                                                      
--------------------------|--------------------------|
--------------------------|--------------------------|
--------------------------|--------------------------|
--3--3--3--3--3--3--3--3--|--2--2--2--2--2--2--2--2--|
--3--3--3--3--3--3--3--3--|--2--2--2--2--2--2--2--2--|
--1--1--1--1--1--1--1--1--|--0--0--0--0--0--0--0--0--|


                                                          
--------------------------|------------------------------|
--------------------------|------------------------------|
--------------------------|------------------------------|
--2--2--2--2--2--2--2--2--|--7--7--7--7--10--10--10--10--|
--2--2--2--2--2--2--2--2--|--7--7--7--7--10--10--10--10--|
--0--0--0--0--0--0--0--0--|--5--5--5--5--8---8---8---8---|


                                                          
--------------------------|------------------------------|
--------------------------|------------------------------|
--------------------------|------------------------------|
--3--3--3--3--5--5--5--5--|--7--7--7--7--10--10--10--10--|
--3--3--3--3--5--5--5--5--|--7--7--7--7--10--10--10--10--|
--1--1--1--1--3--3--3--3--|--5--5--5--5--8---8---8---8---|


                                                          
--------------------------|------------------------------|
--------------------------|------------------------------|
--------------------------|------------------------------|
--3--3--3--3--5--5--5--5--|--7--7--7--7--10--10--10--10--|
--3--3--3--3--5--5--5--5--|--7--7--7--7--10--10--10--10--|
--1--1--1--1--3--3--3--3--|--5--5--5--5--8---8---8---8---|


                                                              
----------------------------------|--------------------------|
----------------------------------|--------------------------|
--10--10--10--10--12--12--12--12--|--------------------------|
--10--10--10--10--12--12--12--12--|--7--7--7--7--7--7--7--7--|
--8---8---8---8---10--10--10--10--|--7--7--7--7--7--7--7--7--|
----------------------------------|--5--5--5--5--5--5--5--5--|


                                                      
--------------------------|--------------------------|
--------------------------|--------------------------|
--------------------------|--------------------------|
--5--5--5--5--5--5--5--5--|--3--3--3--3--3--3--3--3--|
--5--5--5--5--5--5--5--5--|--3--3--3--3--3--3--3--3--|
--3--3--3--3--3--3--3--3--|--1--1--1--1--1--1--1--1--|


                                                      
--------------------------|--------------------------|
--------------------------|--------------------------|
--------------------------|--------------------------|
--3--3--3--3--3--3--3--3--|--2--2--2--2--2--2--2--2--|
--3--3--3--3--3--3--3--3--|--2--2--2--2--2--2--2--2--|
--1--1--1--1--1--1--1--1--|--0--0--0--0--0--0--0--0--|


                                                      
--------------------------|--------------------------|
--------------------------|--------------------------|
--------------------------|--------------------------|
--2--2--2--2--2--2--2--2--|--7--7--7--7--7--7--7--7--|
--2--2--2--2--2--2--2--2--|--7--7--7--7--7--7--7--7--|
--0--0--0--0--0--0--0--0--|--5--5--5--5--5--5--5--5--|


                                                              
----------------------------------|--------------------------|
----------------------------------|--------------------------|
----------------------------------|--------------------------|
--10--10--10--10--10--10--10--10--|--3--3--3--3--3--3--3--3--|
--10--10--10--10--10--10--10--10--|--3--3--3--3--3--3--3--3--|
--8---8---8---8---8---8---8---8---|--1--1--1--1--1--1--1--1--|


                                                      
--------------------------|--------------------------|
--------------------------|--------------------------|
--------------------------|--------------------------|
--5--5--5--5--5--5--5--5--|--7--7--7--7--7--7--7--7--|
--5--5--5--5--5--5--5--5--|--7--7--7--7--7--7--7--7--|
--3--3--3--3--3--3--3--3--|--5--5--5--5--5--5--5--5--|


                                                              
----------------------------------|--------------------------|
----------------------------------|--------------------------|
----------------------------------|--------------------------|
--10--10--10--10--10--10--10--10--|--3--3--3--3--3--3--3--3--|
--10--10--10--10--10--10--10--10--|--3--3--3--3--3--3--3--3--|
--8---8---8---8---8---8---8---8---|--1--1--1--1--1--1--1--1--|


                                                      
--------------------------|--------------------------|
--------------------------|--------------------------|
--------------------------|--------------------------|
--5--5--5--5--5--5--5--5--|--7--7--7--7--7--7--7--7--|
--5--5--5--5--5--5--5--5--|--7--7--7--7--7--7--7--7--|
--3--3--3--3--3--3--3--3--|--5--5--5--5--5--5--5--5--|


                                                              
----------------------------------|--------------------------|
----------------------------------|--------------------------|
----------------------------------|--------------------------|
--10--10--10--10--10--10--10--10--|--3--3--3--3--3--3--3--3--|
--10--10--10--10--10--10--10--10--|--3--3--3--3--3--3--3--3--|
--8---8---8---8---8---8---8---8---|--1--1--1--1--1--1--1--1--|


                                                      
--------------------------|--------------------------|
--------------------------|--------------------------|
--------------------------|--------------------------|
--5--5--5--5--5--5--5--5--|--7--7--7--7--7--7--7--7--|
--5--5--5--5--5--5--5--5--|--7--7--7--7--7--7--7--7--|
--3--3--3--3--3--3--3--3--|--5--5--5--5--5--5--5--5--|


                                                              
----------------------------------|--------------------------|
----------------------------------|--------------------------|
----------------------------------|--------------------------|
--10--10--10--10--10--10--10--10--|--3--3--3--3--3--3--3--3--|
--10--10--10--10--10--10--10--10--|--3--3--3--3--3--3--3--3--|
--8---8---8---8---8---8---8---8---|--1--1--1--1--1--1--1--1--|


                                                  
----------------------|--------------------------|
----------------------|--------------------------|
----------------------|--------------------------|
--5--5--5--5----------|--7--7--7--7--7--7--7--7--|
--5--5--5--5----------|--7--7--7--7--7--7--7--7--|
--3--3--3--3----------|--5--5--5--5--5--5--5--5--|


                                                              
----------------------------------|--------------------------|
----------------------------------|--------------------------|
----------------------------------|--------------------------|
--10--10--10--10--10--10--10--10--|--3--3--3--3--3--3--3--3--|
--10--10--10--10--10--10--10--10--|--3--3--3--3--3--3--3--3--|
--8---8---8---8---8---8---8---8---|--1--1--1--1--1--1--1--1--|


                                                      
--------------------------|--------------------------|
--------------------------|--------------------------|
--------------------------|--------------------------|
--5--5--5--5--5--5--5--5--|--7--7--7--7--7--7--7--7--|
--5--5--5--5--5--5--5--5--|--7--7--7--7--7--7--7--7--|
--3--3--3--3--3--3--3--3--|--5--5--5--5--5--5--5--5--|


                                                              
----------------------------------|--------------------------|
----------------------------------|--------------------------|
----------------------------------|--------------------------|
--10--10--10--10--10--10--10--10--|--3--3--3--3--3--3--3--3--|
--10--10--10--10--10--10--10--10--|--3--3--3--3--3--3--3--3--|
--8---8---8---8---8---8---8---8---|--1--1--1--1--1--1--1--1--|


                                                      
--------------------------|--------------------------|
--------------------------|--------------------------|
--------------------------|--------------------------|
--2--2--2--2--2--2--2--2--|--2--2--2--2--2--2--2--2--|
--2--2--2--2--2--2--2--2--|--2--2--2--2--2--2--2--2--|
--0--0--0--0--0--0--0--0--|--0--0--0--0--0--0--0--0--|


                                                          
------------------------------|--------------------------|
------------------------------|--------------------------|
------------------------------|--------------------------|
--7--7--7--7--10--10--10--10--|--3--3--3--3--5--5--5--5--|
--7--7--7--7--10--10--10--10--|--3--3--3--3--5--5--5--5--|
--5--5--5--5--8---8---8---8---|--1--1--1--1--3--3--3--3--|


                                                          
------------------------------|--------------------------|
------------------------------|--------------------------|
------------------------------|--------------------------|
--7--7--7--7--10--10--10--10--|--3--3--3--3--5--5--5--5--|
--7--7--7--7--10--10--10--10--|--3--3--3--3--5--5--5--5--|
--5--5--5--5--8---8---8---8---|--1--1--1--1--3--3--3--3--|


                                                          
------------------------------|--------------------------|
------------------------------|--------------------------|
------------------------------|--------------------------|
--7--7--7--7--10--10--10--10--|--3--3--3--3--5--5--5--5--|
--7--7--7--7--10--10--10--10--|--3--3--3--3--5--5--5--5--|
--5--5--5--5--8---8---8---8---|--1--1--1--1--3--3--3--3--|


                                                          
------------------------------|--------------------------|
------------------------------|--------------------------|
------------------------------|--------------------------|
--7--7--7--7--10--10--10--10--|--3--3--3--3--5--5--5--5--|
--7--7--7--7--10--10--10--10--|--3--3--3--3--5--5--5--5--|
--5--5--5--5--8---8---8---8---|--1--1--1--1--3--3--3--3--|


                                                          
------------------------------|--------------------------|
------------------------------|--------------------------|
------------------------------|--------------------------|
--7--7--7--7--10--10--10--10--|--3--3--3--3--5--5--5--5--|
--7--7--7--7--10--10--10--10--|--3--3--3--3--5--5--5--5--|
--5--5--5--5--8---8---8---8---|--1--1--1--1--3--3--3--3--|


                                                          
------------------------------|--------------------------|
------------------------------|--------------------------|
------------------------------|--------------------------|
--7--7--7--7--10--10--10--10--|--3--3--3--3--5--5--5--5--|
--7--7--7--7--10--10--10--10--|--3--3--3--3--5--5--5--5--|
--5--5--5--5--8---8---8---8---|--1--1--1--1--3--3--3--3--|


                                                                  
------------------------------|----------------------------------|
------------------------------|----------------------------------|
------------------------------|--10--10--10--10--12--12--12--12--|
--7--7--7--7--10--10--10--10--|--10--10--10--10--12--12--12--12--|
--7--7--7--7--10--10--10--10--|--8---8---8---8---10--10--10--10--|
--5--5--5--5--8---8---8---8---|----------------------------------|


                                                      
--------------------------|--------------------------|
--------------------------|--------------------------|
--------------------------|--------------------------|
--7--7--7--7--7--7--7--7--|--5--5--5--5--5--5--5--5--|
--7--7--7--7--7--7--7--7--|--5--5--5--5--5--5--5--5--|
--5--5--5--5--5--5--5--5--|--3--3--3--3--3--3--3--3--|


                                                                               
--------------------------|--------------------------|------------------------|
--------------------------|--------------------------|------------------------|
--------------------------|--------------------------|------------------------|
--3--3--3--3--3--3--3--3--|--3--3--3--3--3--3--3--3--|------------------------|
--3--3--3--3--3--3--3--3--|--3--3--3--3--3--3--3--3--|--0----0--2--3----2--3--|
--1--1--1--1--1--1--1--1--|--1--1--1--1--1--1--1--1--|------------------------|


                                                                           
------------------------|------------------------|------------------------|
------------------------|------------------------|------------------------|
------------------------|------------------------|------------------------|
--0---------------------|------------------------|--0---------------------|
-------3--2--3--2--0----|--0----0--2--3----2--3--|-------3--2--3--2--0----|
------------------------|------------------------|------------------------|


                                                                           
------------------------|------------------------|------------------------|
------------------------|------------------------|------------------------|
------------------------|------------------------|------------------------|
------------------------|--0---------------------|------------------------|
--0----0--2--3----2--3--|-------3--2--3--2--0----|--0----0--2--3----2--3--|
------------------------|------------------------|------------------------|


                                                                           
------------------------|------------------------|------------------------|
------------------------|------------------------|------------------------|
------------------------|------------------------|------------------------|
--0---------------------|------------------------|--0---------------------|
-------3--2--3--2--0----|--0----0--2--3----2--3--|-------3--2--3--2--0----|
------------------------|------------------------|------------------------|


                                                                           
------------------------|------------------------|------------------------|
------------------------|------------------------|------------------------|
------------------------|------------------------|------------------------|
------------------------|--0---------------------|------------------------|
--0----0--2--3----2--3--|-------3--2--3--2--0----|--0----0--2--3----2--3--|
------------------------|------------------------|------------------------|


                                                                           
------------------------|------------------------|------------------------|
------------------------|------------------------|------------------------|
------------------------|------------------------|------------------------|
--0---------------------|------------------------|--0---------------------|
-------3--2--3--2--0----|--0----0--2--3----2--3--|-------3--2--3--2--0----|
------------------------|------------------------|------------------------|


                                                                           
------------------------|------------------------|------------------------|
------------------------|------------------------|------------------------|
------------------------|------------------------|------------------------|
------------------------|--0---------------------|------------------------|
--0----0--2--3----2--3--|-------3--2--3--2--0----|--0----0--2--3----2--3--|
------------------------|------------------------|------------------------|


                                                                           
------------------------|------------------------|------------------------|
------------------------|------------------------|------------------------|
------------------------|------------------------|------------------------|
--0---------------------|------------------------|--0---------------------|
-------3--2--3--2--0----|--0----0--2--3----2--3--|-------3--2--3--2--0----|
------------------------|------------------------|------------------------|


                                                                      
------------------------|------------------------|------------------||
------------------------|------------------------|------------------||
------------------------|------------------------|------------------||
------------------------|--0---------------------|------------------||
--0----0--2--3----2--3--|-------3--2--3--2--0----|------------------||
------------------------|------------------------|------------------||


Good luck and enjoy..

-Hawkeye
comments
We did not receive enough feedback on this tab! Please rate:
print report bad tab
1 2 3 4 5
I want to post or [tab]
guest
You may want to rate the tab now too:
select rating
Please do not post tabs as comments. Select "correction" instead!