Oops, an error
Loading. Please wait.

Them And Us Tab

ver3
ver3

Whole song

Interactive

More versions @911Tabs.com
505 views 1 this week
2 commentsread comments
1 2 3 4 5
excellent!
x 1
Autoscroll
+/-
esc
set tempo
stop
Contributor
WARNING: You are trying to view
                                    content from Ultimate-Guitar.com
                                    in an unauthorized application,
                                    which is prohibited.

                                    Please use an official Ultimate
                                    Guitar Tabs application for iPhone,
                                    iPad or Android to access legitimate
                                    chords, guitar, bass, and drum tabs
                                    from Ultimate-Guitar.com database.

                                    Type "ultimate guitar tabs" in Apple
                                    App Store's or Android Market's
                                    search to find the application.
============================================================================
======Bad=Religion=========-=THEM=AND=US==========The=Gray=Race=(1996)======
============================================================================

         Tabbed by: Jeff MacDonald (jeffrey.macdonald@hotmail.com)
____________________________________________________________________________


    o---------LEGEND---------o
    | PM  Palm Mute          |
    |  X  Muted String       |
    |  : Let Ring            |
    |  ~  Vibrato            |
    |  /  Slide Up           |
    |  \  Slide Down         |
    |  p  Pull Off           |
    | B2  Whole-Step Bend    |
    |  * Repeat all measures |
    |    between the signs   |
    o------------------------o


   -2 Guitars; Standard tuning and Distortion for both


===========
   INTRO
===========
    
    Guitars 1&2                                            Play 5 times
    Riff A                                                End of Riff A
 E  |--------------------------------|--------------------------------|
 B  |--------------------------------|--------------------------------|
 G *|--------------------------------|--------------------------------|*
 D *|--------------------------------|--------------------------------|*
 A  |--------------------------------|----------------8---8-----------|
 E  |3---3-3---3-3--/6---6-6---6-6--/|8---8-8---8-8-----------8---6---|


     Guitar 1
   E|--------------------------------|--------------------------------|
   B|--------------------------------|--------------------------------|
   G|----------------8---8-8---8-8---|5---5-5---5-5-------------------|
   D|5---5-5---5-5---8---8-8---8-8---|5---5-5---5-5---3---3-3---3-3---|
   A|5---5-5---5-5---6---6-6---6-6---|3---3-3---3-3---3---3-3---3-3---|
   E|3---3-3---3-3-------------------|----------------1---1-1---1-1---|
    |                                                                 |
    |Guitar 2                                                         |
   E|--------------------------------|--------------------------------|
   B|8---8-8---8-8---8---8-8---8-8---|8---8-8---8-8---8---8-8---8-8---|
   G|X---X-X---X-X---X---X-X---X-X---|X---X-X---X-X---X---X-X---X-X---|
   D|5---5-5---5-5---5---5-5---5-5---|5---5-5---5-5---5---5-5---5-5---|
   A|--------------------------------|--------------------------------|
   E|--------------------------------|--------------------------------|


===========
   VERSE
===========

    Guitars 1&2
   E|--------------------------------|--------------------------------|
   B|--------------------------------|--------------------------------|
   G|--------------------------------|--------------------------------|
   D|5---5---5---5---8---8---8---8---|10--10--10--10--10--10--10--10--|
   A|5---5---5---5---8---8---8---8---|10--10--10--10--10--10--10--10--|
   E|3---3---3---3---6---6---6---6---|8---8---8---8---8---8---8---8---|

   E|--------------------------------|--------------------------------|
   B|--------------------------------|--------------------------------|
   G|--------------------------------|--------------------------------|
   D|5---5---5---5---8---8---8---8---|3---3---3---3---3---3---3---3---|
   A|5---5---5---5---8---8---8---8---|3---3---3---3---3---3---3---3---|
   E|3---3---3---3---6---6---6---6---|1---1---1---1---1---1---1---1---|

   E|--------------------------------|--------------------------------|
   B|--------------------------------|--------------------------------|
   G|--------------------------------|8---8---8---8---8---8---8---8---|
   D|5---5---5---5---8---8---8---8---|8---8---8---8---8---8---8---8---|
   A|5---5---5---5---8---8---8---8---|6---6---6---6---6---6---6---6---|
   E|3---3---3---3---6---6---6---6---|--------------------------------|


================
   PRE-CHORUS
================

    Guitars 1&2
   E|--------------------------------|--------------------------------|
   B|11--1111----10--10--10------10--|11--1111----10--10--10------10--|
   G|10--1010----10--10--10------10--|10--1010----10--10--10------10--|
   D|10--1010----10--10--10------10--|10--1010----10--10--10------10--|
   A|--------------------------------|--------------------------------|
   E|--------------------------------|--------------------------------|

   E|--------------------------------|--------------------------------|
   B|11--1111----10--10--10----------|--------------------------------|
   G|10--1010----10--10--10----------|--------------------------------|
   D|10--1010----10--10--10----------|5:--------------5---5---5---5---|
   A|--------------------------------|5:--------------5---5---5---5---|
   E|------------------------10\-----|3:--------------3---3---3---3---|


============
   CHORUS
============

    Guitars 1&2
    Rhy. Fig. 1
 E  |--------------------------------|--------------------------------|
 B  |--------------------------------|--------------------------------|
 G *|7---7---7---7---5---5---5---5---|3---3---3---3---3---3---3---3---|
 D *|7---7---7---7---5---5---5---5---|3---3---3---3---3---3---3---3---|
 A  |5---5---5---5---3---3---3---3---|1---1---1---1---1---1---1---1---|
 E  |--------------------------------|--------------------------------|

                                                     End of Rhy. Fig. 1
   E|--------------------------------|--------------------------------|
   B|--------------------------------|--------------------------------|
   G|10--10--10--10--10--10--10--10--|5---5---5---5---5---5---5---5---|*
   D|10--10--10--10--10--10--10--10--|5---5---5---5---5---5---5---5---|*
   A|8---8---8---8---8---8---8---8---|3---3---3---3---3---3---3---3---|
   E|--------------------------------|--------------------------------|

   E|--------------------------------|--------------------------------|
   B|--------------------------------|--------------------------------|
   G|8---8---8---8---8---8---8---8---|--------------------------------|
   D|8---8---8---8---8---8---8---8---|8---8---8---8---10--10--10--10--|
   A|6---6---6---6---6---6---6---6---|8---8---8---8---10--10--10--10--|
   E|--------------------------------|6---6---6---6---8---8---8---8---|


===============
   INTERLUDE
===============

    Guitars 1&2 play Riff A, 2 times
   E|----------------|----------------|----------------|----------------|
   B|----------------|----------------|----------------|----------------|
   G|----------------|----------------|----------------|----------------|
   D|----------------|----------------|----------------|----------------|
   A|----------------|----------------|----------------|----------------|
   E|----------------|----------------|----------------|----------------|


=~=~=~=~=~=~=~=~=~=~=~=~=~=~=~=~=~=~=~=~=~
   Repeat Verse, Pre-Chorus, and Chorus
=~=~=~=~=~=~=~=~=~=~=~=~=~=~=~=~=~=~=~=~=~


============
   BRIDGE
============

    Guitars 1&2
 E  |--------------------------------|--------------------------------|
 B  |--------------------------------|--------------------------------|
 G *|----------------8---8-8---8-8---|5---5-5-----5---5---5---5---5---|*
 D *|5---5-5---5-5---8---8-8---8-8---|5---5-5-----5---5---5---5---5---|*
 A  |5---5-5---5-5---6---6-6---6-6---|3---3-3-----3---3---3---3---3---|
 E  |3---3-3---3-3-------------------|--------------------------------|

                                                           Play 9 times
 E  |--------------------------------|--------------------------------|
 B  |--------------------------------|--------------------------------|
 G *|--------------------------------|--------------------------------|*
 D *|----------------8---8-8-8-8-8---|5---5-5-5-5-5---5---5-5-5-5-5---|*
 A  |5---5-5-5-5-5---6---6-6-6-6-6---|3---3-3-3-3-3---3---3-3-3-3-3---|
 E  |3---3-3-3-3-3-------------------|--------------------------------|
     PM...............................................................|


     Guitar 1
   E|--------------------------------|--------------------------------|
   B|--------------------------------|--------------------------------|
   G|10--10--10--10--10--10--10--10--|10--10--10--10--10--------------|
   D|10--10--10--10--10--10--10--10--|10--10--10--10--10--------------|
   A|8---8---8---8---8---8---8---8---|8---8---8---8---8---------------|
   E|--------------------------------|------------------------13\-----|
    |                                                                 |
    |Guitar 2                                                         |
   E|--------------------------------|--------------------------------|
   B|--------------------------------|--------------------------------|
   G|10--10--10--10--10--10--10--10--|10--10--10--10--10------10------|
   D|10--10--10--10--10--10--10--10--|10--10--10--10--10------10------|
   A|8---8---8---8---8---8---8---8---|8---8---8---8---8-------8-------|
   E|--------------------------------|--------------------------------|


=================
   GUITAR SOLO
=================

    Guitar 1 (Guitar 2 plays Rhy. Fig. 1, 2 times)
   E|--------------------------------|--------------------------------|
   B|--------------------------------|--------------------------------|
   G|7~~~~~~~~-------9~~~~~~~~-------|10~~~~~~~~~~~~~~~-----------12--|
   D|--------------------------------|--------------------------------|
   A|--------------------------------|--------------------------------|
   E|--------------------------------|--------------------------------|

   E|--------------------------------|--------------------------------|
   B|------------13------------------|--------------------------------|
   G|12------------------12----------|12~~~~~~~~~~9---10-\9---7--/9---|
   D|^-------------------^-----------|--------------------------------|
   A|^-------------------^-----------|--------------------------------|
   E|^-------------------^-----------|--------------------------------|
     B2_______________   B2___________

   E|--------------------------------|--------------------------------|
   B|--------------------------------|--------------------------------|
   G|7:----------5---5:---------\3---|3~~~~~~~~~~~~~~------------/5---|
   D|--------------------------------|--------------------------------|
   A|--------------------------------|--------------------------------|
   E|--------------------------------|--------------------------------|

   E|--------------------------------|--------------------------------|
   B|--------------------------------|--------------------------------|
   G|2:----------2---3-----2-----0:--|------------2---3--p2-----------|
   D|--------------------------------|------------------------3-------|
   A|--------------------------------|--------------------------------|
   E|--------------------------------|--------------------------------|


==================
   FINAL CHORUS
==================

    Guitars 1&2 play Rhy. Fig. 1, 2 times
   E|----------------|----------------|----------------|----------------|
   B|----------------|----------------|----------------|----------------|
   G|----------------|----------------|----------------|----------------|
   D|----------------|----------------|----------------|----------------|
   A|----------------|----------------|----------------|----------------|
   E|----------------|----------------|----------------|----------------|

   E|----------------|----------------|----------------|----------------|
   B|----------------|----------------|----------------|----------------|
   G|----------------|----------------|----------------|----------------|
   D|----------------|----------------|----------------|----------------|
   A|----------------|----------------|----------------|----------------|
   E|----------------|----------------|----------------|----------------|

    Guitars 1&2
   E|--------------------------------|--------------------------------|
   B|--------------------------------|--------------------------------|
   G|8---8---8---8---8---8---8---8---|--------------------------------|
   D|8---8---8---8---8---8---8---8---|8---8---8---8---8---8---8---8---|
   A|6---6---6---6---6---6---6---6---|8---8---8---8---8---8---8---8---|
   E|--------------------------------|6---6---6---6---6---6---6---6---|

   E|--------------------------------|--------------------------------|
   B|--------------------------------|--------------------------------|
   G|6---6---6---6-------------------|--------------------------------|
   D|6---6---6---6---6---6---6---6---|8---8---8---8---10--10--10--10--|
   A|4---4---4---4---6---6---6---6---|8---8---8---8---10--10--10--10--|
   E|----------------4---4---4---4---|6---6---6---6---8---8---8---8---|


===========
   OUTRO
===========

    Guitars 1&2 play Riff A, 3 times
   E|----------------|----------------|----------------|----------------|
   B|----------------|----------------|----------------|----------------|
   G|----------------|----------------|----------------|----------------|
   D|----------------|----------------|----------------|----------------|
   A|----------------|----------------|----------------|----------------|
   E|----------------|----------------|----------------|----------------|

                                      Guitars 1&2
   E|----------------|----------------|--------------------------------|
   B|----------------|----------------|--------------------------------|
   G|----------------|----------------|----------------8---8-8---8-8---|
   D|----------------|----------------|5---5-5---5-5---8---8-8---8-8---|
   A|----------------|----------------|5---5-5---5-5---6---6-6---6-6---|
   E|----------------|----------------|3---3-3---3-3-------------------|

   E|--------------------------------|----|
   B|--------------------------------|----|
   G|5---5-5---5-5-------------------|----|
   D|5---5-5---5-5---3---3-3---3-3---|5:--|
   A|3---3-3---3-3---3---3-3---3-3---|5:--|
   E|----------------1---1-1---1-1---|3:--|


============================================================================
====================================END=====================================
============================================================================
comments
We did not receive enough feedback on this tab! Please rate:
print report bad tab
1 2 3 4 5
2 comments total.
0 reply
Strat-Cat wrote on August 31 2011, 06:35 pm

perfect tab bro, way better then the others and easy to follow. Its spot on. !

0 reply
analbino2009 wrote on March 6 2014, 05:16 am

cool tab man, just wanted to say i think the solo ends with D 2 not 3

I want to post or [tab]
guest
You may want to rate the tab now too:
select rating
Please do not post tabs as comments. Select "correction" instead!