Oops, an error
Loading. Please wait.

Day After Day Tab

ver1
ver1

Whole song

Interactive

More versions @911Tabs.com
31,484 views 48 this week
1 commentread comment
1 2 3 4 5
accurate
x 9
Autoscroll
+/-
esc
set tempo
stop
Contributor
WARNING: You are trying to view
                                    content from Ultimate-Guitar.com
                                    in an unauthorized application,
                                    which is prohibited.

                                    Please use an official Ultimate
                                    Guitar Tabs application for iPhone,
                                    iPad or Android to access legitimate
                                    chords, guitar, bass, and drum tabs
                                    from Ultimate-Guitar.com database.

                                    Type "ultimate guitar tabs" in Apple
                                    App Store's or Android Market's
                                    search to find the application.
---------------------------------------------------------------------

  BADFINGER - DAY AFTER DAY  (P. Ham)  Released as a single by APPLE
              RECORDS on 14th January 1972 with SWEET TUESDAY MORNING 
              as the B side.

---------------------------------------------------------------------

  Tabbed by:PJVillanueva







I remember finding out about you
Every day my mind is all around you
Looking out from my lonely room, day after day 
Bring it home, maybe someday soon 
I give my love to you
I remember holding you while you sleep 
Every day I feel the tears that you weep
Looking out of my lonely gloom, day after day 
Bring it home, maybe someday soon 
I give my love to you ......
Looking out of my lonely room, day after day 
Bring it home, maybe make it soon 
I give my love to you
I remembert finding out about you 
Every day my mind is all around you
Looking out from my lonely room, day after day 
Bring it home, maybe someday soon 
I give my love to you 






  Intro (Bottleneck slide guitar)
                                     

  E                               Dsus2           A
e|0------ 0------ 0---0-- 0---0--|0---0-- 0---0-- 0------ 0---0--|
B|0-------0-------0---0---0---0--|3---3---3---3---2-------2---2--|
G|1-------1-------1---1---1---1--|2---2---2---2---2-------2---2--|
D|2-------2-------2---2---2---2--|0---0---0---0---0-------2---2--|
A|2-------2-------2---2---2---2--|----------------0-------0---0--|
E|0-------0-------0---0---0---0--|-------------------------------|

e|------- ------- ------- -------|------- ------- ------- -------|
B|0------------------------------|-------------------------------|
G|1------------------------------|-------------------------------|
D|2------------------------------|-------------------------------|
A|-------------------------------|-------------------------------|
E|0------------------------------|-------------------------------|
  
e|------- 4---5-- 7-\---- 0------|10----- ----9-- ----7-- 5------|
B|-------------------------------|-------------------------------|
G|-------------------------------|-------------------------------|
D|-------------------------------|-------------------------------|
A|-------------------------------|-------------------------------|
E|-------------------------------|-------------------------------|






  E
e|0------ 0---0-- 0---0-- 0---0--|0---0-- 0---0-- 0---0-- 0---0--|
B|0-------0---0---0---0---0---0--|0---0---0---0---0---0---0---0--|
G|1-------1---1---1---1---1---1--|1---1---1---1---1---1---1---1--|
D|2-------2---2---2---2---2---2--|2---2---2---2---2---2---2---2--|
A|2-------2---2---2---2---2---2--|2---2---2---2---2---2---2---2--|
E|0-------0---0---0---0---0---0--|0---0---0---0---0---0---0---0--|

e|------- ------- ------- -------|------- ------- ------- -------|
B|0------------------------------|-------------------------------|
G|1------------------------------|-------------------------------|
D|2------------------------------|-------------------------------|
A|-------------------------------|-------------------------------|
E|0------------------------------|-------------------------------|

e|7------ ------- ------- 7---/--|16----- ------- ------- -------|    
B|-------------------------------|-------------------------------|
G|-------------------------------|-------------------------------|
D|-------------------------------|-------------------------------|
A|-------------------------------|-------------------------------|
E|-------------------------------|-------------------------------|





                                  Dsus2           A
e|0------ 0------ 0---0-- 0---0--|0------ 0---0-- 0---0-- 0---0--|
B|0-------0-------0---0---0---0--|3-------3---3---2---2---2---2--|
G|1-------1-------1---1---1---1--|2-------2---2---2---2---2---2--|
D|2-------2-------2---2---2---2--|0-------0---0---2---2---2---2--|
A|2-------2-------2---2---2---2--|----------------0---0---0---0--|
E|0-------0-------0---0---0---0--|-------------------------------|
          I   remember            finding     out     about 
e|------- ------- ------- -------|------- ------- ------- -------|
B|0------------------------------|-------------------------------|
G|1------------------------------|-------------------------------|
D|2------------------------------|-------------------------------|
A|-------------------------------|-------------------------------|
E|0------------------------------|-------------------------------|





  E
e|0---0-- 0------ 0---0-- 0---0--|0---0-- 0---0-- 0---0-- 0---0--|
B|0---0---0-------0---0---0---0--|0---0---0---0---0---0---0---0--|
G|1---1---1-------1---1---1---1--|1---1---1---1---1---1---1---1--|
D|2---2---2-------2---2---2---2--|2---2---2---2---2---2---2---2--|
A|2---2---2-------2---2---2---2--|2---2---2---2---2---2---2---2--|
E|0---0---0-------0---0---0---0--|0---0---0---0---0---0---0---0--|
  you
e|------- ------- ------- -------|------- ------- ------- -------|
B|0------------------------------|-------------------------------|
G|1------------------------------|-------------------------------|
D|2------------------------------|-------------------------------|
A|-------------------------------|-------------------------------|
E|0------------------------------|-------------------------------|





                                  Dsus2           A
e|0------ 0---0-- 0---0-- 0---0--|0---0-- 0------ 0---0-- 0---0--|
B|0-------0---0---0---0---0---0--|3---3---3-------2---2---2---2--|
G|1-------1---1---1---1---1---1--|2---2---2-------2---2---2---2--|
D|2-------2---2---2---2---2---2--|0---0---0-------2---2---2---2--|
A|2-------2---2---2---2---2---2--|----------------0---0---0---0--|
E|0-------0---0---0---0---0---0--|-------------------------------|
          Every   day     my      mind    is  all     around       
e|------- ------- ------- -------|------- ------- ------- -------|
B|0------------------------------|-------------------------------|
G|1------------------------------|-------------------------------|
D|2------------------------------|-------------------------------|
A|-------------------------------|-------------------------------|
E|0------------------------------|-------------------------------|




                                          x   X   x   X X x X X
  E
e|0---0-- 0------ 0---0-- 0---0--|0---0-- 0---0-- 0---0-- 0---0--|
B|0---0---0-------0---0---0---0--|0---0---0---0---0---0---0---0--|
G|1---1---1-------1---1---1---1--|1---1---1---1---1---1---1---1--|
D|2---2---2-------2---2---2---2--|2---2---2---2---2---2---2---2--|
A|2---2---2-------2---2---2---2--|2---2---2---2---2---2---2---2--|
E|0---0---0-------0---0---0---0--|0---0---0---0---0---0---0---0--|
  you 
e|------- ------- ------- -------|------- ------- ------- ------9|
B|0------------------------------|----------------------------9--|
G|1------------------------------|--------------------------9----|
D|2------------------------------|----------------6-------6------|
A|-------------------------------|------------7---------7--------|
E|0------------------------------|--------7-----------7----------|





  B                               F#
e|2------ 2---2-- 2------ 2------|2------ 2---2-- 2------ 2------|
B|4-------4---4---4-------4------|2-------2---2---2-------2------|
G|4-------4---4---4-------4------|3-------3---3---3-------3------|
D|4-------4---4---4-------4------|4-------4---4---4-------4------|
A|2-------2---2---2-------2------|4-------4---4---4-------4------|
E|-------------------------------|2-------2---2---2-------2------|
          Looking out from    my  lonely      room,
  (Oooooooooooooooooooooooooohhhhhhhhhhhhhhhhhhhhhhhhhh                                       
e|11----- ------- ------- -------|------- ------- ------- -------|
B|12-----------------------------|-------------------------------|
G|11-----------------------------|-------------------------------|
D|-------------------------------|-------------------------------|
A|-------------------------------|-------------------------------|
E|-------------------------------|-------------------------------|

e|------- ------- ------- -------|------- ------- ------- -------|
B|4------------------------------|2-----------2------------------|
G|4------------------------------|3-----------3------------------|
D|4------------------------------|4-----------4------------------|
A|-------------------------------|-------------------------------|
E|-------------------------------|-------------------------------|




                                          X   X   X   X x x x X 
  A5          Amaj7       F#m7    E           x   x   x
e|------- ------- ------- 0------|0------ ------- ------- -------|
B|5-----------5-----------2------|0------------------------------|
G|2-----------2-----------2------|1------------------------------|
D|2-----------2-----------2------|2------------------------------|
A|0------------------------------|2------------------------------|
E|------------4-----------2------|0------------------------------|
  day         after               day 
  day         after               day) 
e|0------ ----0-- ------- 0------|------- ------- ------- ------12
B|2-----------0-----------0------|0-------------------------9-12-|
G|2-----------1-----------2------|1-----------------------9------|
D|------------------------4------|2---------------------9--------|
A|-------------------------------|--------------------11---------|
E|-------------------------------|-------------------------------|
  A           E           F#m11   E




  B                               F#
e|2------ 2---2-- 2---2-- 2------|2------ 2---2-- 2---2-- 2------|
B|4-------4---4---4---4---4------|2-------2---2---2---2---2------|
G|4-------4---4---4---4---4------|3-------3---3---3---3---3------|
D|4-------4---4---4---4---4------|4-------4---4---4---4---4------|
A|2-------2---2---2---2---2------|4-------4---4---4---4---4------|
E|-------------------------------|2-------2---2---2---2---2------|
          Bring it home,  maybe   someday     soon
  (Ooooooooooooooooooooooooohhhhhhhhhhhhhhhhhhhhhhh  
e|11----- ------- ------- -------|------- ------- ------- -------|
B|12-----------------------------|-------------------------------|
G|11-----------------------------|-------------------------------|
D|-------------------------------|-------------------------------|
A|-------------------------------|-------------------------------|
E|-------------------------------|-------------------------------|

e|------- ------- ------- -------|------- ------- ------- -------|
B|4------------------------------|2------------------------------|
G|4------------------------------|3------------------------------|
D|4------------------------------|4------------------------------|
A|-------------------------------|-------------------------------|
E|-------------------------------|-------------------------------|





  A5          Amaj7       F#m7    E
e|------- ------- ------- 0------|0---0-- 0---0-- 0---0-- 0---0--|
B|5-------5---5-----------2------|0---0---0---0---0---0---0---0--|
G|2-------2---2-----------2------|1---1---1---1---1---1---1---1--|
D|2-------2---2-----------2------|2---2---2---2---2---2---2---2--|
A|0-------0----------------------|2---2---2---2---2---2---2---2--|
E|------------4-----------2------|0---0---0---0---0---0---0---0--|
  I           give        my      love    to  you
  I           give        my      love)
e|------- ------- ------- -------|----12- 11--12- ----12- 11--12-|
B|-------------------------------|----------------12-------------|
G|-------------------------------|-------------------------------|
D|-------------------------------|-------------------------------|
A|-------------------------------|-------------------------------|
E|-------------------------------|-------------------------------|




                      X X X X X
  F#m11                           E
e|0---0-- 0---0-- 0---0-- 0---0--|0---0-- 0---0-- 0---0-- 0---0--|
B|0---0---0---0---0---0---0---0--|0---0---0---0---0---0---0---0--|
G|2---2---2---2---2---2---2---2--|1---1---1---1---1---1---1---1--|
D|4---4---4---4---4---4---4---4--|2---2---2---2---2---2---2---2--|
A|4---4---4---4---4---4---4---4--|2---2---2---2---2---2---2---2--|
E|0---0---0---0---0---0---0---0--|0---0---0---0---0---0---0---0--|

e|----12- 11--12- ----12- 11--12-|----12- 11--12- ----12- 11--12-|
B|12--------------12-------------|12--------------12-------------|
G|-------------------------------|-------------------------------|
D|-------------------------------|-------------------------------|
A|-------------------------------|-------------------------------|
E|-------------------------------|-------------------------------|





  F#m11
e|0---0-- 0---0-- 0---0-- 0---0--|
B|0---0---0---0---0---0---0---0--|
G|2---2---2---2---2---2---2---2--|
D|4---4---4---4---4---4---4---4--|
A|4---4---4---4---4---4---4---4--|
E|0---0---0---0---0---0---0---0--|

e|----12- 11--12- ------- -------|
B|12--------------12-------------|
G|--------------------13--11--9--|
D|-------------------------------|
A|-------------------------------|
E|-------------------------------|





  E                               Dsus2           A
e|0------ 0---0-- 0---0-- 0---0--|0------ 0---0-- 0---0-- 0---0--|
B|0-------0---0---0---0---0---0--|3-------3---3---2---2---2---2--|
G|1-------1---1---1---1---1---1--|2-------2---2---2---2---2---2--|
D|2-------2---2---2---2---2---2--|0-------0---0---2---2---2---2--|
A|2-------2---2---2---2---2---2--|----------------0---0---0---0--|
E|0-------0---0---0---0---0---0--|-------------------------------|
          I   remember            holding     you    while you 
e|------- ------- ------- -------|------- ------- ------- -------|
B|9------------------------------|-------------------------------|
G|9------------------------------|-------------------------------|
D|9------------------------------|-------------------------------|
A|-------------------------------|-------------------------------|
E|-------------------------------|-------------------------------|




                                                    X X X X X X
  E
e|0---0-- 0---0-- 0---0-- 0---0--|0---0-- 0---0-- 0---0-- 0---0--|
B|0---0---0---0---0---0---0---0--|0---0---0---0---0---0---0---0--|
G|1---1---1---1---1---1---1---1--|1---1---1---1---1---1---1---1--|
D|2---2---2---2---2---2---2---2--|2---2---2---2---2---2---2---2--|
A|2---2---2---2---2---2---2---2--|2---2---2---2---2---2---2---2--|
E|0---0---0---0---0---0---0---0--|0---0---0---0---0---0---0---0--|
  sleep 
e|------- ------- ------0 2---0--|------- ------- ------- -------|
B|------------------------0---0--|-------------------------------|
G|-------------------------------|--------4---------------4------|
D|----------------------------2--|--------4---6-----------4------|
A|-------------------------------|--------7-----------7---7------|
E|-------------------------------|-------------------------------|





                                  Dsus2           A
e|0---0-- 0---0-- 0---0-- 0---0--|0------ 0---0-- 0---0-- 0---0--|
B|0---0---0---0---0---0---0---0--|3-------3---3---2---2---2---2--|
G|1---1---1---1---1---1---1---1--|2-------2---2---2---2---2---2--|
D|2---2---2---2---2---2---2---2--|0-------0---0---2---2---2---2--|
A|2---2---2---2---2---2---2---2--|----------------0---0---0---0--|
E|0---0---0---0---0---0---0---0--|-------------------------------|
          Every   day     I       feel    the tears   that you 
e|------- ------- ------- -------|------- ------- ------- -------|
B|-------------------------------|-------------------------------|
G|4------------------------------|-------------------------------|
D|6------------------------------|-------------------------------|
A|7------------------------------|-------------------------------|
E|-------------------------------|-------------------------------|




                                        x x     X X     X X   X
  E
e|0------ 0---0-- 0---0-- 0---0--|0---0-- 0---0-- 0---0-- 0------|
B|0-------0---0---0---0---0---0--|0---0---0---0---0---0---0------|
G|1-------1---1---1---1---1---1--|1---1---1---1---1---1---1------|
D|2-------2---2---2---2---2---2--|2---2---2---2---2---2---2------|
A|2-------2---2---2---2---2---2--|2---2---2---2---2---2---2------|
E|0-------0---0---0---0---0---0--|0---0---0---0---0---0---0------|
  weep
e|------- ------- ------- -------|------- ------- ------- -------|
B|-------------------------------|-------------------------------|
G|4------------------------------|--------4---4-----------4------|
D|6------------------------------|--------4---6-----------4------|
A|7-----------------------7---7--|--------7---7-------7---7------|
E|-------------------------------|-------------------------------|





  B                               F#
e|2------ 2---2-- 2---2-- 2------|2------ 2------ 2---2-- 2---2--|
B|4-------4---4---4---4---4------|2-------2-------2---2---2---2--|
G|4-------4---4---4---4---4------|3-------3-------3---3---3---3--|
D|4-------4---4---4---4---4------|4-------4-------4---4---4---4--|
A|2-------2---2---2---2---2------|4-------4-------4---4---4---4--|
E|-------------------------------|2-------2-------2---2---2---2--|
          Looking out from    my  lonely      gloom,
  (Aaaaaaaaaaaaaaaaaaaaaaaaaaaaaaahhhhhhhhhhhhhhhhhhhhh               
e|------- ------- ------- -------|------- ------- ------- -------|
B|4------------------------------|2------------------------------|
G|4------------------------------|3------------------------------|
D|4------------------------------|4------------------------------|
A|-------------------------------|-------------------------------|
E|-------------------------------|-------------------------------|




                                          X   X   X   X x x x X 
  A5          Amaj7       F#m7                x   x   x
e|------- ------- ------- 0------|0------ ------- ------- -------|
B|5-----------5-----------2------|0------------------------------|
G|2-----------2-----------2------|1------------------------------|
D|2-----------2-----------2------|2------------------------------|
A|0------------------------------|2------------------------------|
E|------------4-----------2------|0------------------------------|
  day         after               day
  day         after               day)  
e|0------ ----0-- ------- 0------|0------ ------- ------- ----0-4|
B|2-----------0-----------0------|0-------------------------0----|
G|2-----------1-----------2------|1-----------------------1------|
D|------------------------4------|2------------------------------|
A|-------------------------------|-------------------------------|
E|-------------------------------|-------------------------------|
  A           E           F#m11   E




  B                               F#
e|2------ 2---2-- 2------ 2------|2------ 2------ 2---2-- 2------|
B|4-------4---4---4-------4------|2-------2-------2---2---2------|
G|4-------4---4---4-------4------|3-------3-------3---3---3------|
D|4-------4---4---4-------4------|4-------4-------4---4---4------|
A|2-------2---2---2-------2------|4-------4-------4---4---4------|
E|-------------------------------|2-------2-------2---2---2------|
          Bring it home,  maybe   make it     soon
  (Aaaaaaaaaaaaaaaaaaaaaaaaahhhhhhhhhhhhhhhhhhhhhhhhhh
e|2------ ------- ------- -------|------- ------- ------- -------|
B|4------------------------------|2------------------------------|
G|4------------------------------|3------------------------------|
D|-------------------------------|4------------------------------|
A|-------------------------------|-------------------------------|
E|-------------------------------|-------------------------------|





  A5          Amaj7       F#m7    E
e|------- ------- ------- 0------|0------ ------- ------- -------|
B|5-------5---5-----------2------|0------------------------------|
G|2-------2---2-----------2------|1------------------------------|
D|2-------2---2-----------2------|2------------------------------|
A|0-------0----------------------|2------------------------------|
E|------------4-----------2------|0------------------------------|
  I           give        my      love    to  you
  I           give        my      love    Ooooooooooooooooooooooo
e|0------ ----0-- ------- 0------|----12- 11--12- ----12- 11--12-|
B|2-----------0-----------0------|----------------12-------------|
G|2-----------1-----------2------|-------------------------------|
D|------------------------4------|-------------------------------|
A|-------------------------------|-------------------------------|
E|-------------------------------|-------------------------------|
  A           E           F#m11



                    X X X x x X

e|----12- 11--12- ----12- 11--12-|----12- 11--12- ----12- 11--12-|
B|12--------------12-------------|12--------------12-------------|
G|-------------------------------|-------------------------------|
D|-------------------------------|-------------------------------|
A|-------------------------------|-------------------------------|
E|-------------------------------|-------------------------------|

  oooooooooooooooooooooooooooooooooooooooooooohhhhhhhhhhhhhhhhhhh


                    X X X X X X

e|------- ------- ------- 9------|
B|--------10----------10---------|
G|----9-----------9--------------|
D|11----------11-----------------|
A|-------------------------------|
E|-------------------------------|

  hhhhhhhhhhhhhhhhhhhhhhhhhhhhh)


   Slide solo

  E                               Dsus2           A
e|0------ 0------ 0---0-- 0------|0------ 0---0-- 0------ 0---0--|
B|0-------0-------0---0---0------|3-------3---3---2-------2---2--|
G|1-------1-------1---1---1------|2-------2---2---2-------2---2--|
D|2-------2-------2---2---2------|0-------0---0---2-------2---2--|
A|2-------2-------2---2---2------|----------------0-------0---0--|
E|0-------0-------0---0---0------|-------------------------------|
  (Aaaaaaaaaaaaaaaaaaaaaaaaaaaaaaaaaaaaaaaaaaaaaaaaaaaaaaaaaaaaaa
e|7------ ------- ------- -------|7------ ------- ------- -------|
B|9------------------------------10------------------------------|
G|9------------------------------|9------------------------------|
D|-------------------------------|-------------------------------|
A|-------------------------------|-------------------------------|
E|-------------------------------|-------------------------------|

e|------- 4---5-- 7-\---- 0------/10----- ----9-- ----7-\ 5-----5/
B|-------------------------------|-------------------------------|
G|-------------------------------|-------------------------------|
D|-------------------------------|-------------------------------|
A|-------------------------------|-------------------------------|
E|-------------------------------|-------------------------------|




                                              X X X X X X X X X
  E
e|0------ 0---0-- ----0-- 0---0--|----0-- 0---0-- ----0-- 0---0--|
B|0-------0---0-------0---0---0--|----0---0---0-------0---0---0--|
G|1-------1---1-------1---1---1--|----1---1---1-------1---1---1--|
D|2-------2---2-------2---2---2--|----2---2---2-------2---2---2--|
A|2-------2---2-------2---2---2--|----2---2---2-------2---2---2--|
E|0-------0---0-------0---0---0--|----0---0---0-------0---0---0--|
  aaaaaaaaaaaaaaaaaaaaaaaaaaaaahhhhhhhhhhhhhhhhhhhhhhhh
e|7------ ------- ------- -------|------- ------- ------- -------|
B|9------------------------------|-------------------------------|
G|9------------------------------|-------------------------------|
D|-------------------------------|--------6-6-6-6-6-6-6-6-6-6-6--|
A|-------------------------------|--------7-7-7-7-7-7-7-7-7-7-7--|
E|-------------------------------|-------------------------------|

e|7------ ------- ------- -------|------- 16--15- ----12- -------|
B|-------------------------------|------------------------14-\12-|   
G|-------------------------------|-15/16-------------------------|
D|-------------------------------|-------------------------------|
A|-------------------------------|-------------------------------|
E|-------------------------------|-------------------------------|




                                                      X X X X X
                                  Dsus2           A
e|0------ 0---0-- 0------ 0---0--|0------ 0---0-- 0------ 0---0--|
B|0-------0---0---0-------0---0--|3-------3---3---2-------2---2--|
G|1-------1---1---1-------1---1--|2-------2---2---2-------2---2--|
D|2-------2---2---2-------2---2--|0-------0---0---2-------2---2--|
A|2-------2---2---2-------2---2--|----------------0-------0---0--|
E|0-------0---0---0-------0---0--|-------------------------------|
  Aaaaaaaaaaaaaaaaaaaaaaaaaaaaaaaaaaaaaaaaaaaaaaaaaaaaaaaaaaaaaaa
e|------- 4---5-- 7-\---- 0----12/14----- ---12-- ---10-\ 9-----5/
B|-------------------------------|-------------------------------|
G|-------------------------------|-------------------------------|
D|-------------------------------|-------------------------------|
A|-------------------------------|-------------------------------|
E|-------------------------------|-------------------------------|




                                        x x     X X     X X   X
  E
e|0---0-- 0------ 0---0-- 0---0--|----0-- ----0-- 0---0-- 0------|
B|0---0---0-------0---0---0---0--|----0-------0---0---0---0------|
G|1---1---1-------1---1---1---1--|----1-------1---1---1---1------|
D|2---2---2-------2---2---2---2--|----2-------2---2---2---2------|
A|2---2---2-------2---2---2---2--|----2-------2---2---2---2------|
E|0---0---0-------0---0---0---0--|----0-------0---0---0---0------|
  aaaaaaaahhhhhhhhhhhhhhhhhhhhhhhhhhhhhhhhh)
e|------- ------- ------- -------|------- ------- ------- -------|
B|-------------------------------|-------------------------------|
G|-------------------------------|----4-------4---4-------4------|
D|-------------------------------|----6-------6---6-------6------|
A|-------------------------------|----7-------7---7-------7------|
E|-------------------------------|-------------------------------|

e|7------ ------- ------7/9-\----|4------ ------- ------- -------|
B|-------------------------------|-------------------------------|
G|-------------------------------|-------------------------------|
D|-------------------------------|-------------------------------|
A|-------------------------------|-------------------------------|
E|-------------------------------|-------------------------------|       





  B                               F#
e|2------ 2------ 2---2-- 2---2--|2---2-- 2---2-- 2---2-- 2------|
B|4-------4-------4---4---4---4--|2---2---2---2---2---2---2------|
G|4-------4-------4---4---4---4--|3---3---3---3---3---3---3------|
D|4-------4-------4---4---4---4--|4---4---4---4---4---4---4------|
A|2-------2-------2---2---2---2--|4---4---4---4---4---4---4------|
E|-------------------------------|2---2---2---2---2---2---2------|
          Looking out from    my  lonely      room,
 (Aaaaaaaaaaaaaaaaaaaaaaaaaaaaaahhhhhhhhhhhhhhhhhhhhhhhhh 
e|------- ------- ------- -------|------- ------- ------- -------|
B|4-----------------------4------|2-----------2---2-------2------|
G|4-----------------------4------|3-----------3---3-------3------|
D|4-----------------------4------|4-----------4---4-------4------|
A|-------------------------------|-------------------------------|
E|-------------------------------|-------------------------------|




                                          X   X   X   X x x x X 
  A5          Amaj7       F#m7    E           x   x   x
e|------- ------- ------- 0------|0------ 0------ ------- 0------|
B|5----5--5---5-----------2------|0-------0---------------0------|
G|2----2--2---2-----------2------|1-------1---------------1------|
D|2----2--2---2-----------2------|2-------2---------------2------|
A|0----0--0----------------------|2-------2---------------2------|
E|------------4-----------2------|0-------0---------------0------|
  day         after       day 
  day         after       day) 
e|0------ ----0-- ------- 0------|0------ ------- ------- -------|
B|2-----------0-----------0------|0------------------------------|
G|2-----------1-----------2------|1-----------------------4--4---|
D|------------------------4------|2-----------------------6--6---|
A|-------------------------------|--------------------7-7---7----|
E|-------------------------------|-------------------------------|
  A           E           F#m11   E
e|------- ------- ------- -------|------- ------- ------- ----12-|
B|-------------------------------|--------9---10--12--14--16--14-|
G|-------------------------------|--------9---11--13--14--16-----|
D|-------------------------------|-------------------------------|        
A|-------------------------------|-------------------------------|      
E|-------------------------------|-------------------------------|
                                                                       




  B                               F#
e|2------ 2---2-- 2---2-- 2------|2------ 2------ 2---2-- 2------|
B|4-------4---4---4---4---4------|2-------2-------2---2---2------|
G|4-------4---4---4---4---4------|3-------3-------3---3---3------|
D|4-------4---4---4---4---4------|4-------4-------4---4---4------|
A|2-------2---2---2---2---2------|4-------4-------4---4---4------|
E|-------------------------------|2-------2-------2---2---2------|
          Bring it home,  maybe   make it     soon 
  (Aaaaaaaaaaaaaaaaaaaaaaaaaaahhhhhhhhhhhhhhhhhhhhhhhhhhh                    
e|------- ------- ------- -------|------- ------- ------- -------|
B|4------------------------------|2------------------------------|
G|4------------------------------|3------------------------------|
D|4------------------------------|4------------------------------|
A|-------------------------------|-------------------------------|
E|-------------------------------|-------------------------------|

e|14----- ------- ------- -------|------- ------- ------- -------|
B|16-----------------------------|-------------------------------|
G|-------------------------------|-------------------------------|
D|-------------------------------|-------------------------------|
A|-------------------------------|-------------------------------|
E|-------------------------------|-------------------------------|





  A5          Amaj7       F#m7    E
e|------- ------- ------- 0------|0------ 0---0-- 0---0-- 0------|
B|5-------5---5-----------2------|0-------0---0---0---0---0------|
G|2-------2---2-----------2------|1-------1---1---1---1---1------|
D|2-------2---2-----------2------|2-------2---2---2---2---2------|
A|0-------0----------------------|2-------2---2---2---2---2------|
E|------------4-----------2------|0-------0---0---0---0---0------|
  I           give        my      love    to  you
  I           give        my      love) 
e|0------ ----0-- ------- 0------|0------ ------- ------- -------|
B|2-----------0-----------0------|0------------------------------|
G|2-----------1-----------2------|1-----------0---------------0--|
D|------------------------4------|2---2---4-----------2---4------|
A|-------------------------------|2------------------------------|
E|-------------------------------|-------------------------------|
  A           E           F#m11   E




  F#m11
e|0---0-- 0------ 0------ 0---0--|
B|0---0---0-------0-------0---0--|
G|2---2---2-------2-------2---2--|
D|4---4---4-------4-------4---4--|
A|4---4---4-------4-------4---4--|
E|0---0---0-------0-------0---0--|

e|------- ------- ------- 0---2--|
B|--------------------0----------|
G|----------------1--------------|
D|--------2---4------------------|
A|-------------------------------|
E|-------------------------------|





  E                               Dsus2           A
e|0------ 0---0-- 0---0-- 0---0--|0------ 0---0-- 0---0-- 0---0--|    
B|0-------0---0---0---0---0---0--|3-------3---3---2---2---2---2--|
G|1-------1---1---1---1---1---1--|2-------2---2---2---2---2---2--|
D|2-------2---2---2---2---2---2--|0-------0---0---2---2---2---2--|
A|2-------2---2---2---2---2---2--|----------------0---0---0---0--|
E|0-------0---0---0---0---0---0--|-------------------------------|
          I   remember            finding     out     about
          I   remember            finding     out     about  
e|4------ ------- ------- -------|------- ------- ------- -------|
B|5------------------------------|3-----------2------------------|
G|4------------------------------|2-----------2------------------|
D|-------------------------------|2-----------2------------------|
A|-------------------------------|-------------------------------|
E|-------------------------------|-------------------------------|




  E
e|0---0-- 0---0-- 0---0-- 0------|0---0-- 0------ 0---0-- 0---0--|
B|0---0---0---0---0---0---0------|0---0---0-------0---0---0---0--|
G|1---1---1---1---1---1---1------|1---1---1-------1---1---1---1--|
D|2---2---2---2---2---2---2------|2---2---2-------2---2---2---2--|
A|2---2---2---2---2---2---2------|2---2---2-------2---2---2---2--|
E|0---0---0---0---0---0---0------|0---0---0-------0---0---0---0--|
  you
  you
e|------- ------- ------- -------|------- ------- ------- -------|
B|0---------------0---0----------|0---0-------0-----------0------|
G|1---------------1---1----------|1---1-------1-----------1------|
D|2-------------2---------------2|------------2-----------2------|
A|-------------------------------|-------------------------------|
E|0-----------0---------------0--|------------0-----------0------|

e|-----10/12----- ------- --7/9--|7------ 7-\-5-- ------- -------|
B|-------------------------------|----9-----------9------\-------|
G|-------------------------------|-------------------------------|
D|-------------------------------|-------------------------------|
A|-------------------------------|-------------------------------|
E|-------------------------------|-------------------------------|





                                  Dsus2           A
e|0------ 0---0-- 0---0-- 0---0--|0---0-- 0------ 0---0-- 0---0--|
B|0-------0---0---0---0---0---0--|3---3---3-------2---2---2---2--|
G|1-------1---1---1---1---1---1--|2---2---2-------2---2---2---2--|
D|2-------2---2---2---2---2---2--|0---0---0-------2---2---2---2--|
A|2-------2---2---2---2---2---2--|----------------0---0---0---0--|
E|0-------0---0---0---0---0---0--|-------------------------------|
          Every   day     my      mind    is  all     around 
          Every   day     my      mind    is  all     around        
e|------- ------- ------- -------|------- ------- ------- -------|
B|0-----------0------------------|3-----------2------------------|
G|1-----------1------------------|2-----------2------------------|
D|2-----------2------------------|2-----------2------------------|
A|-------------------------------|-------------------------------|
E|0-----------0------------------|-------------------------------|




                                          x   X   x   X X x X X
  E
e|0---0-- 0------ 0---0-- 0---0--|0---0-- 0---0-- 0---0-- 0---0--|
B|0---0---0-------0---0---0---0--|0---0---0---0---0---0---0---0--|
G|1---1---1-------1---1---1---1--|1---1---1---1---1---1---1---1--|
D|2---2---2-------2---2---2---2--|2---2---2---2---2---2---2---2--|
A|2---2---2-------2---2---2---2--|2---2---2---2---2---2---2---2--|
E|0---0---0-------0---0---0---0--|0---0---0---0---0---0---0---0--|   
  you
  you 
e|------- ------- ------- -------|------- ------- ------- --12---|    
B|--------------------0-------0--|0-----------------------12-----|
G|--------------------1-------1--|1--------------------13-----13-|
D|--------------------2-------2--|2------------------14----------|
A|-------------------------------|-------------------------------|
E|-------------------------------|-------------------------------|

e|-----14/16----- ------- -------|------- 17-\16- 16-\14- 14\12-10
B|-------------------------------|-------------------------------|
G|-------------------------------|-------------------------------|
D|-------------------------------|-------------------------------|
A|-------------------------------|-------------------------------|
E|-------------------------------|-------------------------------|





  B                               F#
e|2------ 2---2-- 2------ 2------|2------ 2---2-- 2------ 2------|
B|4-------4---4---4-------4------|2-------2---2---2-------2------|
G|4-------4---4---4-------4------|3-------3---3---3-------3------|
D|4-------4---4---4-------4------|4-------4---4---4-------4------|
A|2-------2---2---2-------2------|4-------4---4---4-------4------|
E|-------------------------------|2-------2---2---2-------2------|
          Looking out from    my  lonely      gloom,
  (Aaaaaaaaaaaaaaaaaaaaaaaaaaaaahhhhhhhhhhhhhhhhhhhhhhhh 
e|11----- ------- ------- -------|------- ------- ------- -------|
B|12-----------------------------|-------------------------------|  
G|11-----------------------------|-------------------------------|
D|-------------------------------|-------------------------------|
A|-------------------------------|-------------------------------|
E|-------------------------------|-------------------------------|

e|11----- ------- ------- -------|------- ------- ------- -------|
B|----12-------------------------|-------------------------------|
G|--------11---------------------|-------------------------------|
D|-------------------------------|-------------------------------|
A|-------------------------------|-------------------------------|
E|-------------------------------|-------------------------------|




                                          X   X   X   X x x x X 
  A5          Amaj7       F#m7    E           x   x   x
e|------- ------- ------- 0------|0------ ------- ------- -------|
B|5-----------5-----------2------|0------------------------------|
G|2-----------2-----------2------|1------------------------------|
D|2-----------2-----------2------|2------------------------------|
A|0------------------------------|2------------------------------|
E|------------4-----------2------|0------------------------------|
  day         after               day
  day         after               day)  
e|------- ------- ------- -------|------- ------- ------- ------12
B|-------------------------------|--------------------------9-12-|
G|-------------------------------|------------------------9------|
D|-------------------------------|----------------------9--------|
A|-------------------------------|--------------------11---------|
E|-------------------------------|-------------------------------|     

e|------- ------- ------- -------|------- ------- ------- ----12-|
B|-------------------------------|--------9---10--12--14--16--14-|
G|-------------------------------|--------9---11--13--14--16-----|
D|-------------------------------|-------------------------------|        
A|-------------------------------|-------------------------------|      
E|-------------------------------|-------------------------------|





  B                               F#
e|2------ 2---2-- 2---2-- 2------|2------ 2---2-- 2---2-- 2------|
B|4-------4---4---4---4---4------|2-------2---2---2---2---2------|
G|4-------4---4---4---4---4------|3-------3---3---3---3---3------|
D|4-------4---4---4---4---4------|4-------4---4---4---4---4------|
A|2-------2---2---2---2---2------|4-------4---4---4---4---4------|
E|-------------------------------|2-------2---2---2---2---2------|
          Bring it home,  maybe   make it     soon 
 (Aaaaaaaaaaaaaaaaaaaaaaaaaaaaahhhhhhhhhhhhhhhhhhhhhhhh 
e|11----- ------- ------- -------|------- ------- ------- -------|
B|12----------------------4------|2------------------------------|
G|11----------------------4------|3------------------------------|
D|------------------------4------|4------------------------------|
A|-------------------------------|-------------------------------|
E|-------------------------------|-------------------------------|

e|14----- ------- ------- -------|------- ------- ------- -------|
B|16-----------------------------|-------------------------------|
G|-------------------------------|-------------------------------|
D|-------------------------------|-------------------------------|
A|-------------------------------|-------------------------------|
E|-------------------------------|-------------------------------|





  A5          Amaj7       F#m7    E
e|------- ------- ------- 0------|0------ ------- 0---0-- 0------|
B|5-------5---5-----------2------|0---------------0---0---0------|
G|2-------2---2-----------2------|1---------------1---1---1------|
D|2-------2---2-----------2------|2---------------2---2---2------|
A|0-------0----------------------|2---------------2---2---2------|
E|------------4-----------2------|0---------------0---0---0------|   
  I           give        my      love    to  you
  I           give        my      love    Ooooooooooooooooooooooo
e|0------ ----0-- ------- 0------|----12- 11--12- ----12- 11--12-|
B|2-----------0-----------0------|----------------12-------------|
G|2-----------1-----------2------|-------------------------------|
D|------------------------4------|-------------------------------|
A|-------------------------------|-------------------------------|
E|-------------------------------|-------------------------------|
  A           E           F#m11



  x     x X   x     x x x X X x
  F#m11                           Abm+5
e|0------ 0---0-- 0------ 0---0--|0------ 0---0-- 0---0-- 0---0--|
B|0-------0---0---0-------0---0--|0-------0---0---0---0---0---0--|
G|2-------2---2---2-------2---2--|4-------4---4---4---4---4---4--|
D|4-------4---4---4-------4---4--|6-------6---6---6---6---6---6--|
A|4-------4---4---4-------4---4--|6-------6---6---6---6---6---6--|
E|0-------0---0---0-------0---0--|0-------0---0---0---0---0---0--|
  oooooooooooooohhhhhhhhhhhhhhhhhhhhhhhh
e|----12- 11--12- ----12- 11--12-|----12- 11--12- ----12- 11--12-|
B|12--------------12-------------|12--------------12-------------|
G|-------------------------------|-------------------------------|
D|-------------------------------|-------------------------------|
A|-------------------------------|-------------------------------|
E|-------------------------------|-------------------------------|

e|------- ------- -----12/14-----|12----- ----16- -\--14- 14-----|
B|-------------------------------|-------------------------------|
G|-------------------------------|-------------------------------|
D|-------------------------------|-------------------------------|
A|-------------------------------|-------------------------------|
E|-------------------------------|-------------------------------|



  X           X           X       X   X
                                     (.
  Aadd9       Abm+5       F#m11       E
e|0------ ----0-- ------- 0------|----0-- ------- ------- -------|
B|0-----------0-----------0------|----0--------------------------|
G|6-----------4-----------2------|----1--------------------------|
D|7-----------6-----------4------|----2--------------------------|
A|7-----------6-----------4------|----2--------------------------|
E|0------------------------------|----0--------------------------|

e|----9-- ----11- ------- 9------|------- ------- ------- -------|
B|10------10------12----------10-|----9--------------------------|
G|--------------------13---------|11--9--------------------------|
D|-------------------------------|-------------------------------|
A|-------------------------------|-------------------------------|
E|-------------------------------|-------------------------------|









        B  Bend
        R  Release
        /  Slide up
        \  Slide down
        H  Hammer-on
        P  Pull-off
        ~  Vibrato
        +  Harmonic
        x  Mute note
        .  Play note like a dot in standard notation
        ^  Ties two notes together
        (. Pause
comments
print report bad tab
1 comment total.
0 reply
StarChild69 wrote on March 22 2008, 03:01 pm

This tune has a lot of cool modulations in it with the 9 & 11 chords and voicings. Lengendary band!

I want to post or [tab]
guest
You may want to rate the tab now too:
select rating
Please do not post tabs as comments. Select "correction" instead!