Oops, an error
Loading. Please wait.

No Matter What Tab

ver2
ver2

Whole song

Interactive

More versions @911Tabs.com
39,301 views 87 this week
5 commentsread comments
1 2 3 4 5
excellent!
x 10
Autoscroll
+/-
esc
set tempo
stop
Contributor
Hey! There's an official Ultimate Guitar app which is ideal
for learning songs when you're away from computer. Get the app
WARNING: You are trying to view
                                    content from Ultimate-Guitar.com
                                    in an unauthorized application,
                                    which is prohibited.

                                    Please use an official Ultimate
                                    Guitar Tabs application for iPhone,
                                    iPad or Android to access legitimate
                                    chords, guitar, bass, and drum tabs
                                    from Ultimate-Guitar.com database.

                                    Type "ultimate guitar tabs" in Apple
                                    App Store's or Android Market's
                                    search to find the application.
-------------------------------------------------------------------

  BADFINGER - NO MATTER WHAT (P. Ham) Released as a single by APPLE 
              RECORDS on 9th November 1970 with BETTER DAYS as the 
              B side. 
            
-------------------------------------------------------------------

  Tabbed by:PJVillanueva








No matter what you are 
I will always be with you 
Doesn't matter what you do girl, oh girl with you
No matter what you do 
I will always be around 
Won't you tell me what you found girl, oh girl won't you
Knock down the old brick wall, and be a part of it all 
Nothing to say, nothing to see, nothing to do 
If you would give me all, as I would give it to you 
Nothing would be, nothing would be, nothing would be
No matter where you go 
There will always be a place 
Can't you see in my face girl, oh girl don't you
Knock down the old brick wall, and be a part of it all 
Nothing to say, nothing to see, nothing to do 
If you would give me all, as I would give it to you 
Nothing would be, nothing would be, nothing would be 
No matter what you are 
I will always be with you 
Doesn't matter what you do girl, oh girl want you 
Oh girl, you girl, want you 
Oh girl, you girl, want you





                                  A
e|------- ------- ------- -------|------- ------- ------- -------|
B|-------------------------------|2-----------2-------2---2------|
G|-------------------------------|2-----------2-------2---2---2--|
D|-------------------------------|2-----------2-------2---2H4----|
A|-------------------------------|0-----------0------------------|
E|-------------------------------|-------------------------------|





e|------- ------- ------- -------|------- ------- ------- -------|
B|2-----------2-------2---2---2--|2-----------2-------2---2---2--|
G|2-----------2-------2---2---2--|2-----------2-------2---2---2--|
D|2-----------2-------2---2H4-2--|2-----------2-------2---2H4-2--|
A|0-----------0-------0---0---0--|0-----------0-------0---0---0--|
E|-------------------------------|-------------------------------|





e|------- ------- ------- -------|------- ------- ------- -------|  
B|2------------------------------|2-----------2-------2---2---2--|
G|2------------------------------|2-----------2-------2---2---2--|
D|2------------------------------|2-----------2-------2---2---2--|
A|0------------------------------|0-----------0------------------|
E|-------------------------------|-------------------------------|
      No  matter  what    you     are 
e|------- ------- ------- -------|------- 5------ ------- 5------|
B|-------------------------------|--------5---------------5------|
G|-------------------------------|--------6---------------6------|
D|-------------------------------|--------7---------------7------|
A|-------------------------------|--------7---------------7------|
E|-------------------------------|--------5---------------5------|




                                  Bm
e|------- ------- ------- -------|2------ ----2-- ----2-- 2---2--|
B|2-----------2-------2---2------|3-----------3-------3---3---3--|
G|2-----------2-------2---2------|4-----------4-------4---4---4--|
D|2-----------2-------2---2------|4-----------4-------4---4---4--|
A|0-----------0-------0---0------|2-----------2-------2---2---2--|
E|-------------------------------|-------------------------------|
      I      will always  be with you 
e|------- 7------ ------- 7------|------- 7------ ------- 7------|
B|--------7---------------7------|--------7---------------7------|
G|--------7---------------7------|--------7---------------7------|
D|--------9---------------9------|--------9---------------9------|
A|--------9---------------9------|--------9---------------9------|
E|--------7---------------7------|--------7---------------7------|




                                  D           E
e|2------ ----2-- ----2-- 2------|2------ ----0-- ------- -------|
B|3-----------3-------3---3------|3-----------0------------------|
G|4-----------4-------4---4------|2-----------1------------------|
D|4-----------4-------4---4------|0-----------2------------------|
A|2-----------2-------2---2------|------------2------------------|
E|-------------------------------|------------0------------------|
      Doesn't     matter what you do          girl, 
e|------- 7------ ------- 7------|------- ------- ------- -------|
B|--------7---------------7------|7------------------------------|
G|--------7---------------7------|7-----------9-----------9------|
D|--------9---------------9------|7-----------9-----------9------|
A|--------9---------------9------|5-----------7-----------7------|
E|--------7---------------7------|-------------------------------|




  D           E                   A
e|2------ ----0-- ------- -------|0------ 0---0-- ----0-- 0---0--|
B|3-----------0------------------|2-------2---2-------2---2---2--|
G|2-----------1------------------|2-------2---2-------2---2---2--|
D|0-----------2------------------|2-------2---2-------2---2---2--|
A|------------2------------------|0-------0---0-------0---0---0--|
E|------------0------------------|-------------------------------|
  oh          girl        with    you
e|------- ------- ------- -------|5------ ----5-- ----5-- 5---5--|
B|7------------------------------|5-----------5-------5---5---5--|
G|7-----------9-------9---9------|6-----------6-------6---6---6--|
D|7-----------9-------9---9------|7-----------7-------7---7---7--|
A|5-----------7-------7---7------|7-----------7-------7---7---7--|
E|-------------------------------|5-----------5-------5---5---5--|




  E                               A
e|0------ ------- ------- -------|------- ------- ------- -------|
B|0------------------------------|2-----------2-------2---2---2--|
G|1------------------------------|2-----------2-------2---2---2--|
D|2------------------------------|2-----------2-------2---2---2--|
A|2------------------------------|0-----------0------------------|
E|0------------------------------|-------------------------------|
      No  matter  what    you     do 
e|0------ ------- ------- -------|------- 5------ ------- 5------|
B|0------------------------------|--------5---------------5------|
G|1------------------------------|--------6---------------6------|
D|2------------------------------|--------7---------------7------|
A|2------------------------------|--------7---------------7------|
E|0------------------------------|--------5---------------5------|




                                  Bm
e|------- ------- ------- -------|2------ ----2-- ----2-- 2---2--|
B|2-----------2-------2---2------|3-----------3-------3---3---3--|
G|2-----------2-------2---2------|4-----------4-------4---2---2--|
D|2-----------2-------2---2------|4-----------4-------4---4---4--|
A|0-----------0-------0---0------|2-----------2-------2---2---2--|
E|-------------------------------|-------------------------------|
      I      will always  be around
e|------- 5------ ------- 5------|------- 7------ ------- 7------|
B|--------5---------------5------|--------7---------------7------|
G|--------6---------------6------|--------7---------------7------|
D|--------7---------------7------|--------9---------------9------|
A|--------7---------------7------|--------9---------------9------|
E|--------5---------------5------|--------7---------------7------|

 


                                  D           E
e|2------ ----2-- ----2-- 2------|2------ ----0-- ------- -------|
B|3-----------3-------3---3------|3-----------0-----------0------|
G|4-----------4-------4---2------|2-----------1------------------|
D|4-----------4-------4---4------|0-----------2------------------|
A|2-----------2-------2---2------|------------2------------------|
E|-------------------------------|------------0------------------|
      Won't   you tell me what you found      girl, 
e|------- 7------ ------- 7------|------- ------- ------- -------|
B|--------7---------------7------|7------------------------------|
G|--------7---------------7------|7-----------9-------9---9------|
D|--------9---------------9------|7-----------9-------9---9------|
A|--------9---------------9------|5-----------7-------7---7------|
E|--------7---------------7------|-------------------------------|




  D           E                   A
e|2------ ----0-- ----0-- 0------|------- ------- ------- -------|
B|3-----------0-------0---0------|--------2-----------2----------|
G|2-----------1-------1---1------|2-------2---2-------2---2------|
D|0-----------2-------2---2------|2-------2---2-------2---2------|
A|------------2-------2---2------|0-----------0-----------0------|
E|------------0-------0---0------|-------------------------------|
  oh          girl        won't   you
e|------- ------- ------- -------|------- ------- ----0-- -------|
B|7------------------------------|--------2---3-------3-------3--|
G|7-----------9-------9---9------|--------2---2-------2-------2--|
D|7-----------9-------9---9------|-------------------------------|
A|5-----------7-------7---7------|-------------------------------|
E|-------------------------------|-------------------------------|




                                          F#m   
e|------- ------- ------- -------|------- 5------ ----5-- -------| 
B|--------2-----------2----------|--------2-----------2----------|
G|2-------2---2-------2---2------|--------2-----------2----------|
D|2-------2---2-------2---2------|--------4-----------4----------|
A|0-----------0-----------0------|--------4-----------4----------|
E|-------------------------------|--------2-----------2----------|
                                  Knock down  the old     brick  
e|------- ------- ------- -------|------- ----2-- ------- 2------|
B|----2-------3-------2---0------|------------5-----------5------|
G|----2-------2-------2---2---0--|------------2-----------2------|
D|-------------------------------|------------4-----------4------|
A|-------------------------------|------------4-----------4------|
E|-------------------------------|------------2-----------2------|
                                              F#m7



          B                               E7
e|------- 7------ ----7-\ -------|------- 0------ ----0-- -------|
B|--------7-----------7-\--------|--------3-----------3----------|
G|--------8-----------8-\--------|--------1-----------1----------|
D|--------9-----------9-\--------|--------2-----------2----------|
A|--------9-----------9-\--------|--------2-----------2----------|
E|--------7-----------7-\--------|--------0-----------0----------|
  wall,                       and be      a   part    of  it 
e|------- 2------ ------- -------|0------ ----0-- ----0-- -------|
B|4-------4---4-------4----------|3-----------3-------3----------|
G|2-------2---2-------2----------|1-----------1-------1----------|
D|4-------4---4-------4----------|2-----------2-------2----------|
A|2-------2---2-------2----------|2-----------2-------2----------|
E|-------------------------------|0-----------0-------0----------|
  B7



          A                               D
e|------- 5------ ----5-- -------|------- 5------ ----5-\ -------|
B|--------5-----------5----------|--------7-----------7-\--------|
G|--------6-----------6----------|--------7-----------7-\--------|
D|--------7-----------7----------|--------7-----------7-\--------|
A|--------7-----------7----------|--------5-----------5-\--------|
E|--------5-----------5----------|-------------------------------|
  all             Nothing     to  say,            nothing     to 
e|------- ------- ------- -------|------- ------- ------- -------|
B|------------2-------2----------|1-----------1-------1----------|
G|0-----------0-------0----------|2-----------2-------2-------2--|
D|2-----------2-------2----------|0-----------0-------0-------0--|
A|0-----------0-------0----------|-------------------------------|
E|-------------------------------|-------------------------------|
  A7                              D7



          Bm                      A
e|------- ------- ------- -------|------- ------- ------- -------|
B|--------7-----------7-\--------|--------2-----------2----------|
G|--------7-----------7-\--------|2-------2---2-------2---2------|
D|--------9-----------9-\--------|2-------2---2-------2---2------|
A|--------9-----------9-\--------|0-----------0-----------0------|
E|--------7-----------7-\--------|-------------------------------|
  see,            nothing     to do 
e|------- ------- ------- -------|------- ------- ----0-- -------|
B|3-----------3-------3----------|----2-------3-------3-------3--|
G|4-----------4-------4-------4--|2---2-------2-------2-------2--|
D|4-----------4-------4-------4--|2------------------------------|
A|2-----------2-------2-------2--|0------------------------------|
E|-------------------------------|-------------------------------|




                                          F#m
e|------- ------- ------- -------|------- 5------ ----5-- -------|
B|--------2-----------2----------|--------2-----------2----------|
G|2-------2---2-------2---2------|--------2-----------2----------|
D|2-------2---2-------2---2------|--------4-----------4----------|
A|0-----------0-----------0------|--------4-----------4----------|
E|-------------------------------|--------2-----------2----------|
                                  If  you    would give   me  all, 
e|------- ------- ------- -------|------- ----2-- ------- 2------|
B|----2-------0------------------|------------5-----------5------|
G|----2-------2-------2----------|------------2-----------2------|
D|--------------------2----------|------------4-----------4------|
A|-------------------------------|------------4-----------4------|
E|-------------------------------|------------2-----------2------|
                                              F#m7



          B                               E
e|------- ------- ----7-\ -------|------- 0------ ----0-- -------|
B|--------7-----------7-\--------|--------0-----------0----------|
G|--------8-----------8-\--------|--------1-----------1----------|
D|--------9-----------9-\--------|--------2-----------2----------|
A|--------9-----------9-\--------|--------2-----------2----------|
E|--------7-----------7-\--------|--------0-----------0----------|
                              as  I       would give  it  to 
e|------- 2------ ------- -------|0------ ----0-- ----0-- -------|
B|4-------4-----------4----------|3-----------3-------3-------2--|
G|2-------2-----------2----------|1-----------1-------1-------0--|
D|4-------4-----------4----------|2-----------2-------2-------2--|
A|2-------2-----------2----------|2-----------2-------2-------0--|
E|-------------------------------|0-----------0-------0----------|
  B7                              E7                          A7



          A                               D
e|------- 5------ ------- -------|------- 5------ ----5-\ -------|
B|--------5-----------2----------|--------7-----------7-\--------|
G|--------6-----------0-------0--|--------7-----------7-\--------|
D|--------7-----------2----------|--------7-----------7-\--------|
A|--------7-----------0----------|--------5-----------5-\--------|
E|--------5----------------------|-------------------------------|
  you             Nothing   would be,             nothing     would 
e|------- ------- ------- -------|------- ------- ------- -------|
B|------------2-------2-------2--|1-----------1-------1----------|
G|------------0-------0-------0--|2-----------2-------2----------|
D|------------2-------2-------2--|0-----------0-------0----------|
A|------------0-------0-------0--|-------------------------------|
E|-------------------------------|-------------------------------|
                                  D7



          Bm                      G5
e|------- 2------ ----2-- -------|------- ------- ------- -------|
B|--------3-----------3----------|-------------------------------|
G|--------4-----------4----------|-------------------------------|
D|--------4-----------4----------|5---5---5---5---5-------5-\----|
A|--------2-----------2----------|5---5---5---5---5-------5-\----|
E|-------------------------------|3---3---3---3---3-------3-\----|
  be,             nothing   would be
e|------- ------- ------- -------|------- ------- ------- -------|
B|3-----------3-------3----------|-------------------------------|
G|4-----------4-------4----------|-------------------------------|
D|4-----------4-------4----------|5---5---5---5---5---5---5------|
A|2-----------2-------2----------|5---5---5---5---5---5---5------|
E|-------------------------------|3---3---3---3---3---3---3------|




  E                               A
e|0------ ------- ------- -------|------- ------- ------- -------|
B|0------------------------------|2-----------2-------2---2---2--|
G|1------------------------------|2-----------2-------2---2---2--|
D|2------------------------------|2-----------2-------2---2---2--|
A|2------------------------------|0-----------0------------------|
E|0------------------------------|-------------------------------|
      No  matter  where   you     go 
e|------- ------- ------- -------|------- 5------ ------- 5------|
B|-------------------------------|--------5---------------5------|
G|-------------------------------|--------6---------------6------|
D|-------------------------------|--------7---------------7------|
A|-------------------------------|--------7---------------7------|
E|-------------------------------|--------5---------------5------|
  
e|------- ------- ------- -------|------- ------- ----0-- -------|
B|-------------------------------|--------2---3-------3------3---|
G|-------------------------------|2-------2---2-------2------2---|
D|2------------------------------|2-------2---2-------2------2---|
A|2------------------------------|0------------------------------|
E|0------------------------------|-------------------------------| 




                                  Bm
e|------- ------- ------- -------|2------ ----2-- ----2-- ----2--|
B|2-----------2-------2---2------|3-----------3-------3-------3--|
G|2-----------2-------2---2------|4-----------4-------4-------4--|
D|2-----------2-------2---2------|4-----------4-------4-------4--|
A|0-----------0-------0---0------|2-----------2-------2-------2--|
E|-------------------------------|-------------------------------|
      There   will always be  a   place 
e|------- 5------ ------- 5------|------- 7------ ------- 7------|
B|--------5---------------5------|--------7---------------7------|
G|--------6---------------6------|--------7---------------7------|
D|--------7---------------7------|--------9---------------9------|
A|--------7---------------7------|--------9---------------9------|
E|--------5---------------5------|--------7---------------7------|

e|------- ------- ------- -------|------- ------- ----2-- -------|
B|----2-------0-------2----------|----3-------5---------------5--|
G|----2-------2-------2----------|----4-------2---------------2--|
D|----2-------2-------2----------|----4-------4---------------4--|
A|-------------------------------|2------------------------------|
E|-------------------------------|-------------------------------|




                                  D           E
e|2------ ----2-- ----2-- 2------|2------ ----0-- ----0-- ----0--|
B|3-----------3-------3---3------|3-----------0-------0-------0--|
G|4-----------4-------4---4------|2-----------1-------1-------1--|
D|4-----------4-------4---4------|0-----------2-------2-------2--|
A|2-----------2-------2---2------|------------2-------2-------2--|
E|-------------------------------|------------0-------0-------0--|
      Can't   you see it  in my   face        girl, 
e|------- 7------ ------- 7------|------- ------- ------- -------|
B|--------7---------------7------|7------------------------------|
G|--------7---------------7------|7-----------9-------9---9------|
D|--------9---------------9------|7-----------9-------9---9------|
A|--------9---------------9------|5-----------7-------7---7------|
E|--------7---------------7------|-------------------------------|
      
e|------- ------- ------- -------|------- ------- ------- -------|
B|----3-------2------------------|-------------------------------|
G|----2-------2-------4----------|--------2----------------------|
D|----4-------4-------4----------|0-/-4--------------------------|
A|-------------------------------|------------------------2------|
E|-------------------------------|------------0-----/-4-------4--|




  D           E                   A
e|2------ ----0-- ----0-- 0------|0------ 0---0-- ----0-- ----0--|
B|3-----------0-------0---0------|2-------2---2-------2-------2--|
G|2-----------1-------1---1------|2-------2---2-------2-------2--|
D|0-----------2-------2---2------|2-------2---2-------2-------2--|
A|------------2-------2---2------|0-------0---0-------0-------0--|
E|------------0-------0---0------|-------------------------------|
  oh          girl        won't   you
e|------- ------- ------- -------|------- ------- ------- -------|
B|7------------------------------|-------------------------------|
G|7-----------9-------9---9------|6-----------6-------6---6---6--|
D|7-----------9-------9---9------|7-----------7-------7---7---7--|
A|5-----------7-------7---7------|7-----------7-------7---7---7--|
E|-------------------------------|5-----------5-------5---5---5--|

e|------- ------- ------- -------|------- ------- ----0-- -------|
B|-------------------------------|----2-------3-------3-------3--|
G|--------2----------------------|2---2-------2-------2-------2--|
D|0-/-4--------------------------|2---2-------2---------------2--|
A|------------------------2------|0------------------------------|
E|------------0-----/-4-------4--|-------------------------------|



                                   Bottleneck guitar solo

e|------- ----0-- ----0-- ----0--|------- ----0-- ----0-- ----0--|
B|2-------2---2-------2-------2--|2-----------2-------2-------2--|
G|2-------2---2-------2-------2--|2-----------2-------2-------2--|
D|2-------2---2-------2-------2--|2-----------2-------2-------2--|
A|0-------0---0-------0-------0--|0-----------0-------0-------0--|
E|-------------------------------|-------------------------------|    

e|------- ------- ------- -------|------- ------- ------- -------|
B|----2-------0------------------|-------------------------------|
G|----2-------2-------2----------|9-----------6-----/-4---2------|
D|----2-------2-------2----------|-------------------------------|
A|-------------------------------|-------------------------------|
E|-------------------------------|-------------------------------|

                                              
    Solo

                                  Bm
e|0------ ----0-- ----0-- 0------|2------ ----2-- ----2-- ----2--|
B|2-----------2-------2---2------|3-----------3-------3-------3--|
G|2-----------2-------2---2------|4-----------4-------4-------4--|
D|2-----------2-------2---2------|4-----------4-------4-------4--|
A|0-----------0-------0---0------|2-----------2-------2-------2--|
E|-------------------------------|-------------------------------|

e|------- ------- ------- -------|------- ------- ------- -------|
B|-------------------------------|-------------------------------|
G|9-----------6-----/-4---2-----/|11--------/-7-----\-6-\-4-----/|
D|-------------------------------|-------------------------------|
A|-------------------------------|-------------------------------|
E|-------------------------------|-------------------------------|


    

                                  D           E
e|2------ ----2-- ----2-- 2------|2------ ----0-- ------- -------|
B|3-----------3-------3---3------|3-----------0------------------|
G|4-----------4-------4---4------|2-----------1------------------|
D|4-----------4-------4---4------|0-----------2------------------|
A|2-----------2-------2---2------|------------2------------------|
E|-------------------------------|------------0------------------|

e|------- ------- ------- -------|------- ------- ------- -------|
B|-------------------------------|-------------------------------|
G|11--------/-7-----\-6-\-4----/-|7---------7/9------------------|
D|-------------------------------|-------------------------------|
A|-------------------------------|-------------------------------|
E|-------------------------------|-------------------------------|




  D           E                   A
e|2------ ----0-- ------- -------|0------ ----0-- ----0-- ----0--|
B|3-----------0------------------|2-----------2-------2-------2--|
G|2-----------1------------------|2-----------2-------2-------2--|
D|0-----------2------------------|2-----------2-------2-------2--|
A|------------2------------------|0-----------0-------0-------0--|
E|------------0------------------|-------------------------------|

e|------- ------- ------- -------|----2-- ------- ----0-- -------|
B|-------------------------------|----2-------3-------3------3---|
G|-------------------------------|2---2-------2-------2------2---|
D|-------------------------------|2-----------2--------------2---|
A|-------------------------------|0------------------------------|
E|-------------------------------|-------------------------------| 
                                                    
e|------- ------- ------- -------|------- ------- ------- -------|
B|-------------------------------|-------------------------------|
G/7---------7/9------------------|--------------------2------/---|
D|-------------------------------|-------------------------------|
A|-------------------------------|-------------------------------|
E|-------------------------------|-------------------------------|

                                                       


                                          F#m
e|0------ ----0-- ----0-- ----0--|------- 5------ ----5-- ----5--| 
B|2-----------2-------2-------3--|--------2-----------2-------2--|
G|2-----------2-------2-------2--|--------2-----------2-------2--|
D|2-----------2-------2-------2--|--------4-----------4-------4--|
A|0-----------0-------0-------0--|--------4-----------4-------4--|
E|-------------------------------|--------2-----------2-------2--|
                                  Knock down  the old     brick  
e|------- ------- ------- -------|------- ------- ------- -------|
B|----2-------0-------3----------|-------------------------------|
G|----2-------2-------2----------|-------------------------------|
D|----2-------2-------2----------|-------------------------------|
A|-------------------------------|-------------------------------|
E|-------------------------------|-------------------------------|

e|------- ------- ------- -------|------- ------- ------- -------|
B|-------------------------------|-------------------------------|
G|14-----------------------------|-------------------------------|
D|-------------------------------|-------------------------------|
A|-------------------------------|-------------------------------|
E|-------------------------------|-------------------------------|





          B                               E7
e|------- 7------ ----7-- ----7--|------- 0------ ----0-- -------|  
B|--------7-----------7-------7--|--------3-----------3----------|
G|--------8-----------8-------8--|--------1-----------1----------|
D|--------9-----------9-------9--|--------2-----------2----------|
A|--------9-----------9-------9--|--------2-----------2----------|
E|--------7-----------7-------7--|--------0-----------0----------|
  wall,                       and be      a   part    of  it 
e|------- ------- ------- -------|------- ------- ------- -------|
B|------------4------------------|-------------------------------|
G|--------2-----------2----------|-------------------------------|
D|----4--------------------------|-------------------------------|
A|2------------------------------|-------------------------------|
E|-------------------------------|-------------------------------|
  B7



          A                               D
e|------- 5------ ----5-- -------|------- 5------ ----5-\ -------|
B|--------5-----------5----------|--------7-----------7-\--------|
G|--------6-----------6----------|--------7-----------7-\--------|
D|--------7-----------7----------|--------7-----------7-\--------|
A|--------7-----------7----------|--------5-----------5-\--------|
E|--------5-----------5----------|-------------------------------|
  all             Nothing     to  say,            nothing     to 
e|------- ------- ------- -------|------- ----2-- ------- -------|
B|------------2------------------|--------3-----------3----------|
G|--------0----------------------|----2--------------------------|
D|----2--------------------------|0------------------------------|
A|0------------------------------|-------------------------------|
E|-------------------------------|-------------------------------|
  A7
  


          Bm                      A
e|------- ------- ------- -------|------- ------- ------- -------|
B|--------7-----------7-\--------|--------2-----------2----------|
G|--------7-----------7-\--------|2-------2---2-------2---2------|
D|--------9-----------9-\--------|2-------2---2-------2---2------|
A|--------9-----------9-\--------|0-----------0-----------0------|
E|--------7-----------7-\--------|-------------------------------|
  see,            nothing     to do 
e|------- ----2-- ------- -------|------- ------- ----0-- -------|
B|--------3-----------3----------|--------2---3-------3-------3--|
G|----4--------------------------|--------2---2-------2-------2--|
D|4------------------------------|--------2---2---------------2--|
A|-------------------------------|-------------------------------|
E|-------------------------------|-------------------------------|




                                          F#m
e|------- ------- ------- -------|------- 5------ ----5-- -------|
B|--------2-----------2----------|--------2-----------2----------|
G|2-------2---2-------2---2------|--------2-----------2----------|
D|2-------2---2-------2---2------|--------4-----------4----------|
A|0-----------0-----------0------|--------4-----------4----------|
E|-------------------------------|--------2-----------2----------|
                                  If  you    would give   me  all, 
e|------- ------- ------- -------|------- ------- ------- -------|
B|----2-------0------------------|-------------------------------|
G|----2-------2-------2----------|-------------------------------|
D|----2-------2-------2----------|-------------------------------|
A|-------------------------------|-------------------------------|
E|-------------------------------|-------------------------------|




          B                   B7          E
e|------- ------- ------- -------|------- 0------ ----0-- -------|
B|--------7-----------7-------10-|--------0-----------0----------|
G|--------8-----------8----------|--------1-----------1----------|
D|--------9-----------9----------|--------2-----------2----------|
A|--------9-----------9----------|--------2-----------2----------|
E|--------7-----------7----------|--------0-----------0----------|
                              as  I       would give  it  to 
e|------- ------- ------- -------|------- ------- ------- -------|
B|-------------------------------|------------3------------------|
G|--------2---2------------------|--------1-----------1----------|
D|-------------------------------|----2--------------------------|
A|-------------------------------|-------------------------------|
E|-------------------------------|-------------------------------|
                                  E7




          A                               D
e|------- 5------ ----5-- -------|------- 5------ ----5-- -------|
B|--------5-----------5----------|--------7-----------7----------|
G|--------6-----------6----------|--------7-----------7----------|
D|--------7-----------7----------|--------7-----------7----------|
A|--------7-----------7----------|--------5-----------5----------|
E|--------5-----------5----------|-------------------------------|
  you             Nothing   would be,             nothing     would 
e|------- ------- ------- -------|------- ----2-- ------- -------|
B|------------2------------------|--------3-----------3----------|
G|--------0-----------0----------|----2--------------------------|
D|----2--------------------------|0------------------------------|
A|0------------------------------|-------------------------------|
E|-------------------------------|-------------------------------|
  A7





          Bm                      G5
e|------- 2------ ----2-- -------|------- ------- ------- -------|
B|--------3-----------3----------|-------------------------------|
G|--------4-----------4----------|-------------------------------|
D|--------4-----------4----------|5---5---5---5---5-------5-\----|
A|--------2-----------2----------|5---5---5---5---5-------5-\----|
E|-------------------------------|3---3---3---3---3-------3-\----|
  be,             nothing   would be
e|------- ----2-- ------- -------|------- ------- ------- -------|
B|--------3-----------3----------|-------------------------------|
G|----4--------------------------|-------------------------------|
D|4------------------------------|------------------------7------|
A|-------------------------------|----------------5--7/9------9\-|
E|-------------------------------|3-----5/7----------------------|


                      x X x x x
      x   x       x   x       x
  E                               A
e|0------ ------- ------- -------|------- ------- ------- -------|
B|0------------------------------|2-----------2-------2-------2--|
G|1------------------------------|2-----------2-------2-------2--|
D|2------------------------------|2-----------2-------2-------2--|
A|2------------------------------|0-----------0------------------|
E|0------------------------------|-------------------------------|  
      No  matter  what    you     are
e|------- ------- ------- -------|------- 5------ ------- 5------|
B|-------------------------------|--------5---------------5------|
G|-------------------------------|--------6---------------6------|
D|-------------------------------|--------7---------------7------|
A|-------------------------------|--------7---------------7------|
E|-------------------------------|--------5---------------5------|
  
e|------- ------- ------- -------|------- ------- ----0-- -------|
B|-------------------------------|--------2---3-------3------3---|
G|-------------------------------|2-------2---2-------2------2---|
D|2------------------------------|2-------2---2--------------2---|
A|-------------------------------|0------------------------------|
E|-------------------------------|-------------------------------| 




                                  Bm
e|------- ------- ------- -------|2------ ----2-- ----2-- ----2--|
B|2-----------2-------2----------|3-----------3-------3-------3--|
G|2-----------2-------2----------|4-----------4-------4-------4--|
D|2-----------2-------2----------|4-----------4-------4-------4--|
A|0-----------0-------0----------|2-----------2-------2-------2--|
E|-------------------------------|-------------------------------|
      I      will always  be  with you 
e|------- 5------ ----5-- 5------|------- 7------ ------- 7------|
B|--------5-----------5---5------|--------7---------------7------|
G|--------6-----------6---6------|--------7---------------7------|
D|--------7-----------7---7------|--------9---------------9------|
A|--------7-----------7---7------|--------9---------------9------|
E|--------5-----------5---5------|--------7---------------7------|

e|------- ------- ------- -------|------- ------- ----2-- -------|
B|----2-------0------------------|----3-------5---------------5--|
G|----2-------2-------2----------|----4-------2---------------2--|
D|----2-------2-------2----------|----4-------4---------------4--|
A|-------------------------------|2------------------------------|
E|-------------------------------|-------------------------------|




                                  D           E
e|2------ ----2-- ----2-- 2------|2------ ----0-- ----0-- 0------|
B|3-----------3-------3---3------|3-----------0-------0---0------|
G|4-----------4-------4---4------|2-----------1-------1---1------|
D|4-----------4-------4---4------|0-----------2-------2---2------|
A|2-----------2-------2---2------|------------2-------2---2------|
E|-------------------------------|------------0-------0---0------|
      Doesn't     matter what you do          girl, 
e|------- 7------ ------- 7------|------- ------- ------- -------|
B|--------7---------------7------|-------------------------------|
G|--------7---------------7------|-------------------------------|
D|--------9---------------9------|-------------------------------|
A|--------9---------------9------|-------------------------------|
E|--------7---------------7------|-------------------------------|

e|------- ------- ------- -------|------- ------- ------- -------|
B|----3-------2------------------|-------------------------------|     
G|----2-------2-------4----------|--------2----------------------|
D|----4-------4-------4----------|0-/-4--------------------------|
A|-------------------------------|------------------------2------|  
E|-------------------------------|------------0-----/-4-------4--|




  D           E                   A
e|2------ ----0-- ----0-- 0------|0------ 0---0-- ----0-- ----0--|
B|3-----------0-------0---0------|2-------2---2-------2-------2--|
G|2-----------1-------1---1------|2-------2---2-------2-------2--|
D|0-----------2-------2---2------|2-------2---2-------2-------2--|
A|------------2-------2---2------|0-------0---0-------0-------0--|
E|------------0-------0---0------|-------------------------------|
  oh          girl        with    you    
e|------- ------- ------- -------|------- ------- ----0-- -------|
B|-------------------------------|----2-------3-------3-------3--|
G|--------2----------------------|----2-------2-------2-------2--|
D|0-/-4--------------------------|----2-------2---------------2--|
A|------------------------2------|-------------------------------|
E|------------0-----/-4-------4--|-------------------------------|



                     
                                  D           E
e|0------ ------- ------- -------|2------ ----0-- ----0-- 0------|
B|2------------------------------|3-----------0-------0---0------|
G|2------------------------------|2-----------1-------1---1------|
D|2------------------------------|0-----------2-------2---2------|
A|0------------------------------|------------2-------2---2------|
E|-------------------------------|------------0-------0---0------|
                                  Ooh          girl, 
e|------- ------- ------- -------|------- ------- ------- -------|
B|2------------------------------|-------------------------------|
G|2------------------------------|--------2----------------------|
D|2------------------------------|0-/-4--------------------------|
A|-------------------------------|------------------------2------|
E|-------------------------------|------------0-----/-4-------4--|




  D           E                   A
e|2------ ----0-- ----0-- 0------|0------ 0------ ----0-- ----0--|
B|3-----------0-------0---0------|2-------2-----------2-------2--|
G|2-----------1-------1---1------|2-------2-----------2-------2--|
D|0-----------2-------2---2------|2-------2-----------2-------2--|
A|------------2-------2---2------|0-------0-----------0-------0--|
E|------------0-------0---0------|-------------------------------|
  you         girl,       want    you 
e|------- ------- ------- -------|------- ------- ----0-- -------|
B|-------------------------------|----2-------3-------3-------3--|
G|--------2----------------------|2---2-------2-------2-------2--|
D|0-/-4--------------------------|2---2-------2---------------2--|
A|------------------------2------|0------------------------------|
E|------------0-----/-4-------4--|-------------------------------|




                                  D           E
e|0------ 0------ ----0-- 0------|2------ ----0-- ----0-- 0------|
B|2-------2-----------2---2------|3-----------0-------0---0------|
G|2-------2-----------2---2------|2-----------1-------1---1------|
D|2-------2-----------2---2------|0-----------2-------2---2------|
A|0-------0-----------0---0------|------------2-------2---2------|
E|-------------------------------|------------0-------0---0------|
                                  Ooh         girl
e|------- ------- ------- -------|------- ------- ------- -------|
B|----2-------0-------2----------|-------------------------------|
G|----2-------2-------2----------|--------2----------------------|
D|----2-------2-------2----------|0-/-4--------------------------|
A|-------------------------------|------------------------2------|
E|-------------------------------|------------0-----/-4-------4--|





  D           E                   A
e|2------ ----0-- ----0-- 0------|0------ 0---0-- ----0-- ----0--|
B|3-----------0-------0---0------|2-------2---2-------2-------2--|
G|2-----------1-------1---1------|2-------2---2-------2-------2--|
D|0-----------2-------2---2------|2-------2---2-------2-------2--|
A|------------2-------2---2------|0-------0---0-------0-------0--|
E|------------0-------0---0------|-------------------------------|
  you         girl,       want    you 
e|------- ------- ------- -------|------- ------- ----0-- -------|
B|-------------------------------|----2-------3-------3-------3--|
G|--------2----------------------|2---2-------2-------2-------2--|
D|0-/-4--------------------------|2---2-------2---------------2--|
A|------------------------2------|0------------------------------|
E|------------0-----/-4-------4--|-------------------------------|




 (.

e|0------ ------- ------- -------|------- ------- ------- -------|
B|2------------------------------|-------------------------------|
G|2------------------------------|-------------------------------|
D|2------------------------------|-------------------------------|
A|0------------------------------|-------------------------------|
E|-------------------------------|-------------------------------|

e|------- ------- ------- -------|------- ------- ------- -------|
B|2------------------------------|-------------------------------|
G|2------------------------------|-------------------------------|
D|2------------------------------|-------------------------------|
A|-------------------------------|-------------------------------|
E|-------------------------------|-------------------------------|










        B  Bend
        R  Release
        /  Slide up
        \  Slide down
        H  Hammer-on
        P  Pull-off
        ~  Vibrato
        +  Harmonic
        x  Mute note
        .  Play note like a dot in standard notation
        ^  Ties two notes together
        (. Pause
comments
print report bad tab
5 comments total. Showing first comments.
-1 reply
Noobpwner wrote on June 9 2006, 04:10 pm

doesnt't sound very good and you put all the lyrics before the song. It doesn't make very much sense

-1 reply
Blacktoothgrin9 wrote on August 9 2006, 12:29 am

Very confusing

0 reply
LedDaveZeppelin wrote on September 2 2007, 06:05 pm

Great Tab man

I want to post or [tab]
guest
You may want to rate the tab now too:
select rating
Please do not post tabs as comments. Select "correction" instead!