Oops, an error
Loading. Please wait.

Heavens Key Tab

581 views 9 this week
no commentswrite comment
1 2 3 4 5
excellent!
x 3
Autoscroll
+/-
esc
set tempo
stop
Contributor
Difficulty
intermediate
WARNING: You are trying to view
                                    content from Ultimate-Guitar.com
                                    in an unauthorized application,
                                    which is prohibited.

                                    Please use an official Ultimate
                                    Guitar Tabs application for iPhone,
                                    iPad or Android to access legitimate
                                    chords, guitar, bass, and drum tabs
                                    from Ultimate-Guitar.com database.

                                    Type "ultimate guitar tabs" in Apple
                                    App Store's or Android Market's
                                    search to find the application.
-------------------------------------------------------------------------------
			     Heavens Key - Band Of Skulls
-------------------------------------------------------------------------------
Tabbed by:
E-mail:

Tuning: STANDARD

Intro

e|--------------------------------------------|
B|----11-13-11----11-13-11--------------------|
G|-12----------12----------12--10-12-10-------|
D|--------------------------------------13-10-|
A|--------------------------------------------|
E|--------------------------------------------|

e|----------------------------------------------|
B|----11-13-11----11-13-11----------------------|
G|-12----------12----------12--10-12-10----12---|
D|--------------------------------------13---13-|
A|----------------------------------------------|
E|----------------------------------------------|


e|-11-10------------------------------------|
B|-------13-11--11-13-----------------------|
G|--------------------10----10-12-10----12--|
D|-----------------------13----------13-----|
A|------------------------------------------|
E|------------------------------------------|

e|-------------------------------------------------|
B|-------------------------------------------------|
G|-------10-10-10--12-10------------10-------------|
D|-10-13-----------------13--10-13-----13-10----10-|
A|-------------------------------------------13----|
E|-------------------------------------------------|

Pre Chorus

e|-11-10------------------------------------|
B|-------13-11--11-13-----------------------|
G|--------------------10----10-12-10----12--|
D|-----------------------13----------13-----|
A|------------------------------------------|
E|------------------------------------------|

e|---------------|
B|---------------|
G|---------------|
D|-10-13--3-10-5-|
A|--------3-10-5-|
E|--------1-8--3-|

Chorus

e|-------------------------------------------x---|
B|-------------------------------------------8---|
G|-------------------------------------------8b--|
D|-10-10-10-10-10--5-5-5-5-5--10-10-10-10-10-----|
A|-10-10-10-10-10--5-5-5-5-5--10-10-10-10-10-----|
E|-8--8--8--8--8---3-3-3-3-3--8--8--8--8--8------|

e|-------------------------------------------x---|
B|-------------------------------------------8---|
G|-------------------------------------------8b--|
D|-10-10-10-10-10--5-5-5-5-5--10-10-10-10-10-----|
A|-10-10-10-10-10--5-5-5-5-5--10-10-10-10-10-----|
E|-8--8--8--8--8---3-3-3-3-3--8--8--8--8--8------|

e|------------------------------------------------------x---|
B|------------------------------------------------------8---|
G|------------------------------------------------------8b--|
D|-3-3-3-3-3--10-10-10-10-10--5-5-5-5-5--10-10-10-10-10-----|
A|-3-3-3-3-3--10-10-10-10-10--5-5-5-5-5--10-10-10-10-10-----|
E|-1-1-1-1-1--8--8--8--8--8---3-3-3-3-3--8--8--8--8--8------|

e|------------------------------------------------------x---|
B|------------------------------------------------------8---|
G|------------------------------------------------------8b--|
D|-3-3-3-3-3--10-10-10-10-10--5-5-5-5-5--10-10-10-10-10-----|
A|-3-3-3-3-3--10-10-10-10-10--5-5-5-5-5--10-10-10-10-10-----|
E|-1-1-1-1-1--8--8--8--8--8---3-3-3-3-3--8--8--8--8--8------|

e|-------------------------------|
B|-------------------------------|
G|-------------------------------|
D|-3-3-3-3-3--10-10-10-10-10--5--|
A|-3-3-3-3-3--10-10-10-10-10--5--|
E|-1-1-1-1-1--8--8--8--8--8---3--|

Post Chorus

e|--------------------------------------------|
B|----11-13-11----11-13-11--------------------|
G|-12----------12----------12--10-12-10-------|
D|--------------------------------------13-10-|
A|--------------------------------------------|
E|--------------------------------------------|


e|--------------------------------------------|
B|----11-13-11----11-13-11--------------------|
G|-12----------12----------12--10-12-10-------|
D|--------------------------------------13-10-|
A|--------------------------------------------|
E|--------------------------------------------|

Pre Chorus

e|-11-10------------------------------------|
B|-------13-11--11-13-----------------------|
G|--------------------10----10-12-10----12--|
D|-----------------------13----------13-----|
A|------------------------------------------|
E|------------------------------------------|

e|---------------|
B|---------------|
G|---------------|
D|-10-13--3-10-5-|
A|--------3-10-5-|
E|--------1-8--3-|

Chorus

e|-------------------------------------------x---|
B|-------------------------------------------8---|
G|-------------------------------------------8b--|
D|-10-10-10-10-10--5-5-5-5-5--10-10-10-10-10-----|
A|-10-10-10-10-10--5-5-5-5-5--10-10-10-10-10-----|
E|-8--8--8--8--8---3-3-3-3-3--8--8--8--8--8------|

e|-------------------------------------------x---|
B|-------------------------------------------8---|
G|-------------------------------------------8b--|
D|-10-10-10-10-10--5-5-5-5-5--10-10-10-10-10-----|
A|-10-10-10-10-10--5-5-5-5-5--10-10-10-10-10-----|
E|-8--8--8--8--8---3-3-3-3-3--8--8--8--8--8------|

e|------------------------------------------------------x---|
B|------------------------------------------------------8---|
G|------------------------------------------------------8b--|
D|-3-3-3-3-3--10-10-10-10-10--5-5-5-5-5--10-10-10-10-10-----|
A|-3-3-3-3-3--10-10-10-10-10--5-5-5-5-5--10-10-10-10-10-----|
E|-1-1-1-1-1--8--8--8--8--8---3-3-3-3-3--8--8--8--8--8------|

e|------------------------------------------------------x---|
B|------------------------------------------------------8---|
G|------------------------------------------------------8b--|
D|-3-3-3-3-3--10-10-10-10-10--5-5-5-5-5--10-10-10-10-10-----|
A|-3-3-3-3-3--10-10-10-10-10--5-5-5-5-5--10-10-10-10-10-----|
E|-1-1-1-1-1--8--8--8--8--8---3-3-3-3-3--8--8--8--8--8------|

e|-------------------------------|
B|-------------------------------|
G|-------------------------------|
D|-3-3-3-3-3--10-10-10-10-10--5--|
A|-3-3-3-3-3--10-10-10-10-10--5--|
E|-1-1-1-1-1--8--8--8--8--8---3--|

Solo

e|-------------------------------------------------------------------|
B|-8---------8---------8-----------8---------8-----------------------|
G|-8---------8---------8-----------8---------8-----------------------|
D|---10-8-10---10-8-10---10---5-8----10-8-10---10----5-5-5-5-5-5-5-5-|
A|----------------------------5-8--------------------5-5-5-5-5-5-5-5-|
E|--------------------------8-3-6-----------------8--3-3-3-3-3-3-3-3-|

e|-------------------------------------------------------------------|
B|-8---------8---------8-----------8---------8-----------------------|
G|-8---------8---------8-----------8---------8-----------------------|
D|---10-8-10---10-8-10---10---5-8----10-8-10---10----5-5-5-5-5-5-5-5-|
A|----------------------------5-8--------------------5-5-5-5-5-5-5-5-|
E|--------------------------8-3-6-----------------8--3-3-3-3-3-3-3-3-|


Chorus

e|-------------------------------------------x---|
B|-------------------------------------------8---|
G|-------------------------------------------8b--|
D|-10-10-10-10-10--5-5-5-5-5--10-10-10-10-10-----|
A|-10-10-10-10-10--5-5-5-5-5--10-10-10-10-10-----|
E|-8--8--8--8--8---3-3-3-3-3--8--8--8--8--8------|

e|-------------------------------------------x---|
B|-------------------------------------------8---|
G|-------------------------------------------8b--|
D|-10-10-10-10-10--5-5-5-5-5--10-10-10-10-10-----|
A|-10-10-10-10-10--5-5-5-5-5--10-10-10-10-10-----|
E|-8--8--8--8--8---3-3-3-3-3--8--8--8--8--8------|

e|------------------------------------------------------x---|
B|------------------------------------------------------8---|
G|------------------------------------------------------8b--|
D|-3-3-3-3-3--10-10-10-10-10--5-5-5-5-5--10-10-10-10-10-----|
A|-3-3-3-3-3--10-10-10-10-10--5-5-5-5-5--10-10-10-10-10-----|
E|-1-1-1-1-1--8--8--8--8--8---3-3-3-3-3--8--8--8--8--8------|

e|------------------------------------------------------x---|
B|------------------------------------------------------8---|
G|------------------------------------------------------8b--|
D|-3-3-3-3-3--10-10-10-10-10--5-5-5-5-5--10-10-10-10-10-----|
A|-3-3-3-3-3--10-10-10-10-10--5-5-5-5-5--10-10-10-10-10-----|
E|-1-1-1-1-1--8--8--8--8--8---3-3-3-3-3--8--8--8--8--8------|

e|-------------------------------|
B|-------------------------------|
G|-------------------------------|
D|-3-3-3-3-3--10-10-10-10-10--5--|
A|-3-3-3-3-3--10-10-10-10-10--5--|
E|-1-1-1-1-1--8--8--8--8--8---3--|

Outro

e|--------------------------------------------|
B|----11-13-11----11-13-11--------------------|
G|-12----------12----------12--10-12-10-------|
D|--------------------------------------13-10-|
A|--------------------------------------------|
E|--------------------------------------------|

e|----------------------------------------------------|
B|----11-13-11----11-13-11----------------------------|
G|-12----------12----------12--10-12-10----12---------|
D|--------------------------------------13---13-13-13-|
A|----------------------------------------------------|
E|----------------------------------------------------|


e|-11-10------------------------------------|
B|-------13-11--11-13-----------------------|
G|--------------------10----10-12-10----12--|
D|-----------------------13----------13-----|
A|------------------------------------------|
E|------------------------------------------|

e|-------------------------------------------------|
B|-------------------------------------------------|
G|-------10-10-10--12-10------------10-------------|
D|-10-13-----------------13--10-13-----13-10----10-|
A|-------------------------------------------13----|
E|-------------------------------------------------|


************************************

| /   slide up
| \   slide down
| h   hammer-on
| p   pull-off
| ~   vibrato
| +   harmonic
| x   Mute note
| b   Bend
| pb  Pre-bend
| br  Bend release
| pbr Pre-bend release
| brb Bend release bend

************************************
comments
We did not receive enough feedback on this tab! Please rate:
print report bad tab
1 2 3 4 5
I want to post or [tab]
guest
You may want to rate the tab now too:
select rating
Please do not post tabs as comments. Select "correction" instead!