Oops, an error
Loading. Please wait.

I Know What I Am Tab

33,220 views 45 this week
2 commentsread comments
1 2 3 4 5
accurate
x 7
Autoscroll
+/-
esc
set tempo
stop
Contributor
Hey! There's an official Ultimate Guitar app which is ideal
for learning songs when you're away from computer. Get the app
WARNING: You are trying to view
                                    content from Ultimate-Guitar.com
                                    in an unauthorized application,
                                    which is prohibited.

                                    Please use an official Ultimate
                                    Guitar Tabs application for iPhone,
                                    iPad or Android to access legitimate
                                    chords, guitar, bass, and drum tabs
                                    from Ultimate-Guitar.com database.

                                    Type "ultimate guitar tabs" in Apple
                                    App Store's or Android Market's
                                    search to find the application.
Song: I Know What I Am
Aritst: Band of Skulls
Album: Baby Darling Doll Face Honey
Tuning: Standard


Intro
|------------------| 
|-3~---------------|
|-2~---------------|
|-0~---------------| 
|-0~---------------|
|------------------|

Verse 
2x
|----------------------------------------------------------| 
|----------------------------------------------------------|
|----------------------------------------------------------|
|----------------------------------------------------------| 
|----------------------------------------------------------|
|-0-000-000-000-000-000-000-000-000-000-000-000-000-000-00-|
PM- --- --- --- --- --- --- --- --- --- --- --- --- --- --

then
|------------------| 
|------------------|
|-7~---------------|
|-7~---------------| 
|-5~---------------|
|------------------|

And Verse again
2x
|----------------------------------------------------------| 
|----------------------------------------------------------|
|----------------------------------------------------------|
|----------------------------------------------------------| 
|----------------------------------------------------------|
|-0-000-000-000-000-000-000-000-000-000-000-000-000-000-00-|
PM- --- --- --- --- --- --- --- --- --- --- --- --- --- --

Then again
|------------------| 
|------------------|
|-7~---------------|
|-7~---------------| 
|-5~---------------|
|------------------|


Chorus
2x
(I’m not too sure about this part, so any help would be nice)
|-----------|-----0-------0--------0-------0----------------| 
|-----------|-5-xx5-xx5-xx5-55-5-xx5-xx5-xx5-55-5-----------|
|-----------|-7-xx7-xx7-xx7-77-7-xx7-xx7-xx7-77-7-----------|
|-----------|-x-xxx-xxx-xxx-xx-x-xxx-xxx-xxx-xx-x-----------| 
|-----------|-5-xx5-xx5-xx5-55-5-xx5-xx5-xx5-55-5-----------|
|-----------|-----------------------------------------------|
  “But it’s   Alright...”

|-----------------------------------------------------------| 
|-5-xx5-555-xx5-55-5-xx5-555-xx5-55-5----there’s some-------|
|-7-xx7---7-xx7-77-7-xx7---7-xx7-77-7---pinch harmonics-----|
|-7-xx7---7-xx7-77-x-xx7---7-xx7-77-7-----in there somewhere| 
|-5-xx5---5-xx5-55-5-xx5---5-xx5-55-5-----------------------|
|-----------------------------------------------------------|

Post-Chorus
|----------------------| 
|----------------------|
|-4~-------------------|
|-2~-------------------| 
|-2~-------------------|
|-0~-------------------|

Repeat the whole verse segment
Repeat Chorus

Solo
|---------|---------------------------------------| 
|---------|-555-----------5b-----555-----------5b-|
|-7p4h7p4-|-----7--44-777------4-----7--44-777----|
|---------|---------------------------------------| 
|---------|---------------------------------------|
|---------|---------------------------------------|

|----------------------------------------------------------| 
|---555-8-5--------------------1010-b11d10-8--101010/12-8--|
|-4---------7-4444-7-4-------------------------------------|
|----------------------7-5---------------------------------| 
|--------------------------7-------------------------------|
|----------------------------------------------------------|

|-------------------------------------------------------------------------| 
|-(10)b11-11-11-11-11-11-11-11-(11)d10-10-8-----555-8-5-------------------|
|---------------------------------------------4---------7-4444-7-4--------|
|------------------------------------------------------------------7-5----| 
|----------------------------------------------------------------------7\-|
|-------------------------------------------------------------------------|

Outro
(a second guitar/bass continues with palm mutes)
|-----------------------------------------------------------------------| 
|-----------------------------------------------------------------------|
|-------------------------9~----------------------7~--------------------|
|-------------------------9~----------------------7~--------------------| 
|-------------------------7~----------------------5~--------------------|
|-00-00-00-00-00-00-00-00-----------------------------------------------|
PM-- -- -- -- -- -- -- --

|-----------------------------------------------------------------------| 
|-----------------------------------------------------------------------|
|-2~----------------------------------------------7~--------------------|
|-2~----------------------2~----------------------7~--------------------| 
|-0~----------------------2~----------------------5~--------------------|
|-------------------------0~--------------------------------------------|

|-----------------------------------------------------------------------| 
|-----------------------------------------------------------------------|
|-2~----------------------------------------------7~--------------------|
|-2~----------------------2~----------------------7~--------------------| 
|-0~----------------------2~----------------------5~--------------------|
|-------------------------0~--------------------------------------------|

|-----------------------------------------------------------------------| 
|-----------------------------------------------------------------------|
|-2~--------------------------------------------------------------------|
|-2~----------------------2~--------------------------------------------| 
|-0~----------------------2~--------------------------------------------|
|-------------------------0~--------------------------------------------|
comments
print report bad tab
2 comments total.
0 reply
rocker_71 wrote on August 10 2010, 03:34 pm

Tanx for the great tab!

Chorus is more like this:
A
But it's alright, it's okay,

I got the time, but the time don't pay.
E
It's alright, it's okay,

I got the time, but the time don't pay.
A
It's alright, it's okay,

I got the time, but the time don't pay.
E D
It's alright, it's okay.

The A and E chords are octaves, so mute the middle string.

* Solo is Em pentatonic at the 12th fret, so some youtube video's.
* I wonder what the guitarist is doing with his middle finger on and off during the verses. Is he doing the A string from 7th to 5th fret along with the open E string?

+5 reply
rocker_71 wrote on August 10 2010, 04:24 pm

Yeah I was right about the verse. Try this:

A|-5-5-7-5-5-7-5-5-7- etc
E|-0-0-0-0-0-0-0-0-0-

begin of the solo: I am pretty sure the solo goes like this:

Solo
(2:08) (2:11)
|---------------------------------------------------------------------|
|---------------------------12~---------------------------------------|
|------------(12)-----------12~-----------------------12--------------|
|-12-14-14-14-12--x-x-14-14-----(2x)---12-14-14-14-14----14-12--------|
|--------------------------------------------------------------14-14--|
|---------------------------------------------------------------------|

(2:15)
|----------------------------------------------------------------------------------------|
|----------------------------------------------------------------------------------------|
|--------------------14br-14-12~---14b-14b-14b-14br-12~---14b-14b-14b-14b-14b-14br-12~---|
|--12b-----------------------------------------------------------------------------------|
|------14-12-10--------------------------------------------------------------------------|
|---------------12-----------------------------------------------------------------------|

(2:20)
|--------------------------------------------------|
|--------------------------------------------------|
|-----------------12-------------------------------|
|--12-14-14-14-14---14-12--------12b---------------|
|-------------------------14-14------14-12-10------|
|---------------------------------------------12~--|

I want to post or [tab]
guest
You may want to rate the tab now too:
select rating
Please do not post tabs as comments. Select "correction" instead!