Oops, an error
Loading. Please wait.

Rock Rebellion Tab

ver2
ver2

Whole song

More versions @911Tabs.com
5,846 views 3 this week
2 commentsread comments
1 2 3 4 5
excellent!
x 9
Autoscroll
+/-
esc
set tempo
stop
Contributor
WARNING: You are trying to view
                                    content from Ultimate-Guitar.com
                                    in an unauthorized application,
                                    which is prohibited.

                                    Please use an official Ultimate
                                    Guitar Tabs application for iPhone,
                                    iPad or Android to access legitimate
                                    chords, guitar, bass, and drum tabs
                                    from Ultimate-Guitar.com database.

                                    Type "ultimate guitar tabs" in Apple
                                    App Store's or Android Market's
                                    search to find the application.
-------------------------------------------------------------------------------
                             ROCK REBELLION - Bang Camaro
-------------------------------------------------------------------------------
Tabbed by: Alex M
Email: machucheck@comcast.net

Tuning: Standard. Played in Eb but i'm lazy and tabbed it for standard. I also didn't 
palm mutes. If you can't figure those out for yourself you probably can't play this song 
:)

Intro (0:00-0:24) (guitar comes in at 0:12)
Guitar I
e|---------------------------------------------------------------------------|
B|---------------------------------------------------------------------------|
G|----8--7------8--7------8--7------8--7-------------------------------------|
D|---10-10-----10-10-----10-10-----10-10-----10\-----------------------------|
A|---------------------------------------------------------------------------|
E|---------------------------------------------------------------------------|
Guitar II
e|---------------------------------------------------------------------------|
B|---------------------------------------------------------------------------|
G|---------------------------------------------------------------------------|
D|---------------------------------------------------------------------------|
A|---------------------------------------------------------------------------|
E|---------------------------------------------------------------------------|


Riff 1a (0:24-0:36)
Guitar I
e|---------------------------------------------------------------------------|
B|--16----------20----------16-----------13--13~-----------------------------|
G|-----17~----------20~--------17~-------13--13~-----------------------------|
D|---------------------------------------------------------------------------|
A|---------------------------------------------------------------------------|
E|---------------------------------------------------------------------------|
Guitar II
e|---------------------------------------------------------------------------|
B|---------------------------------------------------------------------------|
G|---------------------------------------------------------------------------|
D|---------------------------------------------------------------------------|
A|----6--3--3--5--1-1-3--------6--3--3--5------------------------------------|
E|--3-------------------4---3-------------4-6-3-4-1~-------------------------|

Guitar I
e|---------------------------------------------------------------------------|
B|--16-------20b21r20------16-------------13--13~----------------------------|
G|-----17~-----------20~------17~---------13--13~----------------------------|
D|---------------------------------------------------------------------------|
A|---------------------------------------------------------------------------|
E|---------------------------------------------------------------------------|
Guitar II
e|---------------------------------------------------------------------------|
B|---------------------------------------------------------------------------|
G|---------------------------------------------------------------------------|
D|---------------------------------------------------------------------------|
A|----6--3--3--5-1-1-3---------6--3--3--5------------------------------------|
E|--3------------------4---3--------------4-6-3-4-1~-------------------------|

Verse 1a (0:36-1:01)
Guitar I
e|---------------------------------------------------------------------------|
B|---------------------------------------------------------------------------|
G|---------------------------------------------------------------------------|
D|---------------------------------------------------------------------------|
A|-----6--3--3--------6--3--3---------6--3--3---------6--3--3----------------|
E|---3--------------3---------------3---------------3------------------------|
Guitar II
e|---------------------------------------------------------------------------|
B|---------------------------------------------------------------------------|
G|--------5--5\----------5--5\-----------5--5\-----------5--5\---------------|
D|--------3--3\----------3--3\-----------3--3\-----------3--3\---------------|
A|---3-3--3--3\-----3-3--3--3\------3-3--3--3\------3-3--3--3\---------------|
E|---------------------------------------------------------------------------|

Guitar I
e|---------------------------------------------------------------------------|
B|---------------------------------------------------------------------------|
G|---------------------------------------------------------------------------|
D|---------------------------------------------------------------------------|
A|----6--3-3-3-5--1-1-3--------6--3-3-3-5------------------------------------|
E|--3-------------------4---3-------------4-6-3-4-1~-------------------------|
Guitar II
e|---------------------------------------------------------------------------|
B|---------------------------------------------------------------------------|
G|-------5-5---5--1---5-----------5-5---5------------------------------------|
D|-------5-5---5--3---3-6---------5-5---5------------------------------------|
A|--3-3--3-3---3--3---3-6---3--3--3-3---3------------------------------------|
E|----------------------4-----------------4-6-3-4-1~-------------------------|

Guitar I
e|---------------------------------------------------------------------------|
B|---------------------------------------------------------------------------|
G|---------------------------------------------------------------------------|
D|---------------------------------------------------------------------------|
A|----6--3-3-3-5--1-1-3--------6--3-3-3-5------------------------------------|
E|--3-------------------4---3-------------4-6-3-4-1~-------------------------|
Guitar II
e|---------------------------------------------------------------------------|
B|---------------------------------------------------------------------------|
G|-------5-5---5--1---5-----------5-5---5------------------------------------|
D|-------5-5---5--3---3-6---------5-5---5------------------------------------|
A|--3-3--3-3---3--3---3-6---3--3--3-3---3------------------------------------|
E|----------------------4-----------------4-6-3-4-1~-------------------------|

Verse 1b (1:01-1:14)
Guitar I
e|---------------------------------------------------------------------------|
B|---------------------------------------------------------------------------|
G|---------------------------------------------------------------------------|
D|-5-5-5--5-1-1-1-3--5-5-5--5--1--3----5-5-5--5-1-1-1-3--5-5-5--5--1--3------|
A|-5-5-5--5-1-1-1-3--5-5-5--5--1--3----5-5-5--5-1-1-1-3--5-5-5--5--1--3------|
E|-3-3-3--3-x-x-x-1--3-3-3--3--x--1----3-3-3--3-x-x-x-1--3-3-3--3--x--1------|
Guitar II
e|---------------------------------------------------------------------------|
B|---------------------------------------------------------------------------|
G|---------------------------------------------------------------------------|
D|-5-5-5--5-1-1-1-3--5-5-5--5--1--3----5-5-5--5-1-1-1-3--5-5-5--5--1--3------|
A|-5-5-5--5-1-1-1-3--5-5-5--5--1--3----5-5-5--5-1-1-1-3--5-5-5--5--1--3------|
E|-3-3-3--3-x-x-x-1--3-3-3--3--x--1----3-3-3--3-x-x-x-1--3-3-3--3--x--1------|

Riff 1b (1:14-1:26)
Guitar I
e|---------------------------------------------------------------------------|
B|--16----------20----------16-----------13--13~-----------------------------|
G|-----17~----------20~--------17~-------13--13~-----------------------------|
D|---------------------------------------------------------------------------|
A|---------------------------------------------------------------------------|
E|---------------------------------------------------------------------------|
Guitar II
e|---------------------------------------------------------------------------|
B|---------------------------------------------------------------------------|
G|---------------------------------------------------------------------------|
D|---------------------------------------------------------------------------|
A|----6--3--3--5--1-1-3--------6--3--3--5------------------------------------|
E|--3-------------------4---3-------------4-6-3-4-1~-------------------------|

Guitar I
e|---------------------------------------------------16-18-20b22r20~---------|
B|--16-------20b21r20------16---------------16-18-20-------------------------|
G|-----17~-----------20~------17~---------18---------------------------------|
D|---------------------------------------------------------------------------|
A|---------------------------------------------------------------------------|
E|---------------------------------------------------------------------------|
Guitar II
e|---------------------------------------------------------------------------|
B|---------------------------------------------------------------------------|
G|---------------------------------------------------------------------------|
D|---------------------------------------------------------------------------|
A|----6--3--3--5-1-1-3---------6--3--3--5------------------------------------|
E|--3------------------4---3---------------4--6--3--4--1~--------------------|

Verse 2 (1:26-2:03)
Guitar I
e|---------------------------------------------------------------------------|
B|---------------------------------------------------------------------------|
G|---------------------------------------------------------------------------|
D|---------------------------------------------------------------------------|
A|----6--3--3\----6-3-3-3-5----------------6-3--3\-----6-3-3-3-5-------------|
E|--3-----------3-----------4-6-3-4-1~---3-----------3-----------4-6-3-4-1~--|
Guitar II
e|---------------------------------------------------------------------------|
B|---------------------------------------------------------------------------|
G|------5--5\-------5-5---5------------------5--5\-------5-5---5-------------|
D|------3--3\-------3-3---3------------------5--5\-------5-5---5-------------|
A|--3-3-3--3\---3-3-3-3---3--------------3-3-3--3\---3-3-3-3---3-------------|
E|--------------------------4-6-3-4-1~---------------------------4-6-3-4-1~--|

Guitar I
e|---------------------------------------------------------------------------|
B|---------------------------------------------------------------------------|
G|---------------------------------------------------------------------------|
D|---------------------------------------------------------------------------|
A|----6--3-3-3-5--1-1-3--------6--3-3-3-5------------------------------------|
E|--3-------------------4---3-------------4-6-3-4-1~-------------------------|
Guitar II
e|---------------------------------------------------------------------------|
B|---------------------------------------------------------------------------|
G|-------5-5---5--1---5-----------5-5---5------------------------------------|
D|-------5-5---5--3---3-6---------5-5---5------------------------------------|
A|--3-3--3-3---3--3---3-6---3--3--3-3---3------------------------------------|
E|----------------------4-----------------4-6-3-4-1~-------------------------|

Guitar I
e|---------------------------------------------------------------------------|
B|---------------------------------------------------------------------------|
G|---------------------------------------------------------------------------|
D|---------------------------------------------------------------------------|
A|----6--3-3-3-5--1-1-3--------6--3-3-3-5------------------------------------|
E|--3-------------------4---3-------------4-6-3-4-1~-------------------------|
Guitar II
e|---------------------------------------------------------------------------|
B|---------------------------------------------------------------------------|
G|-------5-5---5--1---5-----------5-5---5------------------------------------|
D|-------5-5---5--3---3-6---------5-5---5------------------------------------|
A|--3-3--3-3---3--3---3-6---3--3--3-3---3------------------------------------|
E|----------------------4-----------------4-6-3-4-1~-------------------------|

Guitar I
e|---------------------------------------------------------------------------|
B|---------------------------------------------------------------------------|
G|---------------------------------------------------------------------------|
D|-5-5-5--5-1-1-1-3--5-5-5--5--1--3----5-5-5--5-1-1-1-3--5-5-5--5--1--3------|
A|-5-5-5--5-1-1-1-3--5-5-5--5--1--3----5-5-5--5-1-1-1-3--5-5-5--5--1--3------|
E|-3-3-3--3-x-x-x-1--3-3-3--3--x--1----3-3-3--3-x-x-x-1--3-3-3--3--x--1------|
Guitar II
e|---------------------------------------------------------------------------|
B|---------------------------------------------------------------------------|
G|---------------------------------------------------------------------------|
D|-5-5-5--5-1-1-1-3--5-5-5--5--1--3----5-5-5--5-1-1-1-3--5-5-5--5--1--3------|
A|-5-5-5--5-1-1-1-3--5-5-5--5--1--3----5-5-5--5-1-1-1-3--5-5-5--5--1--3------|
E|-3-3-3--3-x-x-x-1--3-3-3--3--x--1----3-3-3--3-x-x-x-1--3-3-3--3--x--1------|

Bridge 1a (2:03-2:27)
Guitar I
e|---------------------------------------------------------------------------|
B|---------------------------------------------------------------------------|
G|-8---7---7-8----------------------8---7---7-8------------------------------|
D|---8---8-----6~-----6-6h8~----------8---8-----6~------6h8~-----------------|
A|---------------------------------------------------------------------------|
E|---------------------------------------------------------------------------|
Guitar II
e|---------------------------------------------------------------------------|
B|---------------------------------------------------------------------------|
G|-8-3-7-3-7-8----------------------8-3-7-3-7-8------------------------------|
D|-8-3-7-3-7-8-6--6-6-6-6-6-6-6-6---8-3-7-3-7-8-6--6-6-6-6-6-6-6-8-----------|
A|-6-1-5-1-5-6-6--6-6-6-6-6-6-6-6---6-1-5-1-5-6-6--6-6-6-6-6-6-6-8-----------|
E|-------------4--4-4-4-4-4-4-4-4---------------4--4-4-4-4-4-4-4-6-----------|


Guitar I
e|---------------------------------------------------------------------------|
B|---------------------------------------------------------------------------|
G|-8---7---7-8----------------------8---7---7-8------------------------------|
D|---8---8-----6~-----6-6h8~----------8---8-----6~------6h8~-----------------|
A|---------------------------------------------------------------------------|
E|---------------------------------------------------------------------------|
Guitar II
e|---------------------------------------------------------------------------|
B|---------------------------------------------------------------------------|
G|-8-3-7-3-7-8----------------------8-3-7-3-7-8------------------------------|
D|-8-3-7-3-7-8-6--6-6-6-6-6-6-6-6---8-3-7-3-7-8-6--6-6-6-6-6-6-6-8-----------|
A|-6-1-5-1-5-6-6--6-6-6-6-6-6-6-6---6-1-5-1-5-6-6--6-6-6-6-6-6-6-8-----------|
E|-------------4--4-4-4-4-4-4-4-4---------------4--4-4-4-4-4-4-4-6-----------|


Bridge 2b (2:27-2:51)
Guitar I
e|---------------------------------------------------------------------------|
B|---------------------------------------------------------------------------|
G|---------5---------5---------5---------5/7--8------------------------------|
D|---------5---------5---------5---------5/7--8------------------------------|
A|-3-3-3-3-3-3-3-3-3-3-3-3-3-3-3-3-3-3-3-3/5--6------------------------------|
E|---------------------------------------------------------------------------|
Guitar II
e|---------------------------------------------------------------------------|
B|---------------------------------------------------------------------------|
G|---------5---------5---------5---------5/7--8------------------------------|
D|---------5---------5---------5---------5/7--8------------------------------|
A|-3-3-3-3-3-3-3-3-3-3-3-3-3-3-3-3-3-3-3-3/5--6------------------------------|
E|---------------------------------------------------------------------------|

Guitar I
e|---------------------------------------------------------------------------|
B|---------------------------------------------------------------------------|
G|---------------------------------8-----------------------------------------|
D|---------6---------6---------3-3-8-8--8------------------------------------|
A|---------6---------6---------3-3---8--8------------------------------------|
E|-4-4-4-4-4-4-4-4-4-4-4-4-4-4-1-1-------------------------------------------|
Guitar II
e|---------------------------------------------------------------------------|
B|---------------------------------------------------------------------------|
G|---------------------------------------------------------------------------|
D|---------6---------6---------3-3--3-3-3------------------------------------|
A|---------6---------6---------3-3--3-3-3------------------------------------|
E|-4-4-4-4-4-4-4-4-4-4-4-4-4-4-1-1--1-1-1------------------------------------|

Guitar I
e|---------------------------------------------------------------------------|
B|---------------------------------------------------------------------------|
G|---------5---------5---------5---------5/7--8------------------------------|
D|---------5---------5---------5---------5/7--8------------------------------|
A|-3-3-3-3-3-3-3-3-3-3-3-3-3-3-3-3-3-3-3-3/5--6------------------------------|
E|---------------------------------------------------------------------------|
Guitar II
e|---------------------------------------------------------------------------|
B|---------------------------------------------------------------------------|
G|---------5---------5---------5---------5/7--8------------------------------|
D|---------5---------5---------5---------5/7--8------------------------------|
A|-3-3-3-3-3-3-3-3-3-3-3-3-3-3-3-3-3-3-3-3/5--6------------------------------|
E|---------------------------------------------------------------------------|

Guitar I
e|---------------------------------------------------------------------------|
B|---------------------------------------------------------------------------|
G|---------------------------------8-----------------------------------------|
D|---------6---------6---------3-3-8-8--8------------------------------------|
A|---------6---------6---------3-3---8--8------------------------------------|
E|-4-4-4-4-4-4-4-4-4-4-4-4-4-4-1-1-------------------------------------------|
Guitar II
e|---------------------------------------------------------------------------|
B|---------------------------------------------------------------------------|
G|---------------------------------------------------------------------------|
D|---------6---------6---------3-3--3-3-3------------------------------------|
A|---------6---------6---------3-3--3-3-3------------------------------------|
E|-4-4-4-4-4-4-4-4-4-4-4-4-4-4-1-1--1-1-1------------------------------------|


Guitar I
e|---------------------------------------------------------------------------|
B|---------------------------------------------------------------------------|
G|---------5---------5---------5---------5/7--8------------------------------|
D|---------5---------5---------5---------5/7--8------------------------------|
A|-3-3-3-3-3-3-3-3-3-3-3-3-3-3-3-3-3-3-3-3/5--6------------------------------|
E|---------------------------------------------------------------------------|
Guitar II
e|---------------------------------------------------------------------------|
B|---------------------------------------------------------------------------|
G|---------5---------5---------5---------5/7--8------------------------------|
D|---------5---------5---------5---------5/7--8------------------------------|
A|-3-3-3-3-3-3-3-3-3-3-3-3-3-3-3-3-3-3-3-3/5--6------------------------------|
E|---------------------------------------------------------------------------|

Guitar I
e|---------------------------------------------------------------------------|
B|---------------------------------------------------------------------------|
G|---------------------------------8-----------------------------------------|
D|---------6---------6---------3-3-8-8--8------------------------------------|
A|---------6---------6---------3-3---8--8------------------------------------|
E|-4-4-4-4-4-4-4-4-4-4-4-4-4-4-1-1-------------------------------------------|
Guitar II
e|---------------------------------------------------------------------------|
B|---------------------------------------------------------------------------|
G|---------------------------------------------------------------------------|
D|---------6---------6---------3-3--3-3-3------------------------------------|
A|---------6---------6---------3-3--3-3-3------------------------------------|
E|-4-4-4-4-4-4-4-4-4-4-4-4-4-4-1-1--1-1-1------------------------------------|

Guitar I
e|---------------------------------------------------------------------------|
B|---------------------------------------------------------------------------|
G|---------5---------5---------5---------5/7--8------------------------------|
D|---------5---------5---------5---------5/7--8------------------------------|
A|-3-3-3-3-3-3-3-3-3-3-3-3-3-3-3-3-3-3-3-3/5--6------------------------------|
E|---------------------------------------------------------------------------|
Guitar II
e|---------------------------------------------------------------------------|
B|---------------------------------------------------------------------------|
G|---------5---------5---------5---------5/7--8------------------------------|
D|---------5---------5---------5---------5/7--8------------------------------|
A|-3-3-3-3-3-3-3-3-3-3-3-3-3-3-3-3-3-3-3-3/5--6------------------------------|
E|---------------------------------------------------------------------------|

Guitar I
e|---------------------------------------------------------------------------|
B|---------------------------------------------------------------------------|
G|---------------------------------8-----------------------------------------|
D|---------6---------6---------3-3-8-8--8------------------------------------|
A|---------6---------6---------3-3---8--8------------------------------------|
E|-4-4-4-4-4-4-4-4-4-4-4-4-4-4-1-1-------------------------------------------|
Guitar I
e|---------------------------------------------------------------------------|
B|---------------------------------------------------------------------------|
G|---------------------------------------------------------------------------|
D|---------6---------6---------3-3--3-3-3------------------------------------|
A|---------6---------6---------3-3--3-3-3------------------------------------|
E|-4-4-4-4-4-4-4-4-4-4-4-4-4-4-1-1--1-1-1------------------------------------|

Drum solo (2:51-3:04)
Guitar I
e|---------------------------------------------------------------------------|
B|---------------------------------------------------------------------------|
G|-5-5-5--3-3-3-----------------1-1-1----------------------------------------|
D|-5-5-5--3-3-3--6-6-6--3-3-3---1-1-1----------------------------------------|
A|-3-3-3--1-1-1--6-6-6--3-3-3---3-3-3----------------------------------------|
E|---------------4-4-4--1-1-1------------------------------------------------|
Guitar I
e|---------------------------------------------------------------------------|
B|---------------------------------------------------------------------------|
G|-5-5-5--3-3-3-----------------1-1-1----------------------------------------|
D|-5-5-5--3-3-3--6-6-6--3-3-3---1-1-1----------------------------------------|
A|-3-3-3--1-1-1--6-6-6--3-3-3---3-3-3----------------------------------------|
E|---------------4-4-4--1-1-1------------------------------------------------|

Interlude (3:04-3:28)
Guitar I (clean)
e|---------------------------------------------------------------------------|
B|---------------------------------------------------------------------------|
G|-----5-3----------------------------3-3------------------------------------|
D|---5------------------------------3----------------------------------------|
A|-3------------------------------1------------------------------------------|
E|---------------------------------------------------------------------------|
Guitar II
e|---------------------------------------------------------------------------|
B|---------------------------------------------------------------------------|
G|---------------------------------------------------------------------------|
D|-----5-5-1-1-3-3---------------------5-5-1-1-3-3---------------------------|
A|-3-3-------------5-5-6-6-5-5-1-1-3-3-------------5-5-6-6-5-5-1-1-----------|
E|---------------------------------------------------------------------------|

Guitar I
e|---------------------------------------------------------------------------|
B|-------------------------------------------------------3-------------------|
G|----------------------------------------3-----------3------3---------------|
D|-----6-5------------------------------3----3-----3------------3------------|
A|---6-------------------------------3----------1----------------------------|
E|-4------------------------------1------------------------------------------|
Guitar II
e|---------------------------------------------------------------------------|
B|---------------------------------------------------------------------------|
G|---------------------------------------------------------------------------|
D|-----5-5-1-1-3-3---------------------5-5-1-1-3-3---------------------------|
A|-3-3-------------5-5-6-6-5-5-1-1-3-3-------------5-5-6-6-5-5-1-1-----------|
E|---------------------------------------------------------------------------|

Guitar I (clean)
e|---------------------------------------------------------------------------|
B|---------------------------------------------------------------------------|
G|-----5-3----------------------------3-3------------------------------------|
D|---5------------------------------3----------------------------------------|
A|-3------------------------------1------------------------------------------|
E|---------------------------------------------------------------------------|
Guitar II
e|---------------------------------------------------------------------------|
B|---------------------------------------------------------------------------|
G|---------------------------------------------------------------------------|
D|-----5-5-1-1-3-3---------------------5-5-1-1-3-3---------------------------|
A|-3-3-------------5-5-6-6-5-5-1-1-3-3-------------5-5-6-6-5-5-1-1-----------|
E|---------------------------------------------------------------------------|

Guitar I
e|---------------------------------------------------------------------------|
B|-------------------------------------------------------3-------------------|
G|----------------------------------------3-----------3------3---------------|
D|-----6-5------------------------------3----3-----3------------3------------|
A|---6-------------------------------3----------1----------------------------|
E|-4------------------------------1------------------------------------------|
Guitar II
e|---------------------------------------------------------------------------|
B|---------------------------------------------------------------------------|
G|---------------------------------------------------------------------------|
D|-----5-5-1-1-3-3---------------------5-5-1-1-3-3---------------------------|
A|-3-3-------------5-5-6-6-5-5-1-1-3-3-------------5-5-6-6-5-5-1-1-----------|
E|---------------------------------------------------------------------------|

Bridge 3a (3:29-3:40)
Guitar I
e|---------------------------------------------------------------------------|
B|---------------------------------------------------------------------------|
G|---------------------------------------------------------------------------|
D|-----------------------------------------------3/5-3-1-1/3-1-0-------------|
A|-1-3---3-3-5-6-3-1-3/5------1-3--3-3-5-6-5-3-1-----------------------------|
E|---------------------------------------------------------------------------|
Guitar II
e|---------------------------------------------------------------------------|
B|---------------------------------------------------------------------------|
G|-3-------------------------------------------------------------------------|
D|-3-------------------------------------------------------------------------|
A|-1-------------------------------------------------------------------------|
E|---------------------------------------------------------------------------|

Solo (3:40-4:05)
Guitar I
e|--------18-------------------------------18--------------------------------|
B|--/18b20~r18------------------16h18-18b20~r18------------------------------|
G|---------------------------------------------------------------------------|
D|---------------------------------------------------------------------------|
A|---------------------------------------------------------------------------|
E|---------------------------------------------------------------------------|
Guitar II
e|---------------------------------------------------------------------------|
B|---------------------------------------------------------------------------|
G|-5-5-5----------------------------------3-3-3------------------------------|
D|-5-5-5----------------------------------3-3-3------------------------------|
A|-3-3-3--3-3-3--3-3-3--3-3-3--3-3-3--3-3-1-1-1--1-1-1-1-1-1-1-1-1-1-1-1-1-1-|
E|---------------------------------------------------------------------------|
         ^gallop                                 ^gallop(continues thru solo)
Guitar I
e|-18-18h20p18-18-16--16---------16-16h18p16---------------------------------|
B|------------------20--20-18-16------------20-18-20-18-16-------------------|
G|--------------------------------------------------------19-----------------|
D|---------------------------------------------------------------------------|
A|---------------------------------------------------------------------------|
E|---------------------------------------------------------------------------|

e|---------------------------------------------------------------------------|
B|-18h20p18-16--16-----------------------------------------------------------|
G|------------19--19-17-15---------------------------------------------------|
D|---------------------------------------------------------------------------|
A|---------------------------------------------------------------------------|
E|---------------------------------------------------------------------------|
Guitar II
e|---------------------------------------------------------------------------|
B|---------------------------------------------------------------------------|
G|---------------------------------------------------------------------------|
D|-6-6-6---------------------------------------------------------------------|
A|-6-6-6---------------------------------------------------------------------|
E|-4-4-4--4-4-4--4-4-4--4-4-4--4-4-4--4-4------------------------------------|

Guitar I
e|---------------------------------------------------------------------------|
B|-20b21r20--20--18--16------------------------------------------------------|
G|-----------------------19~-------------------------------------------------|
D|---------------------------------------------------------------------------|
A|---------------------------------------------------------------------------|
E|---------------------------------------------------------------------------|
Guitar II
e|---------------------------------------------------------------------------|
B|---------------------------------------------------------------------------|
G|----------3--3--3----------------------------------------------------------|
D|-1--1--1--3--3--3----------------------------------------------------------|
A|-3--3--3--1--1--1----------------------------------------------------------|
E|-3--3--3-------------------------------------------------------------------|

Guitar I
e|---------------------------------------------------------------------------|
B|-8h9p8p6h8p6-----8h9p8p6h8p6-----8h9p8p6h8p6-------------------------------|
G|------------8p7-------------8p7-------------8p7-7h8p7p5h7p5-3p2------------|
D|---------------------------------------------------------------------------|
A|---------------------------------------------------------------------------|
E|---------------------------------------------------------------------------|
e|---------------------------------------------------------------------------|
B|---------------------------------------------------------------------------|
G|-5-5-5---------------------------------------------------------------------|
D|-5-5-5---------------------------------------------------------------------|
A|-3-3-3--3-3-3--3-3-3--3-3-3--3-3-3--3-3------------------------------------|
E|---------------------------------------------------------------------------|

Guitar I
e|---------------------------------------------------------------------------|
B|---------------------------------------------------------------------------|
G|---0-5~--3-5/8-7-8/10-8-10/12-10--13p12p10h12------------------------------|
D|---------------------------------------------------------------------------|
A|---------------------------------------------------------------------------|
E|---------------------------------------------------------------------------|
Guitar II
e|---------------------------------------------------------------------------|
B|---------------------------------------------------------------------------|
G|-3-3-3---------------------------------------------------------------------|
D|-3-3-3------------------------------6-6-6----------------------------------|
A|-1-1-1--1-1-1-1-1-1-1-1-1-1-1-1-1-1-6-6-6----------------------------------|
E|------------------------------------4-4-4-4-4-4-4-4-4-4-4-4-4-4-4-4-4------|


Guitar I
e|---18p15-----16p15-----18p15-----16p15-------------------------------------|
B|--------18p15-----16p15-----18p15-----16p15-18-18b20~----------------------|
G|---------------------------------------------------------------------------|
D|---------------------------------------------------------------------------|
A|---------------------------------------------------------------------------|
E|---------------------------------------------------------------------------|
Guitar II
e|---------------------------------------------------------------------------|
B|---------------------------------------------------------------------------|
G|----------3--3--3----------------------------------------------------------|
D|-1--1--1--3--3--3----------------------------------------------------------|
A|-3--3--3--1--1--1----------------------------------------------------------|
E|-3--3--3-------------------------------------------------------------------|

verse 3a (4:05-
Guitar I
e|---------------------------------------------------------------------------|
B|---------------------------------------------------------------------------|
G|---------------------------------------------------------------------------|
D|-5-5-5--5-1-1-1-3--5-5-5--5--1--3----5-5-5--5-1-1-1-3--5-5-5--5--1--3------|
A|-5-5-5--5-1-1-1-3--5-5-5--5--1--3----5-5-5--5-1-1-1-3--5-5-5--5--1--3------|
E|-3-3-3--3-x-x-x-1--3-3-3--3--x--1----3-3-3--3-x-x-x-1--3-3-3--3--x--1------|
Guitar II
e|---------------------------------------------------------------------------|
B|---------------------------------------------------------------------------|
G|---------------------------------------------------------------------------|
D|-5-5-5--5-1-1-1-3--5-5-5--5--1--3----5-5-5--5-1-1-1-3--5-5-5--5--1--3------|
A|-5-5-5--5-1-1-1-3--5-5-5--5--1--3----5-5-5--5-1-1-1-3--5-5-5--5--1--3------|
E|-3-3-3--3-x-x-x-1--3-3-3--3--x--1----3-3-3--3-x-x-x-1--3-3-3--3--x--1------|

Guitar I
e|---------------------------------------------------------------------------|
B|--16----------20----------16-----------13--13~-----------------------------|
G|-----17~----------20~--------17~-------13--13~-----------------------------|
D|---------------------------------------------------------------------------|
A|---------------------------------------------------------------------------|
E|---------------------------------------------------------------------------|
Guitar II
e|---------------------------------------------------------------------------|
B|---------------------------------------------------------------------------|
G|---------------------------------------------------------------------------|
D|---------------------------------------------------------------------------|
A|----6--3--3--5--1-1-3--------6--3--3--5------------------------------------|
E|--3-------------------4---3-------------4-6-3-4-1~-------------------------|

Guitar I
e|---------------------------------------------------------------------------|
B|--16-------20b21r20------16-------------------/20~-------------------------|
G|-----17~-----------20~------17~--------------------------------------------|
D|---------------------------------------------------------------------------|
A|---------------------------------------------------------------------------|
E|---------------------------------------------------------------------------|
Guitar II
e|---------------------------------------------------------------------------|
B|---------------------------------------------------------------------------|
G|---------------------------------------------------------------------------|
D|---------------------------------------------------------------------------|
A|----6--3--3--5-1-1-3---------6--3--3--5------------------------------------|
E|--3------------------4---3--------------4-6-3-4-1~-------------------------|

Outro ()
Guitar I
e|---------------------------------------------------------------------------|
B|--16----------20----------16-----------13--13~-----------------------------|
G|-----17~----------20~--------17~-------13--13~-----------------------------|
D|---------------------------------------------------------------------------|
A|---------------------------------------------------------------------------|
E|---------------------------------------------------------------------------|
Guitar II
e|---------------------------------------------------------------------------|
B|---------------------------------------------------------------------------|
G|---------------------------------------------------------------------------|
D|---------------------------------------------------------------------------|
A|----6--3--3--5--1-1-3--------6--3--3--5------------------------------------|
E|--3-------------------4---3-------------4-6-3-4-1~-------------------------|

Guitar I
e|---------------------------------------------------------------------------|
B|--16-------20b21r20------16-------------13--13~----------------------------|
G|-----17~-----------20~------17~---------13--13~----------------------------|
D|---------------------------------------------------------------------------|
A|---------------------------------------------------------------------------|
E|---------------------------------------------------------------------------|
Guitar II
e|---------------------------------------------------------------------------|
B|---------------------------------------------------------------------------|
G|---------------------------------------------------------------------------|
D|---------------------------------------------------------------------------|
A|----6--3--3--5-1-1-3---------6--3--3--5------------------------------------|
E|--3------------------4---3--------------4-6-3-4-1~-------------------------|


| /  slide up
| \  slide down
| h  hammer-on
| p  pull-off
| ~  vibrato
| +  harmonic
| x  Mute note
===============================================================================
comments
print report bad tab
2 comments total.
0 reply
Phycopath09 wrote on August 29 2009, 10:42 pm

awesome tab keep up the good work

0 reply
xlog wrote on August 31 2009, 11:04 am

great tab

I want to post or [tab]
guest
You may want to rate the tab now too:
select rating
Please do not post tabs as comments. Select "correction" instead!