Oops, an error
Loading. Please wait.

La Noche Del Diablo Tab

103 views 1 this week
no commentswrite comment
1 2 3 4 5
please rate
Autoscroll
+/-
esc
set tempo
stop
Contributor
Difficulty
novice
Hey! There's an official Ultimate Guitar app which is ideal
for learning songs when you're away from computer. Get the app
WARNING: You are trying to view
                                    content from Ultimate-Guitar.com
                                    in an unauthorized application,
                                    which is prohibited.

                                    Please use an official Ultimate
                                    Guitar Tabs application for iPhone,
                                    iPad or Android to access legitimate
                                    chords, guitar, bass, and drum tabs
                                    from Ultimate-Guitar.com database.

                                    Type "ultimate guitar tabs" in Apple
                                    App Store's or Android Market's
                                    search to find the application.
1.------------------------------------------------|
2.------------------------------------------------|
3.------------------------------------------------|
4.-----0-1-2-----2-1-0-----0-1-2--5-7-------0-1-2-|
5.-2---------2---------2----------3-5---2---------|
6.-0-0-------0-0-------0-0--------------0-0-------|

1.-------------------------------------------| 2 veces.
2.-------------------------------------------|
3.-------------------------------------------|
4.-----2-1-0------0-1-2--------------2-------|
5.-2----------2----------2---5---5---0---2---|
6.-0-0--------0-0--------0---3---3-------0---|

     Sírveme otra copa,
1.-------------------------------------------------|
2.-------------------------------------------------|
3.-------------------------------------------------|
4.-------------------------------------------------|
5.-2---2-2-2-2-2---2-2-2-2-2---2-2-2---0-1-2-0-1-2-|
6.-0---0-0-0-0-0---0-0-0-0-0---0-0-0---------------|

1.-------------------------------------------------|
2.-------------------------------------------------|
3.-------------------------------------------------|
4.-------------------------------------------------|
5.-2-2-2-2-2---2-2-2-2-2---2-2-2---0-1-2-0-1-2-----|
6.-0-0-0-0-0---0-0-0-0-0---0-0-0-------------------|



1.--------------------------------------------------|
2.--------------------------------------------------|
3.--------------------------------------------------|
4.-5---5-5-5-5-5---5-5-5-5-5---5-5-5---3-4-5-3-4-5--|
5.-3---3-3-3-3-3---3-3-3-3-3---3-3-3----------------|
6.--------------------------------------------------|

1.--------------------------------------------------|
2.--------------------------------------------------|
3.--------------------------------------------------|
4.-7---7-7-7-7-7---7-7-7-7-7---7-7-7---5-6-7-5-6-7--|
5.-5---5-5-5-5-5---5-5-5-5-5---5-5-5----------------|
6.--------------------------------------------------|


     Todos disfrazados...
1.-------------------------------------------------|
2.-------------------------------------------------|
3.-------------------------------------------------|
4.-------------------------------------------------|
5.-2---2-2-2-2-2---2-2-2-2-2---2-2-2---0-1-2-0-1-2-|
6.-0---0-0-0-0-0---0-0-0-0-0---0-0-0---------------|

1.-------------------------------------------------|
2.-------------------------------------------------|
3.-------------------------------------------------|
4.-------------------------------------------------|
5.-2-2-2-2-2---2-2-2-2-2---2-2-2---0-1-2-0-1-2-----|
6.-0-0-0-0-0---0-0-0-0-0---0-0-0-------------------|




1.--------------------------------------------------|
2.--------------------------------------------------|
3.--------------------------------------------------|
4.-5---5-5-5-5-5---5-5-5-5-5---5-5-5---3-4-5-3-4-5--|
5.-3---3-3-3-3-3---3-3-3-3-3---3-3-3----------------|
6.--------------------------------------------------|

1.--------------------------------------------------|
2.--------------------------------------------------|
3.--------------------------------------------------|
4.-7---7-7-7-7-7---7-7-7-7-7---7-7-7----------------|
5.-5---5-5-5-5-5---5-5-5-5-5---5-5-5----------------|
6.--------------------------------------------------|

¡Ven, acércate
1.-------------------------------------------------|
2.-------------------------------------------------|
3.-------------------------------------------------|
4.-7---7-4-5-7---7---7-5-7-9---9-9-7-5---5-5-5-5---|
5.-5---5-2-3-5---5---5-3-5-7---7-7-5-3---3-3-3-3---|
6.-------------------------------------------------|

1.-----------------------------------------------------|
2.-----------------------------------------------------|
3.-----------------------------------------------------|
4.-5-5-5-5---5-5-5-5---5-7-5-----------7---7---7-5-7-9-|
5.-3-3-3-3---3-3-3-3---3-5-3-5-5-------5---5---5-3-5-7-|
6.---------------------------3-3-3-0-1-----------------|





1.----------------------------------------------------|
2.----------------------------------------------------|
3.----------------------------------------------------|
4.-9---9-7-5---5-5-5-5--------------------------------|
5.-7---7-5-3---3-3-3-3--------------------------------|
6.----------------------------------------------------|


1.-----------------------------------------------------------|
2.-----------------------------------------------------------|
3.-----------------------------------------------------------|
4.-5-5-5-5-5------0-1-2-----2-1-0-----0-1-2--5-7-------0-1-2-|
5.-3-3-3-3-3--2---------2---------2----------3-5---2---------|
6.------------0-0-------0-0-------0-0--------------0-0-------|

1.-------------------------------------------| 2 veces.
2.-------------------------------------------|
3.-------------------------------------------|
4.-----2-1-0------0-1-2--------------2-------|
5.-2----------2----------2---5---5---0---2---|
6.-0-0--------0-0--------0---3---3-------0---|

    Veo escobas, cuernos,
1.--------------------------------------------------|
2.--------------------------------------------------|
3.--------------------------------------------------|
4.--------------------------------------------------|
5.-2---2-2-2-2-2---2-2-2-2-2---2-2-2---0-1-2-0-1-2--|
6.-0---0-0-0-0-0---0-0-0-0-0---0-0-0----------------|

1.--------------------------------------------------|
2.--------------------------------------------------|
3.--------------------------------------------------|
4.--------------------------------------------------|
5.-2-2-2-2-2---2-2-2-2-2---2-2-2---0-1-2-0-1-2------|
6.-0-0-0-0-0---0-0-0-0-0---0-0-0--------------------|

1.--------------------------------------------------|
2.--------------------------------------------------|
3.--------------------------------------------------|
4.-5---5-5-5-5-5---5-5-5-5-5---5-5-5---3-4-5-3-4-5--|
5.-3---3-3-3-3-3---3-3-3-3-3---3-3-3----------------|
6.--------------------------------------------------|

1.----------------------------------------------------|
2.----------------------------------------------------|
3.----------------------------------------------------|
4.-7---7-7-7-7-7---7-7-7-7-7---7-7-7---5-6-7-5-6-7----|
5.-5---5-5-5-5-5---5-5-5-5-5---5-5-5------------------|
6.----------------------------------------------------|

     En la noche del pecado
1.-------------------------------------------------|
2.-------------------------------------------------|
3.-------------------------------------------------|
4.-------------------------------------------------|
5.-2---2-2-2-2-2---2-2-2-2-2---2-2-2---0-1-2-0-1-2-|
6.-0---0-0-0-0-0---0-0-0-0-0---0-0-0---------------|

1.-------------------------------------------------|
2.-------------------------------------------------|
3.-------------------------------------------------|
4.-------------------------------------------------|
5.-2-2-2-2-2---2-2-2-2-2---2-2-2---0-1-2-0-1-2-----|
6.-0-0-0-0-0---0-0-0-0-0---0-0-0-------------------|

1.--------------------------------------------------|
2.--------------------------------------------------|
3.--------------------------------------------------|
4.-5---5-5-5-5-5---5-5-5-5-5---5-5-5---3-4-5-3-4-5--|
5.-3---3-3-3-3-3---3-3-3-3-3---3-3-3----------------|
6.--------------------------------------------------|

1.--------------------------------------------------|
2.--------------------------------------------------|
3.--------------------------------------------------|
4.-7---7-7-7-7-7---7-7-7-7-7---7-7-7----------------|
5.-5---5-5-5-5-5---5-5-5-5-5---5-5-5----------------|
6.--------------------------------------------------|

¡Ven, acércate!
1.-----------------------------------------------------|
2.-----------------------------------------------------|
3.-----------------------------------------------------|
4.-7---7-4-5-7---7---7-5-7-9---9-9-7-5---5-5-5-5-------|
5.-5---5-2-3-5---5---5-3-5-7---7-7-5-3---3-3-3-3-------|
6.-----------------------------------------------------|

1.-----------------------------------------------------|
2.-----------------------------------------------------|
3.-----------------------------------------------------|
4.-5-5-5-5---5-5-5-5---5-7-5-----------7---7---7-5-7-9-|
5.-3-3-3-3---3-3-3-3---3-5-3-5-5-------5---5---5-3-5-7-|
6.---------------------------3-3-3-0-1-----------------|

1.----------------------------------------------------|
2.----------------------------------------------------|
3.----------------------------------------------------|
4.-9---9-7-5---5-5-5-5-5-5-5-5-5----------------------|
5.-7---7-5-3---3-3-3-3-3-3-3-3-3----------------------|
6.----------------------------------------------------|


1.-------------------------------------------------|
2.-------------------------------------------------|
3.-------------------------------------------------|
4.-/14----18-17----17-16----16-15----15-14----14---|
5.-----19-------18-------17-------16-------15------|
6.-------------------------------------------------|

1.--------------------------------------------------|
2.--------------------------------------------------|
3.--------------------------------------------------|
4.-/14----18-17----17-16----16-15----15-14----12(14-|
5.-----19-------18-------17-------16-------15-------|
6.--------------------------------------------------|

(guitarra acompañamiento)
1.------------------------------------------------|
2.------------------------------------------------|
3.------------------------------------------------|
4.-----0-1-2-----2-1-0-----0-1-2--5-7-------0-1-2-|
5.-2---------2---------2----------3-5---2---------|
6.-0-0-------0-0-------0-0--------------0-0-------|

1.-------------------------------------------|
2.-------------------------------------------|
3.-------------------------------------------|
4.-----2-1-0------0-1-2--------------2-------|
5.-2----------2----------2---5---5---0---2---|
6.-0-0--------0-0--------0---3---3-------0---|

1.------------------------------------------------------|
2.------------------------------------------------------|
3.------------------------------------------------------|
4.-----5------------------------------------------------|
5.-7---3---5---7---7-7-7-7---7-7-7-7-----2-4-5-7--------|
6.-5-------3---5---5-5-5-5---5-5-5-5-----0-2-3-5--------|




1.--------------------------------------------------|
2.-(H)----------------------------------------------|
3.-12-----------------------------------------------|
4.-----12-10----10-12(14)-/19\----------------------|
5.-----------12------------------------7-----7-10-7-|
6.-----------------------------10-8-10---10---------|

1.-------------------------------10(12)-10(12)-12---|
2.--------------------------------------------------|
3.--------------------------------------------------|
4.----7------7-10-7-10-12-12(14)--------------------|
5.-10----10-----------------------------------------|
6.--------------------------------------------------|

1.-12-12-12-14-12-15-12-17-12-15-12-12-12-12-12-14---|
2.---------------------------------------------------|
3.---------------------------------------------------|
4.---------------------------------------------------|
5.---------------------------------------------------|
6.---------------------------------------------------|

1.-12-15-12-17-12-15-12-12-12-12-14-12-15-12-17-12-|
2.-------------------------------------------------|
3.-------------------------------------------------|
4.-------------------------------------------------|
5.-------------------------------------------------|
6.-------------------------------------------------|

1.-15-12-12-12-12-14-12-15-12-17-12-15-12-12-12-12-|
2.-------------------------------------------------|
3.-------------------------------------------------|
4.-------------------------------------------------|
5.-------------------------------------------------|
6.-------------------------------------------------|

1.-14-12-15-12-17-12-15-12-12-12-12-14-12-15-12-17-|
2.-------------------------------------------------|
3.-------------------------------------------------|
4.-------------------------------------------------|
5.-------------------------------------------------|
6.-------------------------------------------------|

1.-12-15-12-12-12-12-14-12-12-15-12-17(18)-17----|
2.-----------------------------------------------|
3.-----------------------------------------------|
4.-----------------------------------------------|
5.-----------------------------------------------|
6.-----------------------------------------------|

1.-----------------------------------------------|
2.-----------------------------------------------|
3.-----------------------------------------------|
4.-14-14-14-16-16-16-17-17-17----------16-16-16--|
5.----------------------------19-19-19-----------|
6.-----------------------------------------------|

1.-----------------------------------------------|
2.-----------------------------------------------|
3.-----------16-16-16---19-19-19---19(21)---21---|
4.-19-19-19--------------------------------------|
5.-----------------------------------------------|
6.-----------------------------------------------|

Violín
1.----------------------------------------------------|
2.-----13-15-13------------------13-15-13-------------|
3.-/14----------16-14-12-14-/-14----------16-14-12-14-|
4.----------------------------------------------------|
5.----------------------------------------------------|
6.----------------------------------------------------|

1.---------------------------------------------------|
2.---------------------------------------------------|
3.-12-11-9-12-11-9-12-11-9-12-11-9-14-12-11-12-12-11-|
4.---------------------------------------------------|
5.---------------------------------------------------|
6.---------------------------------------------------|

1.-------------------------------------------------------|
2.-------------------------------------------------------|
3.-14-12-11-14-12-11-16-14-12-16-14-12-16-14-12-16-14-12-|
4.-------------------------------------------------------|
5.-------------------------------------------------------|
6.-------------------------------------------------------|

1.------------------------------------------------------|
2.-----------------------------------------------17-----|
3.-17-16-14-17-16-14-17-16-14-17-16-14-19-17-19---------|
4.------------------------------------------------------|
5.------------------------------------------------------|
6.------------------------------------------------------|

¡Ven, acércate!
1.-----------------------------------------------------|
2.-----------------------------------------------------|
3.-----------------------------------------------------|
4.-7---7-4-5-7---7---7-5-7-9---9-9-7-5---5-5-5-5-------|
5.-5---5-2-3-5---5---5-3-5-7---7-7-5-3---3-3-3-3-------|
6.-----------------------------------------------------|

1.-----------------------------------------------------|
2.-----------------------------------------------------|
3.-----------------------------------------------------|
4.-5-5-5-5---5-5-5-5---5-7-5-----------7---7---7-5-7-9-|
5.-3-3-3-3---3-3-3-3---3-5-3-5-5-------5---5---5-3-5-7-|
6.---------------------------3-3-3-0-1-----------------|

1.-----------------------------------------------------|
2.-----------------------------------------------------|
3.-----------------------------------------------------|
4.-9---9-7-5---5-5-5-5-5-5-5-5-5-----------------------|
5.-7---7-5-3---3-3-3-3-3-3-3-3-3-----------------------|
6.-----------------------------------------------------|



    Ven acércate
1.----------------------------------------------------|
2.----------------------------------------------------|
3.----------------------------------------------------|
4.-9---9-6-7-9---9---9-7-9---11---11---11-9-7-7-7-7-7-|
5.-7---7-4-5-7---7---7-5-7---9-----9----9-7-5-5-5-5-5-|
6.----------------------------------------------------|

1.-------------------------------------------------|
2.-------------------------------------------------|
3.-------------------------------------------------|
4.-7-7-7-7---7-7-7-7---7-9-7-----------------------|
5.-5-5-5-5---5-5-5-5---5-7-5-7---7-----------------|
6.---------------------------5---5---5-2-3---------|


1.-------------------------------------------------|
2.-------------------------------------------------|
3.-------------------------------------------------|
4.-9---9---9-7-9---11---11---11---11-9-7---7-7-7-7-|
5.-7---7---7-5-7---9-----9---9-----9-7-5---5-5-5-5-|
6.-------------------------------------------------|


1.---------------------------------------------------|
2.---------------------------------------------------|
3.---------------------------------------------------|
4.-7-7-7-7---7-7-7-7---7---2-----0-1-2---2-----2-1-0-|
5.-5-5-5-5---5-5-5-5---5---0---0---------0---0-------|
6.---------------------------------------------------|

1.-------------------------------|
2.-------------------------------|
3.-------------------------------|
4.-2------0-1-2---5---5---7---2--|
5.-0---0----------3---3---5---0--|
6.-------------------------------|
http://www.myspace.com/grupobarbarroja

                                    perchintabs.blogspot.com
comments
We did not receive enough feedback on this tab! Please rate:
print report bad tab
1 2 3 4 5
I want to post or [tab]
guest
You may want to rate the tab now too:
select rating
Please do not post tabs as comments. Select "correction" instead!