Oops, an error
Loading. Please wait.

Jake Leg Bass Tab

ver1
ver1

Whole song

Interactive

More versions @911Tabs.com
210 views 1 this week
no commentswrite comment
1 2 3 4 5
please rate
Autoscroll
+/-
esc
set tempo
stop
Contributor
Difficulty
intermediate
Hey! There's an official Ultimate Guitar app which is ideal
for learning songs when you're away from computer. Get the app
WARNING: You are trying to view
                                    content from Ultimate-Guitar.com
                                    in an unauthorized application,
                                    which is prohibited.

                                    Please use an official Ultimate
                                    Guitar Tabs application for iPhone,
                                    iPad or Android to access legitimate
                                    chords, guitar, bass, and drum tabs
                                    from Ultimate-Guitar.com database.

                                    Type "ultimate guitar tabs" in Apple
                                    App Store's or Android Market's
                                    search to find the application.
Title:  Jake Leg
Artist: Baroness
Album:  Blue Record
Author: Tab by J. Wagner
Note:   My first tab, I'm sure there are mistakes but this should give you a good start, 
I also hear a couple little extras here and there.
        If you make any changes please give me credit and let me know, or if you have 
suggestions I will gve you credit,
E-mail: ThirteenStrings@gmail.com
Site:   www.ThirteenStrings.com


Intro - x8
G|---------------------------------|
D|---------------------------------|
A|---------------------------------|
E|---------------------------------|
B|-1---1---1---1---1---1---1---1---|


Main Riff
G|-------------------------|-------------------------|-------------------------|
D|-------------------------|-------------------------|-------------------------|
A|-3--3--3--3--3--3--3--3--|-4--4--4--4--4--4--4--4--|-------------------------|
E|-------------------------|-------------------------|-6--6--6--6--6--6--6--6--|
B|-------------------------|-------------------------|-------------------------|

G|--------------------------|--------------------------|
D|--------------------------|--------------------------|
A|-3--3------4--4------7----|-6----6--7----3-----------|
E|--------------------------|--------------------------|
B|--------------------------|--------------------------|

G|-------------------------|-------------------------|--------------------------|
D|-------------------------|-------------------------|--------------------------|
A|-3--3--3--3--3--3--3--3--|-6--6--6--6--6--6--6--6--|--------------------------|
E|-------------------------|-------------------------|-6--6--6--6--6--6--6--6---|
B|-------------------------|-------------------------|--------------------------|

G|--------------------------|--------------------------|
D|--------------------------|--------------------------|
A|-3--3------4--4-------7---|-6----6--7----3-----------|
E|--------------------------|--------------------------|
B|--------------------------|--------------------------|

G|-------------------------|-------------------------|--------------------------|
D|-------------------------|-------------------------|--------------------------|
A|-3--3--3--3--3--3--3--3--|-6--6--6--6--6--6--6--6--|--------------------------|
E|-------------------------|-------------------------|-6--6--6--6--6--6--6--6---|
B|-------------------------|-------------------------|--------------------------|

G|--------------------------|--------------------------|
D|--------------------------|--------------------------|
A|-3--3------4--4-------7---|-6----6--7----3-----------|
E|--------------------------|--------------------------|
B|--------------------------|--------------------------|

G|-------------------------|----------------------|
D|-------------------------|----------------------|
A|-3--3--3--3--3--3--3--3--|-4-4-4-4-4-4-4--4-----|
E|-------------------------|----------------------|
B|-------------------------|----------------------|

G|-------------------------|---------------------|--------------------------|--------|
D|-------------------------|---------------------|--------------------------|--------|
A|--4----------------------|-6-----6---8-----8---|-3--4--3--4--3--4--3--4---|--------|
E|-----6-----6---4-----4---|---------------------|--------------------------|--------|
B|-------------------------|---------------------|--------------------------|-1------|

G|--------|
D|--------|
A|--------| Rest x8
E|--------|
B|--------|


Verse
G|---------------------|---------------------|
D|---------------------|---------------------|
A|---------------------|---------------------|
E|---------------------|---------------------|
B|-1---------1---------|-1---------1---------|

G|-----------------------------------------|-----------------------------------------|
D|-----------------------------------------|-----------------------------------------|
A|-8--8--8---7--7--7---6--6--6---5--5--5---|-4--4--4---3--3--3---2--2--2---1--1--1---|
E|-----------------------------------------|-----------------------------------------|
B|-----------------------------------------|-----------------------------------------|


This Riff x2
G|--------------------------|-------------------------|
D|--------------------------|-------------------------|
A|--3--3--3--3--3--3--3--3--|-3--3--3--3--3--3--3--3--|
E|--------------------------|-------------------------|
B|--------------------------|-------------------------|

G|--------------------------|--------------------------|
D|--------------------------|-5-5-5--5--5--5--3--5--3--|
A|-4--4--4--4--4--4--4--4---|--------------------------|
E|--------------------------|--------------------------|
B|--------------------------|--------------------------|

G|-------------------------|-------------------------|
D|-------------------------|-------------------------|
A|-3--3--3--3--3--3--3--3--|-3--3--3--3--3--3--3--3--|
E|-------------------------|-------------------------|
B|-------------------------|-------------------------|

G|-----------------------------|-----------------------------|
D|-----------------------------|-----------------------------|
A|-8-8-8--7-7-7--6-6-6--5-5-5--|-4-4-4--3-3-3--2-2-2--1-1-1--|
E|-----------------------------|-----------------------------|
B|-----------------------------|-----------------------------|


Continue Verse
G|---------------------------------|---------------------------------|
D|---------------------------------|---------------------------------|
A|-3---3---3-------3---3---3-------|-3---3---3-------3---3---3-------|
E|---------------------------------|---------------------------------|
B|---------------------------------|---------------------------------|

G|---------------------------------|-----------------------------------|
D|---------------------------------|-5--5--5---5---5---5---3---5---3---|
A|-4---4---4-------4---4---4-------|-----------------------------------|
E|---------------------------------|-----------------------------------|
B|---------------------------------|-----------------------------------|

G|---------------------------------|---------------------------------|
D|---------------------------------|---------------------------------|
A|-3---3---3-------3---3---3-------|-3---3---3-------3---3---3-------|
E|---------------------------------|---------------------------------|
B|---------------------------------|---------------------------------|

G|-----------------------------------------|-----------------------------------------|
D|-----------------------------------------|-----------------------------------------|
A|-8--8--8---7--7--7---6--6--6---5--5--5---|-4--4--4---3--3--3---2--2--2---1--1--1---|
E|-----------------------------------------|-----------------------------------------|
B|-----------------------------------------|-----------------------------------------|

G|---------------------------------|---------------------------------|
D|---------------------------------|---------------------------------|
A|-3---3---3-------3---3---3-------|-3---3---3-------3---3---3-------|
E|---------------------------------|---------------------------------|
B|---------------------------------|---------------------------------|

G|---------------------------------|-----------------------------------|
D|---------------------------------|-5--5--5---5---5---5---3---5---3---|
A|-4---4---4-------4---4---4-------|-----------------------------------|
E|---------------------------------|-----------------------------------|
B|---------------------------------|-----------------------------------|

G|---------------------------------|---------------------------------|
D|---------------------------------|---------------------------------|
A|-3---3---3-------3---3---3-------|-3---3---3-------3---3---3-------|
E|---------------------------------|---------------------------------|
B|---------------------------------|---------------------------------|

G|-----------------------------------------|-----------------------------------------|
D|-----------------------------------------|-----------------------------------------|
A|-8--8--8---7--7--7---6--6--6---5--5--5---|-4--4--4---3--3--3---1-3-1-3-1-3-1-3-1-3-|
E|-----------------------------------------|-----------------------------------------|
B|-----------------------------------------|-----------------------------------------|


Main Riff x2
G|-------------------------|-------------------------|-------------------------|
D|-------------------------|-------------------------|-------------------------|
A|-3--3--3--3--3--3--3--3--|-4--4--4--4--4--4--4--4--|-------------------------|
E|-------------------------|-------------------------|-6--6--6--6--6--6--6--6--|
B|-------------------------|-------------------------|-------------------------|


G|--------------------------|--------------------|
D|--------------------------|--------------------|
A|-3--3------4--4------7----|-6----6--7----3-----|
E|--------------------------|--------------------|
B|--------------------------|--------------------|

Continue Main Riff
G|-------------------------|----------------------|
D|-------------------------|----------------------|
A|-3--3--3--3--3--3--3--3--|-4-4-4-4-4-4-4--4-----|
E|-------------------------|----------------------|
B|-------------------------|----------------------|

G|-----------------------|---------------------|---------------|
D|-----------------------|---------------------|---------------|
A|-4---------------------|-6--7--6--7--6-------|--2 Beat Rest--|
E|---6-----6---4-----4---|---------------------|---------------|
B|-----------------------|---------------------|---------------|


Verse (Slightly Different)
G|---------------------------------|---------------------------------|
D|---------------------------------|---------------------------------|
A|-3---3---3-------3---3---3-------|-3---3---3-------4---4---4-------|
E|---------------------------------|---------------------------------|
B|---------------------------------|---------------------------------|

G|---------------------------------|-----------------|
D|-----------------5---5---5---5---|-5---5---3---5---|
A|-4---4---4-----------------------|-----------------|
E|---------------------------------|-----------------|
B|---------------------------------|-----------------|


G|---------------------------------|---------------------------------|
D|---------------------------------|---------------------------------|
A|-3---3---3-------3---3---3-------|-3---3---3-------3---3---3-------|
E|---------------------------------|---------------------------------|
B|---------------------------------|---------------------------------|

G|-------------------------------------------------|
D|-------------------------------------------------|
A|-8--8--8-----7--7--7-----6--6--6-----5--5--5-----|
E|-------------------------------------------------|
B|-------------------------------------------------|

G|-------------------------------------------------|
D|-------------------------------------------------|
A|-4--4--4-----3--3--3-----2--2--2-----1--1--1-----|
E|-------------------------------------------------|
B|-------------------------------------------------|


Verse (Normal Again) x2
G|----------------------------------|---------------------------------|
D|----------------------------------|---------------------------------|
A|--3---3---3-------3---3---3-------|-3---3---3-------3---3---3-------|
E|----------------------------------|---------------------------------|
B|----------------------------------|---------------------------------|

G|---------------------------------|-----------------------------------|
D|---------------------------------|-5--5--5---5---5---5---3---5---3---|
A|-4---4---4-------4---4---4-------|-----------------------------------|
E|---------------------------------|-----------------------------------|
B|---------------------------------|-----------------------------------|

G|----------------------------------|---------------------------------|
D|----------------------------------|---------------------------------|
A|-3---3---3--------3---3---3-------|-3---3---3-------3---3---3-------|
E|----------------------------------|---------------------------------|
B|----------------------------------|---------------------------------|

G|-----------------------------------------|-----------------------------------------|
D|-----------------------------------------|-----------------------------------------|
A|-8--8--8---7--7--7---6--6--6---5--5--5---|-4--4--4---3--3--3---2--2--2---1--1--1---|
E|-----------------------------------------|-----------------------------------------|
B|-----------------------------------------|-----------------------------------------|


Continue Verse
G|---------------------------------|---------------------------------|
D|---------------------------------|---------------------------------|
A|-3---3---3-------3---3---3-------|-3---3---3-------3---3---3-------|
E|---------------------------------|---------------------------------|
B|---------------------------------|---------------------------------|

G|---------------------------------|-----------------------------------|
D|---------------------------------|-5--5--5---5---5---5---3---5---3---|
A|-4---4---4-------4---4---4-------|-----------------------------------|
E|---------------------------------|-----------------------------------|
B|---------------------------------|-----------------------------------|

G|---------------------------------|---------------------------------|
D|---------------------------------|---------------------------------|
A|-3---3---3-------3---3---3-------|-3---3---3-------3---3---3-------|
E|---------------------------------|---------------------------------|
B|---------------------------------|---------------------------------|

G|-----------------------------------------|---------------------|
D|-----------------------------------------|---------------------|
A|-8--8--8---7--7--7---6--6--6---5--5--5---|-4--4--4---3--3--3---|
E|-----------------------------------------|---------------------|
B|-----------------------------------------|---------------------|

Interlude
G|---------------------------------|---------------------------------|
D|---------------------------------|---------------------------------|
A|-3---4---3-------4---6---4-------|-3---4---3-------4---6---4-------|
E|---------------------------------|---------------------------------|
B|---------------------------------|---------------------------------|


G|--------|--------|-----------------------|-----------------------|-------|
D|--------|--------|-----------------------|-----------------------|-------|
A|-3------|-3------|-3-----3---3---3---3---|-4-----4---4---4---4---|-4-----|
E|--------|--------|-----------------------|-----------------------|-------|
B|--------|--------|-----------------------|-----------------------|-------|


G|------------------------------|------------------------------|------------------------------|
D|------------------------------|------------------------------|------------------------------|
A|-3----3---3---3---3---3---3---|-4----4---4---4---4---4---4---|-3----3---3---3---3---3---3---|
E|------------------------------|------------------------------|------------------------------|
B|------------------------------|------------------------------|------------------------------|


G|------------------------------|------------------------------|------------------------------|
D|------------------------------|------------------------------|------------------------------|
A|-4----4---4---4---4---4---4---|-3----3---3---3---3---3---3---|-4----4---4---4---4---4---4---|
E|------------------------------|------------------------------|------------------------------|
B|------------------------------|------------------------------|------------------------------|


G|------------------------------|--------------------|--------|--------|
D|------------------------------|--------------------|--------|--------|
A|-3----3---3---3---3---3---3---|----------------3---|--Hold--|--Hold--|
E|------------------------------|--------------------|--------|--------|
B|------------------------------|--------------------|--------|--------|


G|------------------------------|---------------------------------|
D|------------------------------|---------------------------------|
A|-3---4---6---7----4---6---7---|-----6---4---3-------------------|
E|------------------------------|-----------------6---4---3-------|
B|------------------------------|-----------------------------6---|

G|------------------------------|------------------------------|
D|------------------------------|------------------------------|
A|-3---4---6---7----x---x---7---|---x---x---7------x---x---x---|
E|------------------------------|------------------------------|
B|------------------------------|------------------------------|

G|------------------------------|---------------------------------|
D|------------------------------|---------------------------------|
A|-3---4---6---7----4---6---7---|-----6---4---3-------------------|
E|------------------------------|-----------------6---4---3-------|
B|------------------------------|-----------------------------6---|

G|------------------------------|--------|
D|------------------------------|--------|
A|-3---4---6---7----7---7---3---|--Hold--|
E|------------------------------|--------|
B|------------------------------|--------|

G|------------------------------|---------------------------------|
D|------------------------------|---------------------------------|
A|-3---4---6---7----4---6---7---|-----6---4---3-------------------|
E|------------------------------|-----------------6---4---3-------|
B|------------------------------|-----------------------------6---|

G|------------------------------|------------------------------|
D|------------------------------|------------------------------|
A|-3---4---6---7----x---x---7---|---x---x---7------x---x---x---|
E|------------------------------|------------------------------|
B|------------------------------|------------------------------|

G|------------------------------|---------------------------------|
D|------------------------------|---------------------------------|
A|-3---4---6---7----4---6---7---|-----6---4---3-------------------|
E|------------------------------|-----------------6---4---3-------|
B|------------------------------|-----------------------------6---|

G|------------------|------------------------------|
D|------------------|o----------------------------o|
A|-3---4---6---7----|---x---3---3------x---3---3---| x4
E|------------------|o----------------------------o|
B|------------------|------------------------------|

G|----------|----------|--------|
D|----------|----------|--------|
A|---Rest---|----------|--------|
E|----------|----------|--------|
B|----------|-0--------|-1------|
  Six Notes  Six Notes
comments
We did not receive enough feedback on this tab! Please rate:
print report bad tab
1 2 3 4 5
I want to post or [tab]
guest
You may want to rate the tab now too:
select rating
Please do not post tabs as comments. Select "correction" instead!