Oops, an error
Loading. Please wait.

Now Youre Gone Tab

ver1
ver1

Solo

Whole song

Interactive

More versions @911Tabs.com
8,478 views 1 this week
2 commentsread comments
1 2 3 4 5
accurate
x 4
add to favorites launch autoscroll
font size
0
reset
Autoscroll
+/-
esc
set tempo
stop
Contributor
WARNING: You are trying to view
                                    content from Ultimate-Guitar.com
                                    in an unauthorized application,
                                    which is prohibited.

                                    Please use an official Ultimate
                                    Guitar Tabs application for iPhone,
                                    iPad or Android to access legitimate
                                    chords, guitar, bass, and drum tabs
                                    from Ultimate-Guitar.com database.

                                    Type "ultimate guitar tabs" in Apple
                                    App Store's or Android Market's
                                    search to find the application.
Ok, So I Waz Very Impressed With The Outher Tabs......But A Note Waz Rong

Standered E,A,D,G,B,e

e[---------------------------------------------------------------------------]
B[---------------------------------------------------------------------------]
G[--------------------------------------------------------5-x-5-x---4-x-4-x--]
D[--7-x-7-x-7-x-7-x---3-x-3-x-3-x-3-x---5-x-5-x-5-x-5-x---5-x-5-x---4-x-4-x--]
A[--7-x-7-x-7-x-7-x---3-x-3-x-3-x-3-x---5-x-5-x-5-x-5-x---3-x-3-x---2-x-2-x--]
E[--5-x-5-x-5-x-5-x---1-x-1-x-1-x-1-x---3-x-3-x-3-x-3-x----------------------]
comments
print report bad tab
2 comments total.
0 reply
jacobvsmith wrote on September 15 2010, 02:18 pm

your B chord should be a G/B other times it just goes back to the G. Just gotta listen to find out when. Kinda like DOTA, where the chords are Am, F, C, G/B. Then it changes to Am, F, C, G on some times. Basshunter likes to do that.
------------
------------
-4-------4--
-4--to---5--
-2-------2--
------------

0 reply
jacobvsmith wrote on September 15 2010, 02:19 pm

you could add the lead part too.

I want to post or [tab]
guest
You may want to rate the tab now too:
select rating
Please do not post tabs as comments. Select "correction" instead!