Oops, an error
Loading. Please wait.

Bayside Tab

4,387 views 6 this week
no commentswrite comment
1 2 3 4 5
not so good
x 1
Autoscroll
+/-
esc
set tempo
stop
Contributor
Hey! There's an official Ultimate Guitar app which is ideal
for learning songs when you're away from computer. Get the app
WARNING: You are trying to view
                                    content from Ultimate-Guitar.com
                                    in an unauthorized application,
                                    which is prohibited.

                                    Please use an official Ultimate
                                    Guitar Tabs application for iPhone,
                                    iPad or Android to access legitimate
                                    chords, guitar, bass, and drum tabs
                                    from Ultimate-Guitar.com database.

                                    Type "ultimate guitar tabs" in Apple
                                    App Store's or Android Market's
                                    search to find the application.
Bayside Album Tab
Anthony Raneri - Vocals/Rhythm Guitar
Jack O'Shea - Lead Guitar
Nick Ghanbarian - Bass
John "Beatz" Holohan - Drums
**NOTICE** I didnt do any of these tabs, i just put all the songs together.
I'm missing two of the songs because the tabs for them are crappy so i'll
update you with them as they get posted, anyway, heres the tabs:

Songs:
1) Hello Shitty
2) Devotion and Desire
3) Tortures of the Damned
4) They Looked Like Strong Hands
5) Montauk
6) Blame It on Bad Luck
7) We'll Be O.K
8) Existing In A Crisis (Evelyn)
9) Don't Call Me Peanut
10) Half a Life
11) Dear Tragedy *NO TAB YET*
12) A Long December *NO TAB YET*

-------------------
1) Hello Shitty
-------------------
Tuning: 1 whole step down (DGCFAD)

verse:
D|-----|------------------------------------------------------------------|
A|-----|------------------------------------------------------------------|
F|--4--|-----5--6-----7--6-----4----6--2--4-------------------------------|
C|--4--|--2--5--6--7--7--6--4--4----6--2--4-------------------------------|
G|--2--|--2--3--4--7--5--4--4--2----4--0--2-------------------------------|
D|-----|--0--------5--------2---------------------------------------------|

chorus:
D|-----------------|--------------------------------------------------------|
A|-----------------|--------------------------------------------------------|
F|--6--2-----4-----|-------5------------------------------------------------|
C|--6--2--2--4--X2-|--2----5------------------------------------------------|
G|--4--0--2--2-----|--2----3------------------------------------------------|
D|--------0--------|--0-----------------------------------------------------|

--------------------------
2) Devotion and Desire
--------------------------
/=slide up
=slide down
b=bend
r=release(from bend)
h=hammer on
p=pull off
.=palm mute
                             Lead Guitar
Drop D
Intro
e---------------------------------------------------------------|
b-----65--------------------------------------------------------|
g-------76-77777777----------77777777------------------66666666-|
d-75-------77777777-88888888-77777777-7777777788888888-66666666-|
a---87-----55555555-88888888-55555555-7777777788888888-44444444-|
D-------------------88888888----------7777777788888888----------|

Verse
e------------------------------------------------|
b------------------------------------------------|
g-7-77-77-777-------------7-77-------------6-666-|
d-7-77-77-777-8-88-88-888-7-77-------------6-666-|
a-5-55-55-555-8-88-88-888-5-55-77-777-8-88-4-444-|
D-------------8-88-88-888------77-777-8-88-------|

Pre-Chorus
e---------------------------------------|
b---------------------------------------|
g-77777777----------7777------66-66-666-|
d-77777777-88888888-7777-7777-66-66-666-|
a-55555555-88888888-5555-7777-44-44-444-|
D----------88888888------7777-----------|
  ........ ........ .... ....
Chorus
e------------------------------------------------------------------------|
b------------------------------------------------------------------------|
g-77777777-----------------------7-10-9-10-7-10-9-10--10-9-10-12-10-9-10-|
d-77777777-88888888-5555-7777-5-3--------------------8-------------------|
a-55555555-88888888-5555-7777-5-3----------------------------------------|
D----------88888888-5555-7777-5-3----------------------------------------|

e---------------------------------|
b---------------------------------|
g--10-9-10-12-10-9-7-6-7-9-7-9-10-|
d-8-------------------------------|
a---------------------------------|
D---------------------------------|

Solo
e-----------------------------------------------------------------------------|
b----13-----------------------------------------------------------------------|
g-12---12/14-12-10-9-10--9-----9-10--9----------------------------------------|
d----------------------12-10-12----12-10-12-----------------3-3-5b6r5-3-3-5---|
a------------------------------------------8-10-10b-8--3-3-5-5---------5------|
D-----------------------------------------------------------------------------|

e------5---10p0-8p0-6p0-5p0-3p0-6p0-5p0-3p0-8p0-6p0-10p0-8p0-12p0-10p0-12/13-|
b-------5--------------------------------------------------------------------|
g--------6-------------------------------------------------------------------|
d-7-8-7----------------------------------------------------------------------|
a----------------------------------------------------------------------------|
D----------------------------------------------------------------------------|

e-------------------------------------------------9-7-5-|
b--------------10-11-13-11-10---------------------------|
g-12b13r12-10----------------12-------------6-9-6-------|
d------------12----------------11b12r11--7-8-----7------|
a-------------------------------------------------------|
D-------------------------------------------------------|

Bridge
e-------------3h5------------6-5-3------------6p5----------------|
b----------------------------------------------------------------|
g-7-7777777777---6-6666666666--------------------------------6h7-|
d-7-7777777777---6-6666666666-----8-8888888888---7-7777777777----|
a-5-5555555555---4-4444444444-----8-8888888888---7-7777777777----|
D---------------------------------8-8888888888---7-7777777777----|
    ..........     ..........       ..........     ..........
e--------------------------------------|
b--------------------------------------|
g--77777777-66666666-------------------|
d--77777777-66666666-88888888-77777777-| x2
a--55555555-44444444-88888888-77777777-|
D--------------------88888888-77777777-|

play beginning of intro

Outro
e-------------|
b-------------|
g-------------|
d-5-3-0-0-0-0-| a few times
a-5-3-0-0-0-0-|
D-5-3-0-0-0-0-|

                           Rhythm Guitar
Intro
e---------------------------------------------------------------|
b-----65--------------------------------------------------------|
g-------76-77777777----------77777777------------------66666666-|
d-75-------77777777-88888888-77777777-7777777788888888-66666666-|
a---87-----55555555-88888888-55555555-7777777788888888-44444444-|
D-------------------88888888----------7777777788888888----------|

Verse
e------------------------------------------------|
b------------------------------------------------|
g-7-77-77-777-------------7-77-------------6-666-|
d-7-77-77-777-8-88-88-888-7-77-------------6-666-|
a-5-55-55-555-8-88-88-888-5-55-77-777-8-88-4-444-|
D-------------8-88-88-888------77-777-8-88-------|

Pre-Chorus
e---------------------------------------|
b---------------------------------------|
g-77777777----------7777------66-66-666-|
d-77777777-88888888-7777-7777-66-66-666-|
a-55555555-88888888-5555-7777-44-44-444-|
D----------88888888------7777-----------|
  ........ ........ .... ....
Chorus
e-----------------------------------------------------------------|
b-----------------------------------------------------------------|
g-77777777------------------------77777777------------------------|
d-77777777-88888888-5555-7777-5-3-77777777-88888888-5555-7777-5-3-|
a-55555555-88888888-5555-7777-5-3-55555555-88888888-5555-7777-5-3-|
D----------88888888-5555-7777-5-3----------88888888-5555-7777-5-3-|

Solo
e---------------------------------------|
b---------------------------------------|
g--77777777----------7777------66666666-|
d--77777777-88888888-7777-7777-66666666-| x2
a--55555555-88888888-5555-7777-44444444-|
D-----------88888888------7777----------|

Bridge
e-----------------------------------------------------|
b-----------------------------------------------------|
g-7-7777777777-6-6666666666---------------------------|
d-7-7777777777-6-6666666666-8-8888888888-7-7777777777-|
a-5-5555555555-4-4444444444-8-8888888888-7-7777777777-|
D---------------------------8-8888888888-7-7777777777-|
    ..........   ..........   ..........   ..........
e--------------------------------------|
b--------------------------------------|
g--77777777-66666666-------------------|
d--77777777-66666666-88888888-77777777-| x2
a--55555555-44444444-88888888-77777777-|
D--------------------88888888-77777777-|

play beginning of intro

Outro
e-------------|
b-------------|
g-------------|
d-5-3-0-0-0-0-| a few times
a-5-3-0-0-0-0-|
D-5-3-0-0-0-0-|

----------------------------
3) Tortures of the Damned
----------------------------
Drop D tuning

Rhythm Guitar

---------------------------------------------------------|
---------------------------------------------------------|
--4-~------4-~-------------------------------------------|
--4-~------4-~-------------------------------------------|
--2-~------2-~-------------------------------------------|
---------------------------------------------------------|


---------------------------------------------------------|X2
---------------------------------------------------------|
-4-4-4-4-------------------------------------------------|
-4-4-4-4--5-5-5-5--2-2-2-2--4-4-4-4----------------------|
-2-2-2-2--5-5-5-5--2-2-2-2--4-4-4-4----------------------|
----------5-5-5-5--2-2-2-2--4-4-4-4----------------------|

                           ...I HATE MYSELF...(2ND TIME)

[PM]
---------------------------------------------------------|X2
---------------------------------------------------------|
-4-X16---------------------------------------------------|
-4--------5-X16----2-X16--4-X16--------------------------|
-2--------5--------2------4------------------------------|
----------5--------2------4------------------------------|
 .        .        .      .

...IV MADE MISTAKES...
------------------------------------------------------------|
------------------------------------------------------------|
----------4-4-4-4--6-~--7-~---------------------------------|
-~-5-X10--4-4-4-4--6-~--7-~--5-X8/7-X8----------------------|
-~-5------2-2-2-2--4-~--5-~--5---/7-------------------------|
-~-5-------------------------5---/7-------------------------|
   .(GET LOUDER)          (PLAY FAST)


...THESE THINGS IV FAILED BEFOR...
----------------------------------------------------------|
----------------------------------------------------------|
--4-X8---7-X8---------------------------------------------|
--4------7-----5-X8---7-X8--------------------------------|
--2------5-----5------7-----------------------------------|
---------------5------7-----------------------------------|

...IT JUST HURTS TO BE A MAN...
--------------------------------------------------------|
--------------------------------------------------------|
--4-X8--------------------------------------------------|
--4-----4-X8--5-X8--2-X8--------------------------------|
--2-----4-----5-----2-----------------------------------|
--------4-----5-----2-----------------------------------|


---------------------------------------------------------|X2
---------------------------------------------------------|
-4-4-4-4-------------------------------------------------|
-4-4-4-4--5-5-5-5/-2-2-2-2/-4-4-4-4----------------------|
-2-2-2-2--5-5-5-5/-2-2-2-2/-4-4-4-4----------------------|
----------5-5-5-5/-2-2-2-2/-4-4-4-4----------------------|
 . . .    . . .    . . .    . . .   "IF I ONLY HAD AN AX"(2ND TIME)


---------------------------------------------------------|X2
---------------------------------------------------------|
-4-X16---------------------------------------------------|
-4--------5-X16----2-X16--4-X16--------------------------|
-2--------5--------2------4------------------------------|
----------5--------2------4------------------------------|
 .        .        .      .


...IV MADE MISTAKES...
------------------------------------------------------------|
------------------------------------------------------------|
----------4-4-4-4--6-~--7-~---------------------------------|
-~-5-X10--4-4-4-4--6-~--7-~--5-X8/7-X8----------------------|
-~-5------2-2-2-2--4-~--5-~--5---/7-------------------------|
-~-5-------------------------5---/7-------------------------|
   .(GET LOUDER)          (PLAY FAST)


...THESE THINGS IV FAILED BEFOR...
----------------------------------------------------------|
----------------------------------------------------------|
--4-X8---7-X8---------------------------------------------|
--4------7-----5-X8---7-X8--------------------------------|
--2------5-----5------7-----------------------------------|
---------------5------7-----------------------------------|

...IT JUST HURTS TO BE A MAN...
--------------------------------------------------------|
--------------------------------------------------------|
--4-X8--------------------------------------------------|
--4-----4-X8--5-X8--2-X6--------------------------------|
--2-----4-----5-----2-----------------------------------|
--------4-----5-----2-----------------------------------|
...THROUGH THE TORTURES OF THE DAMNED...

--------------------------------------------------------|
--------------------------------------------------------|
--------6--11-------------------------------------------|
--4--8--6--11-------------------------------------------|
--4--8--4--9--------------------------------------------|
--4--8--------------------------------------------------|


---------------------------------------------------------|X3
---------------------------------------------------------|
--4-4--6-7-----------------------------------------------|
--4-4--6-7---4-~---5-X8/-4-X8----------------------------|
--2-2--4-5---4-~---5---/-4-------------------------------|
-------------4-~---5---/-4-------------------------------|
            ...IM ON THE TRACKS...

--------------------------------------------------------|
--------------------------------------------------------|
--4-4--6-7----------------------------------------------|
--4-4--6-7---4-~---5-X8/-4-4-4--X-X--X------------------|
--2-2--4-5---4-~---5---/-4-4-4--X-X--X------------------|
-------------4-~---5---/-4-4-4--X-X--X------------------|


--------------------------------------------------------| X2
--------------------------------------------------------|
--4-~-4-------------------------------------------------|
--4-~-4----5-~---5-7-~-7---7--4-~-----------------------|
--2-~-2----5-~---5-7-~-7---7--4-~-----------------------|
-----------5-~---5-7-~-7---7--4-~-----------------------|

...IV MADE MISTAKES...
------------------------------------------------------------|
------------------------------------------------------------|
----------4-4-4-4--6-~--7-~---------------------------------|
-~-5-X10--4-4-4-4--6-~--7-~--5-X8/7-X8----------------------|
-~-5------2-2-2-2--4-~--5-~--5---/7-------------------------|
-~-5-------------------------5---/7-------------------------|
   .(GET LOUDER)          (PLAY FAST)

...THESE THINGS IV FAILED BEFOR...
----------------------------------------------------------|
----------------------------------------------------------|
--4-X8---7-X8---------------------------------------------|
--4------7-----5-X8---7-X8--------------------------------|
--2------5-----5------7-----------------------------------|
---------------5------7-----------------------------------|

...IT JUST HURTS TO BE A MAN...
--------------------------------------------------------|
--------------------------------------------------------|
--4-X8--------------------------------------------------|
--4-----4-X8--5-X8--2-X8--------------------------------|
--2-----4-----5-----2-----------------------------------|
--------4-----5-----2-----------------------------------|
                    (START TO P.M.)
..IV MADE MISTAKES...(2ND TIME)
--------------------------------------------------------|
--------------------------------------------------------|
--6-X4---8-~--7-~---------------------------------------|
--6------8-~--7-~---7-x8/--9--x8------------------------|
--4------6-~--9-~---7---/--9----------------------------|
--------------------7---/--9----------------------------|

...these things iv failed befor...
--------------------------------------------------------|
--------------------------------------------------------|
--6-x8--7-x8--------------------------------------------|
--6-----7---7-x8--9-x8----------------------------------|
--4-----9---7-----9-------------------------------------|
------------7-----9-------------------------------------|

...it just hurts to be a man...
--------------------------------------------------------|
--------------------------------------------------------|
--6-x8--------------------------------------------------|
--6----6-x8-7-x8-4-x12----------------------------------|
--4----6----7----4--------------------------------------|
-------6----7----4--------------------------------------|


---------------------------------------------------------|X4
---------------------------------------------------------|
-6-6-6-6-------------------------------------------------|
-6-6-6-6--7-7-7-7--4-4-4-4--6-6-6-6----------------------|
-4-4-4-4--7-7-7-7--4-4-4-4--6-6-6-6----------------------|
----------7-7-7-7--4-4-4-4--6-6-6-6----------------------|
    ...OF THE DAMNED...
--------------------------------------------------------|
--------------------------------------------------------|
-6-----6-~----------------------------------------------|
-6--6--6-~----------------------------------------------|
-4--6--4-~----------------------------------------------|
----6---------------------------------------------------|


4) They Looked Like Strong Hands
Tuning: 1 whole step down (DGCFAD)

intro:
D|------------------------------------------------------------------------|
A|------------------------------------------------------------------------|
F|------------8^8--9-8-6--------------------------------------------------|
C|------6---6------------9-7-6------------------6h7p6---6-----------------|
G|----7---7-----------------------7-9^9-7--9-7--------9---7---------------|
D|--9---------------------------9-----------------------------------------|

D|------------------------------------------------------------------------|
A|------------------------------------------------------------------------|
F|------------8^8--9-8-6--------------------------------------------------|
C|------6---6------------9-7-6--------------------------------------------|
G|----7---7-----------------------7-9^9-7--9-7--9^9--7h9p7----------------|
D|--9---------------------------9-----------------------------------------|

verse:
D|------------------------------------------------------------------------|
A|-----5--------5---------------------------------------------------------|
F|--6--4-----2--4---------------------------------------------------------|
C|--6--2--4--2--2---------------------------------------------------------|
G|--4-----4--0------------------------------------------------------------|
D|--------2---------------------------------------------------------------|

chorus:
D|------------------------------------------------------------------------|
A|-----------5------------------------------------------------------------|
F|--2--5--6--4--2--4------------------------------------------------------|
C|--2--5--6--2--2--4--2---------------------------------------------------|
G|--0--3--4-----0--2--2---------------------------------------------------|
D|--------------------0---------------------------------------------------|

bridge:
D|----------------------------------------------------|-------------------|
A|----------------------------------------------------|-------------------|
F|---------------------------------------------4h6p4--|-----------------4-|
C|-------6-6-6-------7-6-4---------6-6-6-------------6|--6---7-6-4----7-4-|
G|-4-4-4-------4-4-4-------7-4-4-4-------6-6-6--------|4---4-------7--7-2-|
D|----------------------------------------------------|---------------5---|

D|----------------------------|-------------------------------------------|
A|----------------------------|-------------------------------------------|
F|-----------9-8-4-6--4-6-4---|-------9-----------------------------------|
C|--2--6--2--9-8-4-6--4-6-4-2-|-6--9--9-----------------------------------|
G|--2--6--2--7-6-2-4--2-4-2-2-|-6--9--7-----------------------------------|
D|--0--4--0-----------------0-|-4--7--------------------------------------|
NOTE : play second part only on the first time

| ^  bend
| /  slide up
| \  slide down
| h  hammer-on
| p  pull-off
| ~  vibrato
| +  harmonic
| x  Mute note

-------------
5) Montauk
-------------
Tuning: Drop D

[intro]
(guitar 1)
e|------------------------------------------------------------|
b|-X-X-3-3-X-3-3-X-X-3-3-3----------------------------------3-|
g|-X-X-4-4-X-4-4-X-X-4-4-4-7--7-7--7-7--11--11--11-11-11-11-4-|
d|-X-X-4-4-X-4-4-X-X-4-4-4-7--7-7--7-7--11--11--11-11-11-11-4-|
a|-X-X-2-2-X-2-2-X-X-2-2-2-5--5-5--5-5---9---9---9--9--9--9-2-|
D|------------------------------------------------------------| [x4]
(guitar 2)
{comes in third cycle}
e|---------------------------------------------------------------|
b|---------------------------------------------------------------|
g|-/6-----6-5-8-6-5-6-5-8-6-5-6-5----6-5-6-5-8-6-5-6-5-6-5-6-5---|
d|-----------8---------8---------8----------8---------8-------8--|
a|---------------------------------------------------------------|
D|---------------------------------------------------------------|

e|------------------------------------------------------------|
b|------------------------------------------------------------|
g|-6-5-8-6-5-6-5-8-6-5-6-5----6-5-6-5-8-6-5-6-5-6-5-6-5-------|
d|----8---------8---------8----------8---------8-------8-6-4--|
a|------------------------------------------------------------|
D|------------------------------------------------------------|

[verse]

e|-------------------------------------------------------------------------|
b|-------------------------------------------------------------------------|
g|-7-7-7-7-7-7-7-7-7-7-7-7-X-9--9-9-9-X-X-9-X-8-X-11--11-11-11-11-11-11-11-|
d|-5-5-5-5-5-5-5-5-7-7-7-7-X-7--7-7-7-X-X-7-X-7-X--9---9--9--9--9--9--9--9-|
a|-5-5-5-5-5-5-5-5-5-5-5-5-X-7--7-7-7-X-X-7-X-7-X--9---9--9--9--9--9--9--9-|
D|-5-5-5-5-5-5-5-5---------X-7--7-7-7-X-X-7-X-7-X--9---9--9--9--9--9--9--9-|

e|-----------------------------|
b|-----------------------------|
g|-X-4-X---X-6--6-6-6-6-6-6-6--|
d|-X-2-X-0-X-4--4-4-4-4-4-4-4--|
a|-X-2-X-0-X-4--4-4-4-4-4-4-4--|
D|-X-2-X-0-X-4--4-4-4-4-4-4-4--| [x2]

[transition]

e|-------------------------------|
b|-------------------------------|
g|-7-7-7-7-7-7-7-7-7--7--7--7--7-|
d|-7-7-7-7-7-7-7-7-7--7--7--7--7-|
a|-5-5-5-5-5-5-5-5-5--5--5--5--5-|
D|-------------------------------|

[Chorus]

e|---------------------------------------------------------------------|
b|-3-3-3--3-3-3--3-3-3--3-3-3------------------------------------------|
g|-4-4-4--4-4-4--4-4-4--4-4-4----------------------------9-9-9--9-9-9--|
d|-4-4-4--4-4-4--4-4-4--4-4-4-2-2-2--2-2-2--2-2-2--2-2-2-7-7-7--7-7-7--|
a|-2-2-2--2-2-2--2-2-2--2-2-2-2-2-2--2-2-2--2-2-2--2-2-2-7-7-7--7-7-7--|
D|----------------------------2-2-2--2-2-2--2-2-2--2-2-2-7-7-7--7-7-7--|

e|----------------------------|
b|----------------------------|
g|-9-9-9--9-9-9-7-6-7-9-7-6-4-|
d|-7-7-7--7-7-7-X-X-X-X-X-X-X-|
a|-7-7-7--7-7-7-5-4-5-7-5-4-2-|
D|-7-7-7--7-7-7---------------| [x2]

[Verse]
e|-------------------------------------------------------------------------|
b|-------------------------------------------------------------------------|
g|-7-7-7-7-7-7-7-7-7-7-7-7-X-9--9-9-9-X-X-9-X-8-X-11--11-11-11-11-11-11-11-|
d|-5-5-5-5-5-5-5-5-7-7-7-7-X-7--7-7-7-X-X-7-X-7-X--9---9--9--9--9--9--9--9-|
a|-5-5-5-5-5-5-5-5-5-5-5-5-X-7--7-7-7-X-X-7-X-7-X--9---9--9--9--9--9--9--9-|
D|-5-5-5-5-5-5-5-5---------X-7--7-7-7-X-X-7-X-7-X--9---9--9--9--9--9--9--9-|

e|-----------------------------|
b|-----------------------------|
g|-X-4-X---X-6--6-6-6-6-6-6-6--|
d|-X-2-X-0-X-4--4-4-4-4-4-4-4--|
a|-X-2-X-0-X-4--4-4-4-4-4-4-4--|
D|-X-2-X-0-X-4--4-4-4-4-4-4-4--| [x2]
[Chorus]
e|---------------------------------------------------------------------|
b|-3-3-3--3-3-3--3-3-3--3-3-3------------------------------------------|
g|-4-4-4--4-4-4--4-4-4--4-4-4----------------------------9-9-9--9-9-9--|
d|-4-4-4--4-4-4--4-4-4--4-4-4-2-2-2--2-2-2--2-2-2--2-2-2-7-7-7--7-7-7--|
a|-2-2-2--2-2-2--2-2-2--2-2-2-2-2-2--2-2-2--2-2-2--2-2-2-7-7-7--7-7-7--|
D|----------------------------2-2-2--2-2-2--2-2-2--2-2-2-7-7-7--7-7-7--|

e|--------------------|
b|--------------------|
g|-9-9-9--9-9-9-7-6-3-|
d|-7-7-7--7-7-7-X-X-X-|
a|-7-7-7--7-7-7-5-4-1-|
D|-7-7-7--7-7-7-------|

[Interlude]
(guitar 1)
e|-------------------------------------------------------|
b|-14----14----14----14----14-12----12----12----12----12-|
g|---13----13----13----13-------13----13----13----13-----|
d|-----11----11----11----11-------14----14----14----14---|
a|-------------------------------------------------------|
D|-------------------------------------------------------|

e|-------------------------------------------------|
b|-10----10----10----10----10-9----9----9----9-----|
g|---11----11----11----11------11---11---11---11---|
d|-----12----12----12----12------10---10---10---10-|
a|-------------------------------------------------|
D|-------------------------------------------------| [x2]

(guitar 2)
{on second cycle come in with this}

   PM........................
e|---------------------------------5---------5----------|
b|----------------------------7-5---7-5-7-5---7-5-7-5---|
g|--5-5-7-5--4----------5-7-5----7---------7---------7--|
d|-7-7---------7-5-4-5-7--------------------------------|
a|------------------------------------------------------|
D|------------------------------------------------------|

   PM...    . . .   .   . .  .. ............
e|------------------------------------------------------|
b|-------5-3-3---5-3--3-------2-1-1-2-4-2-1-1h2p1---2h4-|
g|-7-5-3----5-5-3---5---5-3------2---------2-----3p2----|
d|--------------------------/5--------------------------|
a|------------------------------------------------------|
D|------------------------------------------------------|

[Solo]
(guitar 2)
        tremolo pick here .                     pinch harmonic .     
e|------------10--10-12-12b---10-12-12b-10----------------------------------|
b|----7/12--12--12------------------------12-12-----------------------------|
g|---7------------------------------------------9b-7-------7-9-9b-7---------|
d|-/9------------------------------------------------9-7-9----------9-7-9-7-|
a|--------------------------------------------------------------------------|
D|--------------------------------------------------------------------------|
 Now the fast part
e|----------------------------------------------------|
b|-----------------------12--14--15--14--12--10--10---|
g|-------------11--/11-11--11--11--11--11--11--11--11-|
d|-----11---11----------------------------------------|
a|-7-9----9-------------------------------------------|
D|----------------------------------------------------|

e|------------------------------------------------------------------------|
b|-------15--17--19--17--15--12--12---12-14-15-14-15-17b-17-15-14-12------|
g|-/14-14--14--14--14--14--14--14--14-------------------------------15-11-|
d|------------------------------------------------------------------------|
a|------------------------------------------------------------------------|
D|------------------------------------------------------------------------|

e|----14---14---14---14--------|
b|-17b--17b--17b--17b--17b-17b-|
g|-----------------------------|
d|-----------------------------|
a|-----------------------------|
D|-----------------------------|

(guitar one){back-up for solo}
e|----------------------------------------------------------------------|
b|-14-14-14--14-14-14--14-14-14--14-14-14--12-12-12--12-12-12--12-12-12-|
g|-13-13-13--13-13-13--13-13-13--13-13-13--13-13-13--13-13-13--13-13-13-|
d|-11-11-11--11-11-11--11-11-11--11-11-11--14-14-14--14-14-14--14-14-14-|
a|----------------------------------------------------------------------|
D|----------------------------------------------------------------------|

e|----------------------------------------------------------------------|
b|-12-12-12--10-10-10--10-10-10--10-10-10--10-10-10---9--9--9---9--9--9-|
g|-13-13-13--11-11-11--11-11-11--11-11-11--11-11-11--11-11-11--11-11-11-|
d|-14-14-14--12-12-12--12-12-12--12-12-12--12-12-12--10-10-10--10-10-10-|
a|----------------------------------------------------------------------|
D|----------------------------------------------------------------------|

e|---------------------|      e|---------------|
b|--9--9--9---9--9--9--|      b|---------------|
g|-11-11-11--11-11-11--|      g|---------------|
d|-10-10-10--10-10-10--|      d|-2--2--2--2--2-|
a|---------------------|      a|-2--2--2--2--2-|
D|---------------------| [x2] D|-2--2--2--2--2-|

[Transition]

e|------------------------------------------------------------------------------|
b|------------------------------------------------------------------------------|
g|-4-4-4/6/7\6\4------7---7-6-7-9-7-6-4--4------7---7-6-3--3-3--3-3--3-3--3-3-3-|
d|-4-4-X/X/X\X\x--2---9---X-X-X-X-X-X-X--4--2---9---X-X-X--3-3--3-3--3-3--3-3-3-|
a|-2-2-2/4/5\4\2--2---9---5-4-5-7-5-4-2--2--2---9---5-4-1--1-1--1-1--1-1--1-1-1-|
D|----------------2---9---------------------2---9-------------------------------|

[last Chorus]

e|---------------------------------------------------------------------|
b|-3-3-3--3-3-3--3-3-3--3-3-3------------------------------------------|
g|-4-4-4--4-4-4--4-4-4--4-4-4----------------------------9-9-9--9-9-9--|
d|-4-4-4--4-4-4--4-4-4--4-4-4-2-2-2--2-2-2--2-2-2--2-2-2-7-7-7--7-7-7--|
a|-2-2-2--2-2-2--2-2-2--2-2-2-2-2-2--2-2-2--2-2-2--2-2-2-7-7-7--7-7-7--|
D|----------------------------2-2-2--2-2-2--2-2-2--2-2-2-7-7-7--7-7-7--|

e|----------------------------|
b|----------------------------|
g|-9-9-9--9-9-9-7-6-7-9-7-6-4-|
d|-7-7-7--7-7-7-X-X-X-X-X-X-X-|
a|-7-7-7--7-7-7-5-4-5-7-5-4-2-|
D|-7-7-7--7-7-7---------------|

e|---------------------------------------------------------------------|
b|-3-3-3--3-3-3--3-3-3--3-3-3------------------------------------------|
g|-4-4-4--4-4-4--4-4-4--4-4-4----------------------------9-9-9--9-9-9--|
d|-4-4-4--4-4-4--4-4-4--4-4-4-2-2-2--2-2-2--2-2-2--2-2-2-7-7-7--7-7-7--|
a|-2-2-2--2-2-2--2-2-2--2-2-2-2-2-2--2-2-2--2-2-2--2-2-2-7-7-7--7-7-7--|
D|----------------------------2-2-2--2-2-2--2-2-2--2-2-2-7-7-7--7-7-7--|
                               .slide up the neck.
e|--------------------------------|
b|--------------------------------|
g|-9-9-9--9-9-9--7-6-4-3----4--4\-|
d|-7-7-7--7-7-7--X-X-X-X----4--4\-|
a|-7-7-7--7-7-7--5-4-2-1----2--2\-|
D|-7-7-7--7-7-7-------------------|

-------------------------------
6) Blame It on Bad Luck Luck
-------------------------------
Standard Tuning

Intro (clean)

e:2-----------|-------------|---------------|-----------|
H:x-----------|-------------|---------------|-----------|
G:4-----------|-------------|---------------|-----------|  
D:4-----------|-------------|---------------|-----------|
A:2-----------|-------------|---------------|-----------|
E:------------|-------------|---------------|-----------|
Pound my knuckles hard against the floor

e:------------|-------------|---------------|2-----------|
H:------------|-------------|---------------|-3----------|
G:------------|-------------|---------------|--4---------|  x2
D:------------|-------------|---------------|------------|
A:------------|-------------|---------------|------------|
E:------------|-------------|---------------|------------|
With my head against the wall but I did this to my.....


e:2-----------|-------------|---------------|-----------|
H:x-----------|-------------|---------------|-----------|
G:4-----------|-------------|---------------|-----------|  x2
D:4-----------|-------------|---------------|-----------|
A:2-----------|-------------|---------------|-----------|
E:------------|-------------|---------------|-----------|
Assume it's just not worth getting back up

Play this before the intro

e:------------|-------------|---------------|-----------|
H:------------|-------------|---------------|-----------|
G:------------|4-4-4-4------|---------------|-----------|
D:4-4-4-4-----|4-4-4-4------|---------------|-----------|
A:2-2-2-2-----|2-2-2-4------|---------------|-----------|
E:------------|-------------|---------------|-----------|
pm- - - -
Verse:

Both guitars play this:

e:------------|-------------|---------------|-----------|
H:------------|-------------|---------------|-----------|
G:4-4-4-4-----|4-4-4-4------|---------------|-----------|
D:4-4-4-4-----|4-4-4-4------|2-2-2-2--------|4-4-4-4----|x 4
A:2-2-2-2-----|2-2-2-4------|2-2-2-2--------|4-4-4-4----|
E:------------|-------------|0-0-0-0--------|2-2-2-2----|

You can play this for the clear eyes part:
e:------------|-------------|------|
H:------------|-------------|------|
G:------------|-------------|------|
D:-4-4-4-6-7-6-9-119-9-9-9-4-4-4-4-|
A:-x-x-x-x-x-x-x-x-x-x-x-x-x-x-x-x-|
E:-2-2-2-4-5-4-7-9-7-7-7-7-2-2-2-2-|

Chorus:
e:------------|----------------|---------------|------------|
H:------------|----------------|---------------|------------|
G:------------|----------------|---------------|------------|
D:444444444444|2222------------|---------------|------------|
A:222222222222|0000555555555555|444422222222222|555544444444|x2
E:------------|----333333333333|222200000000000|333322222222|

e:------------|
H:------------|
G:------------|
D:77777777----|
A:55555555----|

or

e:------------|----------------|----------------|------------|------------|
H:------------|----------------|----------------|------------|------------|
G:444444444444|6666777777777777|9999111111111111|777711111111|77777777----|
D:xxxxxxxxxxxx|xxxxxxxxxxxxxxxx|xxxxxxxxxxxxxxxx|xxxxxxxxxxxx|xxxxxxxx----|
A:222222222222|4444555555555555|7777999999999999|555599999999|55555555----|
E:------------|----------------|----------------|------------|------------|

Play this after the chorus

e:------------|----------------|---------------|------------|
H:------------|----------------|---------------|------------|
G:---4-2------|----------------|---------------|------------|
D:-------4h5--|5-4-2-0---------|--2---4--------|------------|x2
A:2-----------|--------2-------|----2----------|----5-2-----|
E:------------|----------------|0--------------|2--------5--|

Verse:

e:------------|-------------|---------------|-----------|
H:------------|-------------|---------------|-----------|
G:4-4-4-4-----|4-4-4-4------|---------------|-----------|
D:4-4-4-4-----|4-4-4-4------|2-2-2-2--------|4-4-4-4----|x 4
A:2-2-2-2-----|2-2-2-4------|2-2-2-2--------|4-4-4-4----|
E:------------|-------------|0-0-0-0--------|2-2-2-2----|

e:------------|----------------|---------------|------------|
H:------------|----------------|---------------|------------|
G:------------|----------------|---------------|------------|
D:444444444444|2222------------|---------------|------------|x2
A:222222222222|0000555555555555|444422222222222|555544444444|
E:------------|----333333333333|222200000000000|333322222222|

e:------------|
H:------------|
G:------------|
D:77777777----|
A:55555555----|

or

e:------------|----------------|----------------|------------|------------|
H:------------|----------------|----------------|------------|------------|
G:444444444444|6666777777777777|9999111111111111|777711111111|77777777----|
D:xxxxxxxxxxxx|xxxxxxxxxxxxxxxx|xxxxxxxxxxxxxxxx|xxxxxxxxxxxx|xxxxxxxx----|
A:222222222222|4444555555555555|7777999999999999|555599999999|55555555----|
E:------------|----------------|----------------|------------|------------|

Then play

e:------------|
H:------------|
G:------------|
D:5-7-7-8-----|
A:3-5-5-6-----|
pm  x x x

Interlude:
e:---------------------------------------------------------------|
H:---------------------------------------------------------------|
G:-----------------------------------11------11------11------11--|
D:---4-------4-------4---4---8---8-9---9---9---9---9---9---9---9-|  x2
A:-5---5---5---5---5---5---9---9---------------------------------|
E:---------------------------------------------------------------|

Bridge:
e|----------------------------------------|
B|----------------------------------------|
G|----------------------------------------|
D|-----------7-7-7-7-------------4-4-2-2--|
A|-5-5-5-5---5-5-5-5---4-4-4-4---2-2-0-0--|
E|-3-3-3-3-------------2-2-2-2------------|
                                           x2
e|----------------------------------------|
B|----------------------------------------|
G|----------------------------------------|
D|-----------7-7-7-7----------------------|
A|-5-5-5-5---5-5-5-5---4-4-4-4-4-4-4-4----|
E|-3-3-3-3-------------2-2-2-2-2-2-2-2----|

or

e:---------------------------|
H:---------------------------|
G:---------------------------|   x2
D:---------------------------|
A:-5---5---4---2-7-5---5---4-|
E:-3---5---2---2-5-3---5---2-|

then for the last one play

e|--------------------------------|
B|--------------------------------|
G|--------------------------------|
D|--------------------------------|
A|-5---7----4---9-----5---7-7-8---|
E|-3---5----2---7-----3---5-5-6---|

or

e:-----------------|
H:-----------------|
G:-----------------|  x2
D:-----------------|
A:-5---7---8---9---|
E:-3---5---6---7---|

Chorus:
e:------------|----------------|---------------|------------|
H:------------|----------------|---------------|------------|
G:------------|----------------|---------------|------------|
D:444444444444|2222------------|---------------|------------|
A:222222222222|0000555555555555|444422222222222|555544444444|x2
E:------------|----333333333333|222200000000000|333322222222|

e:------------|
H:------------|
G:------------|
D:77777777----|
A:55555555----|

or

e:------------|----------------|----------------|------------|------------|
H:------------|----------------|----------------|------------|------------|
G:444444444444|6666777777777777|9999111111111111|777711111111|77777777----|
D:xxxxxxxxxxxx|xxxxxxxxxxxxxxxx|xxxxxxxxxxxxxxxx|xxxxxxxxxxxx|xxxxxxxx----|
A:222222222222|4444555555555555|7777999999999999|555599999999|55555555----|
E:------------|----------------|----------------|------------|------------|

Then slide down....

------------------
7) We'll Be O.K.
------------------
Drop-D Tuning

Intro                                       x4
E|--------------------------------------------|
B|--------------------------------------------|
G|--------------------------------------------|
D|----------------------------2-2-2-2-2-2-2-2-|
A|----------9-10-9-12-10-9-10-2-2-2-2-2-2-2-2-|
D|-9b10r9-5-------------------2-2-2-2-2-2-2-2-|


E|-----------------------------------|
B|-----------------------------------|
G|-----------------------------------|
D|-9b10r9-7-9b10r9-7-9-9b10r9-7------|
A|------------------------------6----|
D|-----------------------------------|


E|-----------------------------------------------|
B|-----------------------------------------------|
G|-----------------------------------------------|
D|55-555-555-555-522-222-222-222-255-555-555-559-|
A|55-555-555-555-522-222-222-222-255-555-555-559-|
D|55-555-555-555-522-222-222-222-255-555-555-559-|


E|-----------------------------------------------------|
B|-----------------------------------------------------|
G|-----------------------------------------------------|
D|-222-222-222-222-255-555-555-555-522-222-222-222-255-|
A|-222-222-222-222-255-555-555-555-522-222-222-222-255-|
D|-222-222-222-222-255-555-555-555-522-222-222-222-255-|


E|--------------------------------|
B|--------------------------------|
G|--------------------------------|
D|-555-555-559-22-222-222-222-222-|
A|-555-555-559-22-222-222-222-222-|
D|-555-555-559-22-222-222-222-222-|


E|-----------------------------------|
B|-----------------------------------|
G|-----------------------------------|
D|-9b10r9-7-9b10r9-7-9b10r9-7-5------|
A|------------------------------6/10-|
D|-----------------------------------|

Chorus
E|--------------------------------|
B|--------------------------------|
G|--------------------------------|
D|-x-2-2-x-0-0-5-5-5-5-7-7-7-5----|
A|-x-2-2-x-0-0-5-5-5--------------|
D|-x-2-2-x-0-0-5-5-5--------------|


E|-----------------------------------|
B|-----------------------------------|
G|-------x-5-5-----------------------|
D|-x-2-2-x-5-5-5-5-5-5---------------|
A|-x-2-2-x-3-3-5-5-5-5-5-7-10-9h10p9-|
D|-x-2-2-------5-5-5-5---------------|


E|--------------------------------|
B|--------------------------------|
G|--------------------------------|
D|-x-2-2-x-0-0-5-5-5-5-7-7-7-5----|
A|-x-2-2-x-0-0-5-5-5--------------|
D|-x-2-2-x-0-0-5-5-5--------------|


E|---------------------------------|
B|---------------------------------|
G|-------x-5-5---------------------|
D|-x-2-2-x-5-5-5-5-5-5-5-7-9-12-2--|
A|-x-2-2-x-3-3-5-5-5-5-5-7-9-12-2--|
D|-x-2-2-------5-5-5-5-5-7-9-12-2--|


Verse #2
E|---------------------|
B|---------------------|
G|---------------------|
D|---------------------|
A|---------------------|
D|-52-2/5-5/7-72-2/5---|


E|-----------------------------------|
B|-----------------------------------|
G|-----------------------------------|
D|-9b10r9-7-9b10r9-7-9b10r9-7-5-5----|
A|------------------------------6/10-|
D|-----------------------------------|

Chorus
E|--------------------------------|
B|--------------------------------|
G|--------------------------------|
D|-x-2-2-x-0-0-5-5-5-5-7-7-7-5----|
A|-x-2-2-x-0-0-5-5-5--------------|
D|-x-2-2-x-0-0-5-5-5--------------|


E|-----------------------------------|
B|-----------------------------------|
G|-------x-5-5-----------------------|
D|-x-2-2-x-5-5-5-5-5-5---------------|
A|-x-2-2-x-3-3-5-5-5-5-5-7-10-9h10p9-|
D|-x-2-2-------5-5-5-5---------------|


E|--------------------------------|
B|--------------------------------|
G|--------------------------------|
D|-x-2-2-x-0-0-5-5-5-5-7-7-7-5----|
A|-x-2-2-x-0-0-5-5-5--------------|
D|-x-2-2-x-0-0-5-5-5--------------|


E|----------------------------------|
B|----------------------------------|
G|-------x-5-5----------------------|
D|-x-2-2-x-5-5-5-5-5-5-5-7-9-12-2-0-|
A|-x-2-2-x-3-3-5-5-5-5-5-7-9-12-2-0-|
D|-x-2-2-------5-5-5-5-5-7-9-12-2-0-|


E|--------------------------------------------------|
B|--------------------------------------------------|
G|-44444444-88888888--99999999-77777-9-7-5-44444444-|
D|-xxxxxxxx-xxxxxxxx—-xxxxxxxx-xxxxx—x-x-x-xxxxxxxx-|
A|-22222222-66666666--77777777-55555-7-5-3-22222222-|
D|--------------------------------------------------|


E|-------------------------------------------------------|
B|-------------------------------------------------------|
G|-88888888--99999999-77777-9-7-12-11-12-7-12-11-9-12-11-|
D|-xxxxxxxx—-xxxxxxxx-xxxxx-x-x—x---x—-x-x—-x—-x-x—-x--x-|
A|-66666666—-77777777-55555-7-5-10—-9-10-5-10—-9-7-10--9-|
D|-------------------------------------------------------|


E|-------------|
B|-------------|
G|-5-9-7-------|
D|-x-x-x-------|
A|-3-7-5-------|
D|-------------|


Solo:
E|---------------------------------------------------|
B|---------------------------------------------------|
G|-7-5-4-5-4---4-------------------------------------|
D|-----------7---5-----2-5-2-5-7b9r7-5-5*-9-10-9-7-5-|
A|-----------------3-5-------------------------------|
D|---------------------------------------------------|

E|---------------------------------------------------|
B|---------------------------------------------------|
G|---------------------------------------------------|
D|-9b10r9-7-9b10r9-7-9-9b10r9-7-5-----5-7-9-10-9-----|
A|--------------------------------6-8----------------|
D|---------------------------------------------------|


E|----------------------------------------------------|
B|----------------------------------------------------|
G|----------------------------------------------------|
D|-9b10r9-7-9b10r9-7-9-9b10r9-7-5---9----9------------|
A|--------------------------------6---12—--10-10-12-7-|
D|----------------------------------------------------|
                                       . .  .

Chorus-slower
E|---------------------------------------------------------|
B|---------------------------------------------------------|
G|------------------------------------12-11-7--------------|
D|--------------------9-10-9-------------------------------|
A|-5-9-10-12-12-12-10--------5-7-9-10---------/10-12-12-10-|
D|---------------------------------------------------------|

E|----------------------|
B|----------------------|
G|-12-------------------|
D|----9-9h10p9-5-7-9-12-|
A|-------------5-7-9-12-|
D|-------------5-7-9-12-|

Chorus
E|-|B|---------------------------------------------------|
B|-|R|---------------------------------------------------|
G|-|E|-------------------------5-5-----------------------|
D|-|A|-5-5-5-5-7-7-7-5-x-2-2-x-5-5-5-5-5-5---------------|
A|-|K|-5-5-5-----------x-2-2-x-3-3-5-5-5-5-5-7-10-9h10p9-|
D|-|||-5-5-5-----------x-2-2-x-----5-5-5-5---------------|

E|----------------------------------------------------------|
B|----------------------------------------------------------|
G|-------------------------------------5-5------------------|
D|-x-2-2-x-0-0-5-5-5-5-7-7-7-5-x-2-2-x-5-5-5-5-5-5-5-7-9-12-|
A|-x-2-2-x-0-0-5-5-5-----------x-2-2-x-3-3-5-5-5-5-5-7-9-12-|
D|-x-2-2-x-0-0-5-5-5-----------x-2-2-------5-5-5-5-5-7-9-12-|


Outro
E|----------------------------------------------------------|
B|----------------------------------------------------------|
G|-9999-77-55-4444-9-7-9-11-9999-55-77-4444-7-9-12-11-12-11-|
D|-xxxx-xx-xx-xxxx-x-x-x—-x-xxxx-xx-xx-xxxx-x-x—-x—-x—-x--x-|
A|-7777-55-33-2222-7-5-7—-9-7777-33-55-2222-5-7-10—-9-10--9-|
D|----------------------------------------------------------|

E|--------------------------------------------------------|
B|--------------------------------------------------------|
G|-9999-77-55-4444-9-7-9-11-12-12-77-55-77-4444-7-9-11-12-|
D|-xxxx-xx-xx-xxxx-x-x-x—-x—-x—-x-xx-xx-xx-xxxx-x-x--x--x-|
A|-7777-55-33-2222-7-5-7--9-10-10-55-33-55-2222-5-7--9-10-|
D|--------------------------------------------------------|


				Rhythm Guitar

Intro                      x4
E|--------------------------|
B|--------------------------|
G|--------------------------|
D|-55-55-59-2-2-2-2-2-2-2-2-|
A|-55-55-59-2-2-2-2-2-2-2-2-|
D|-55-55-59-2-2-2-2-2-2-2-2-|

E|-----
B|-----
G|-----
D|-7-5-
A|-7---
D|-7---

Verse #1
E|-----------------------------------------------|
B|-----------------------------------------------|
G|-----------------------------------------------|
D|55-555-555-555-522-222-222-222-255-555-555-559-|
A|55-555-555-555-522-222-222-222-255-555-555-559-|
D|55-555-555-555-522-222-222-222-255-555-555-559-|


E|-----------------------------------------------------|
B|-----------------------------------------------------|
G|-----------------------------------------------------|
D|-222-222-222-222-255-555-555-555-522-222-222-222-255-|
A|-222-222-222-222-255-555-555-555-522-222-222-222-255-|
D|-222-222-222-222-255-555-555-555-522-222-222-222-255-|


E|------------------------------------|
B|------------------------------------|
G|------------------------------------|
D|-555-555-559-222-222-222-222-7-5----|
A|-555-555-559-222-222-222-222-7------|
D|-555-555-559-222-222-222-222-7------|


Chorus
E|--------------------------------|
B|--------------------------------|
G|---------------------4-4-4-4----|
D|-x-2-2-x-0-0-5-5-5-5-4-4-4-4----|
A|-x-2-2-x-0-0-5-5-5-5-2-2-2-2----|
D|-x-2-2-x-0-0-5-5-5-5------------|


E|----------------------------------|
B|----------------------------------|
G|-------x-5-5----------------------|
D|-x-2-2-x-5-5-5-5-5-5-5-7-9-12-0---|
A|-x-2-2-x-3-3-5-5-5-5-5-7-9-12-0---|
D|-x-2-2-------5-5-5-5-5-7-9-12-0---|

E|--------------------------------|
B|--------------------------------|
G|---------------------4-4-4-4----|
D|-x-2-2-x-0-0-5-5-5-5-4-4-4-4----|
A|-x-2-2-x-0-0-5-5-5-5-2-2-2-2----|
D|-x-2-2-x-0-0-5-5-5-5------------|


E|---------------------------------|
B|---------------------------------|
G|-------x-5-5---------------------|
D|-x-2-2-x-5-5-5-5-5-5-5-7-9-0--2--|
A|-x-2-2-x-3-3-5-5-5-5-5-7-9-0--2--|
D|-x-2-2-------5-5-5-5-5-7-9-0—-2--|

Verse #2
E|-----------------------------------------------|
B|-----------------------------------------------|
G|-----------------------------------------------|
D|55-555-555-555-522-222-222-222-255-555-555-559-|
A|55-555-555-555-522-222-222-222-255-555-555-559-|
D|55-555-555-555-522-222-222-222-255-555-555-559-|
  .. ... ... ... ... ... ... ... ... ... ... ...

E|-----------------------------------------------------|
B|-----------------------------------------------------|
G|-----------------------------------------------------|
D|-222-222-222-222-255-555-555-555-522-222-222-222-255-|
A|-222-222-222-222-255-555-555-555-522-222-222-222-255-|
D|-222-222-222-222-255-555-555-555-522-222-222-222-255-|
   ... ... ... ... ... ... ... ... ... ... ... ... ...

E|-----------------------------------|
B|-----------------------------------|
G|-----------------------------------|
D|-555-555-559-222-222-222-222-7-5---|
A|-555-555-559-222-222-222-222-7-----|
D|-555-555-559-222-222-222-222-7-----|
   ... ... ... ... ... ... ...


Chorus
E|--------------------------------|
B|--------------------------------|
G|---------------------4-4-4-4----|
D|-x-2-2-x-0-0-5-5-5-5-4-4-4-4----|
A|-x-2-2-x-0-0-5-5-5-5-2-2-2-2----|
D|-x-2-2-x-0-0-5-5-5-5------------|


E|----------------------------------|
B|----------------------------------|
G|-------x-5-5----------------------|
D|-x-2-2-x-5-5-5-5-5-5-5-7-9-0------|
A|-x-2-2-x-3-3-5-5-5-5-5-7-9-0------|
D|-x-2-2-------5-5-5-5-5-7-9-0------|


E|--------------------------------|
B|--------------------------------|
G|---------------------4-4-4-4----|
D|-x-2-2-x-0-0-5-5-5-5-4-4-4-4----|
A|-x-2-2-x-0-0-5-5-5-5-2-2-2-2----|
D|-x-2-2-x-0-0-5-5-5-5------------|


E|---------------------------------|
B|---------------------------------|
G|-------x-5-5---------------------|
D|-x-2-2-x-5-5-5-5-5-5-5-7-9-0-2-0-|
A|-x-2-2-x-3-3-5-5-5-5-5-7-9-0-2-0-|
D|-x-2-2-------5-5-5-5-5-7-9-0—2-0-|

Guitar Solo
E|----------|----------------------|x3
B|----------|----------------------|
G|------444-|----------------4444--|
D|-5555-444-|-2222-0000-5555-4444--|
A|-5555-222-|-2222-0000-5555-2222--|
D|-5555-----|-2222-0000-5555-------|

E|--------------------------------------------|
B|--------------------------------------------|
G|--------------------55555555----------55555-|
D|-2222-0000-77777777-55555555-77777777-55555-|
A|-2222-0000-77777777-33333333-77777777-33333-|
D|-2222-0000-77777777----------77777777-------|

Chorus-Clean
E|---------|
B|---------|
G|---------|
D|-5-7-9-0-|
A|-5-7-9-0-|
D|-5-7-9-0-|

Chorus
E|---------------------------------|
B|---------------------------------|
G|------4444------------------4444-|
D|-5555-4444-x-2-2-x-0-0-5555-4444-|
A|-5555-2222-x-2-2-x-0-0-5555-2222-|
D|-5555------x-2-2-x-0-0-5555------|


E|----------------------------------|
B|----------------------------------|
G|-------x-5-5----------------------|
D|-x-2-2-x-5-5-5-5-5-5-5-7-9-0------|
A|-x-2-2-x-3-3-5-5-5-5-5-7-9-0------|
D|-x-2-2-------5-5-5-5-5-7-9-0------|


E|--------------------------------|
B|--------------------------------|
G|---------------------4-4-4-4----|
D|-x-2-2-x-0-0-5-5-5-5-4-4-4-4----|
A|-x-2-2-x-0-0-5-5-5-5-2-2-2-2----|
D|-x-2-2-x-0-0-5-5-5-5------------|

E|----------------------------------|
B|----------------------------------|
G|-------x-5-5----------------------|
D|-x-2-2-x-5-5-5-5-5-5-5-7-9-0------|
A|-x-2-2-x-3-3-5-5-5-5-5-7-9-0------|
D|-x-2-2-------5-5-5-5-5-7-9-0------|

Outro
E|---------------------|
B|---------------------|
G|----------------4444-|
D|-2222-0000-5555-4444-|
A|-2222-0000-5555-2222-|
D|-2222-0000-5555------|

E|------------------------|
B|------------------------|
G|------5555--------------|
D|-2222-5555-5555-5-7-9-0-|
A|-2222-3333-5555-5-7-9-0-|
D|-2222------5555-5-7-9-0-|

E|----------------------|
B|----------------------|
G|-----------------4444-|
D|-x-222-0000-5555-4444-|
A|-x-222-0000-5555-2222-|
D|-x-222-0000-5555------|

E|------------------------|
B|------------------------|
G|------5555--------------|
D|-2222-5555-5555-5-7-9-0-|
A|-2222-3333-5555-5-7-9-0-|
D|-2222------5555-5-7-9-0-|

------------------------------------
8) Existing In A Crisis (Evelyn)
------------------------------------
Tuning: Whole Step Down

[intro]
[guitar one]

d|------------------------------------------------------------|
a|------------------------------------------------------------|
f|------------------------------------------------------------|
c|-4-------12-------7----------4-------12--------7------------|
g|-4-------12-------7----------4-------12--------7------------|
D|-2-------10-------5----------2-------10--------5------------|

[Guitar two]

d|--------------------------------------------|
a|--------------------------------------------|
f|---------6h7p6---6--------------------------|
c|-----7-9-------9---7----------9b-9r-7-9-7---|
g|-7\9-----------------7--7\9-7---------------|
D|--------------------------------------------|

d|------------------------------|
a|------------------------------|
f|-------6h7p6---6-----9\11--9--|
c|---7-9-------9---7------------|
g|-9-----------------7----------|
D|------------------------------|

[verse]

[Guitar one]
 
d|-------------------------------------------------------------------------|
a|-------------------------------------------------------------------------|
f|-------------------------------------------------------------------------|
c|-7-4--4-4-4-4-4-4--12--12-12-12-12-12-12--7--7-7-7-7-7-7-7-7-7-7-7-7-7-7-|
g|-7-4--4-4-4-4-4-4--12--12-12-12-12-12-12--7--7-7-7-7-7-7-7-7-7-7-7-7-7-7-|
D|-5-2--2-2-2-2-2-2--10--10-10-10-10-10-10--5--5-5-5-5-5-5-5-5-5-5-5-5-5-5-|

[Guitar two]

d|-------------------------------------------------------------------------|
a|-------------------------------------------------------------------------|
f|--14---14-14---------14-11-----------------------------------------------|
c|--14---14-14---------14-11-------------------------------11------11------|
g|--12---12-12---------12--9----------------------------------11------11---|
D|---------------------------------------------------------------9-------9-|

[Guitar one]

d|------------------------------------------------------------------------|
a|------------------------------------------------------------------------|
f|------------------------------------------------------------------------|
c|--4--4-4-4-4-4-4--12--12-12-12-12-12-12--7--7-7-7-7-7-7-7-7-7-7-7-7-7-7-|
g|--4--4-4-4-4-4-4--12--12-12-12-12-12-12--7--7-7-7-7-7-7-7-7-7-7-7-7-7-7-|
D|--2--2-2-2-2-2-2--10--10-10-10-10-10-10--5--5-5-5-5-5-5-5-5-5-5-5-5-5-5-|

[Guitar Two]


d|------------------------------------------------------------------------|
a|------------------------------------------------------------------------|
f|--14---14-14---------14-11----------------------------------------------|
c|--14---14-14---------14-11----------------------------------------------|
g|--12---12-12---------12--9----------------------------------------------|
D|------------------------------------------------------------------------|

Guitar one]

d|---------------------------------------------------------------|
a|---------------------------------------------------------------|
f|---------------------------------------------------------------|
c|-4--4-4-4-4-4-4--12--12-12-12-12-12-12--7-7-7-7-4--4-4-4-4-4-4-|
g|-4--4-4-4-4-4-4--12--12-12-12-12-12-12--7-7-7-7-4--4-4-4-4-4-4-|
D|-2--2-2-2-2-2-2--10--10-10-10-10-10-10--5-5-5-5-2--2-2-2-2-2-2-|

[Guitar Two]


d|---------------------------------------------------------------|
a|---------------------------------------------------------------|
f|--14-------14-14----------------14-----------------------------|
c|--14-------14-14----------------14------7-7-7-7-4--4-4-4-4-4-4-|
g|--12-------12-12----------------12------7-7-7-7-4--4-4-4-4-4-4-|
D|----------------------------------------5-5-5-5-2--2-2-2-2-2-2-|


[Guitar One]

d|----------------------------------|
a|----------------------------------|
f|----------------------------------|
c|-5--5-5-5-5-5-5-5-5-5-5-5-5-5-5-5-|
g|-5--5-5-5-5-5-5-5-5-5-5-5-5-5-5-5-|
D|-3--3-3-3-3-3-3-3-3-3-3-3-3-3-3-3-|

[Guitar Two]

d|----------------------------------|
a|----------------------------------|
f|----------------------------------|
c|-5--5-5-5-5-5-5-5-5-5-5-5-5-5-5-5-|
g|-5--5-5-5-5-5-5-5-5-5-5-5-5-5-5-5-|
D|-3--3-3-3-3-3-3-3-3-3-3-3-3-3-3-3-|

[intro]

[guitar one]

d|------------------------------------------------------------|
a|------------------------------------------------------------|
f|------------------------------------------------------------|
c|-4-------12-------7----------4-------12--------7------------|
g|-4-------12-------7----------4-------12--------7------------|
D|-2-------10-------5----------2-------10--------5------------|

[Guitar two]

d|--------------------------------------------|
a|--------------------------------------------|
f|---------6h7p6---6--------------------------|
c|-----7-9-------9---7----------9b-9r-7-9-7---|
g|-7\9-----------------7--7\9-7---------------|
D|--------------------------------------------|

d|------------------------------|
a|------------------------------|
f|-------6h7p6---6-----9\11--9--|
c|---7-9-------9---7------------|
g|-9-----------------7----------|
D|------------------------------|

[verse]

[Guitar one]

d|-------------------------------------------------------------------------|
a|-------------------------------------------------------------------------|
f|-------------------------------------------------------------------------|
c|-7-4--4-4-4-4-4-4--12--12-12-12-12-12-12--7--7-7-7-7-7-7-7-7-7-7-7-7-7-7-|
g|-7-4--4-4-4-4-4-4--12--12-12-12-12-12-12--7--7-7-7-7-7-7-7-7-7-7-7-7-7-7-|
D|-5-2--2-2-2-2-2-2--10--10-10-10-10-10-10--5--5-5-5-5-5-5-5-5-5-5-5-5-5-5-|

[Guitar two]

d|-------------------------------------------------------------------------|
a|-------------------------------------------------------------------------|
f|--14---14-14---------14-11-----------------------------------------------|
c|--14---14-14---------14-11-------------------------------11------11------|
g|--12---12-12---------12--9----------------------------------11------11---|
D|---------------------------------------------------------------9-------9-|

[Guitar one]

d|------------------------------------------------------------------------|
a|------------------------------------------------------------------------|
f|------------------------------------------------------------------------|
c|--4--4-4-4-4-4-4--12--12-12-12-12-12-12--7--7-7-7-7-7-7-7-7-7-7-7-7-7-7-|
g|--4--4-4-4-4-4-4--12--12-12-12-12-12-12--7--7-7-7-7-7-7-7-7-7-7-7-7-7-7-|
D|--2--2-2-2-2-2-2--10--10-10-10-10-10-10--5--5-5-5-5-5-5-5-5-5-5-5-5-5-5-|

[Guitar Two]


d|------------------------------------------------------------------------|
a|------------------------------------------------------------------------|
f|--14---14-14---------14-11----------------------------------------------|
c|--14---14-14---------14-11----------------------------------------------|
g|--12---12-12---------12--9----------------------------------------------|
D|------------------------------------------------------------------------|

Guitar one]

d|---------------------------------------------------------------|
a|---------------------------------------------------------------|
f|---------------------------------------------------------------|
c|-4--4-4-4-4-4-4--12--12-12-12-12-12-12--7-7-7-7-4--4-4-4-4-4-4-|
g|-4--4-4-4-4-4-4--12--12-12-12-12-12-12--7-7-7-7-4--4-4-4-4-4-4-|
D|-2--2-2-2-2-2-2--10--10-10-10-10-10-10--5-5-5-5-2--2-2-2-2-2-2-|

[Guitar Two]


d|---------------------------------------------------------------|
a|---------------------------------------------------------------|
f|--14-------14-14----------------14-----------------------------|
c|--14-------14-14----------------14------7-7-7-7-4--4-4-4-4-4-4-|
g|--12-------12-12----------------12------7-7-7-7-4--4-4-4-4-4-4-|
D|----------------------------------------5-5-5-5-2--2-2-2-2-2-2-|


[Guitar One]

d|----------------------------------------------|
a|----------------------------------------------|
f|----------------------------------------------|
c|-5--5-5-5-5-5-5-5-5-5-5-5-5-5-5-5-5-5-5-5-5-5-|
g|-5--5-5-5-5-5-5-5-5-5-5-5-5-5-5-5-5-5-5-5-5-5-|
D|-3--3-3-3-3-3-3-3-3-3-3-3-3-3-3-3-3-3-3-3-3-3-|

[Guitar Two]

d|-------------------------------------------------------|
a|-------------------------------------------------------|
f|----------------------------------12-12-12-12-12-12-12-|
c|-5--5-5-5-5-5-5-5-5-5-5-5-5-5-5-5--X--X--X--X--X--X--X-|
g|-5--5-5-5-5-5-5-5-5-5-5-5-5-5-5-5-10-10-10-10-10-10-10-|
D|-3--3-3-3-3-3-3-3-3-3-3-3-3-3-3-3----------------------|

[pre-chorus]

[Guitar one]

d|----------------------------------------------------------------|
a|----------------------------------------------------------------|
f|--------------5---------9---------------9-9-9-9-9-9-9-9-9-9-9-9-|
c|-3------------5---------9---------------9-9-9-9-9-9-9-9-9-9-9-9-|
g|-3------------3---------7---------------7-7-7-7-7-7-7-7-7-7-7-7-|
D|-1--------------------------------------------------------------|

[Guitar two]

d|--------------------------------------------------------------|
a|--------------------------------------------------------------|
f|--------------------------------------------------------------|
c|-3-3\5-3-2-3-2-----------6---6---6---6---6-6-6-6-6-6-6-6-6-6--|
g|-3-------------5-3-5-5/7---7---7---7---7--7-7-7-7-7-7-7-7-7-7-|
D|-1------------------------------------------------------------|

[chorus]

[Guitar one]

d|-------------------------------------------------------|
a|-------------------------------------------------------|
f|-------------------------------------------------------|
c|-7-7---7-7-7-7---7-7-7--10-10---10-10-10-10---10-10-10-|
g|-7-7---7-7-7-7---7-7-7--10-10---10-10-10-10---10-10-10-|
D|-5-5---5-5-5-5---5-5-5---8--8----8--8--8--8----8--8--8-|

[Guitar two]

d|-------------------------------------------------------|
a|-------------------------------------------------------|
f|-------------------------------------------------------|
c|-7-7---7-7-7-7---7-7-7--10-10---10-10-10-10---10-10-10-|
g|-7-7---7-7-7-7---7-7-7--10-10---10-10-10-10---10-10-10-|
D|-5-5---5-5-5-5---5-5-5---8--8----8--8--8--8----8--8--8-|

[Guitar one]

d|------------------------------------------------------------|
a|------------------------------------------------------------|
f|-10-10-10-10-------------------10-10-10-10------------------|
c|-10-10-10-10--10-10-10--10-10--10-10-10-10--12-12-12--12-12-|
g|--8--8--8--8--10-10-10--10-10---8--8--8--8--12-12-12--12-12-|
D|---------------8--8--8---8--8---------------10-10-10--10-10-|


[Guitar two]

d|---------------------------------------------------------------|
a|---------------------------------------------------------------|
f|-10-10-10-10-------------------10-10-10-10--7--5\7-5\7-7\9-7\9-|
c|-10-10-10-10--10-10-10--10-10--10-10-10-10--X--X\X-X\X-X\X-X\X-|
g|--8--8--8--8--10-10-10--10-10---8--8--8--8--5--3\5-3\5-5\7-5\7-|
D|---------------8--8--8---8--8----------------------------------|

[Guitar one]

d|-------------------------------------------------------|
a|-------------------------------------------------------|
f|-------------------------------------------------------|
c|-7-7---7-7-7-7---7-7-7--10-10---10-10-10-10---10-10-10-|
g|-7-7---7-7-7-7---7-7-7--10-10---10-10-10-10---10-10-10-|
D|-5-5---5-5-5-5---5-5-5---8--8----8--8--8--8----8--8--8-|

[Guitar Two]

d|-------------------------------------------------------|
a|-------------------------------------------------------|
f|-14-------------12----------------14-12-10-9-9-10-9----|
c|--X--------------X-----------------X--X--X-X-X--X-X----|
g|-12-------------10----------------12-10--8-7-7--8-7----|
D|-------------------------------------------------------|

[Guitar one]

d|------------------------------------------------------------|
a|------------------------------------------------------------|
f|-10-10-10-10-------------------10-10-10-10------------------|
c|-10-10-10-10--10-10-10--10-10--10-10-10-10--12-12-12--12-12-|
g|--8--8--8--8--10-10-10--10-10---8--8--8--8--12-12-12--12-12-|
D|---------------8--8--8---8--8---------------10-10-10--10-10-|

[Guitar Two]

d|----------------------------------------------|
a|----------------------------------------------|
f|-10-10--10-10--9--7--5----10-10---10--10---12-|
c|--X--X---X--X--X--X--X-----X--X----X---X----X-|
g|--8--8---8--8--7--5--3-----8--8----8---8---10-|
D|----------------------------------------------|

[intro]

[guitar one]

d|------------------------------------------------------------|
a|------------------------------------------------------------|
f|------------------------------------------------------------|
c|-4-------12-------7----------4-------12--------7------------|
g|-4-------12-------7----------4-------12--------7------------|
D|-2-------10-------5----------2-------10--------5------------|

[Guitar two]

d|--------------------------------------------|
a|--------------------------------------------|
f|---------6h7p6---6--------------------------|
c|-----7-9-------9---7----------9b-9r-7-9-7---|
g|-7\9-----------------7--7\9-7---------------|
D|--------------------------------------------|

d|------------------------------|
a|------------------------------|
f|-------6h7p6---6-----9\11--9--|
c|---7-9-------9---7------------|
g|-9-----------------7----------|
D|------------------------------|

[verse 3](first part is muted goes something like this)

[Guitar one]

d|-------------------------------------------------------|
a|-------------------------------------------------------|
f|-------------------------------------------------------|
c|-X-X-X-X-X-X-X-X-X-X-X-X-X-X-X-X-X-X-X-X-X-X-X-X-X-X-X-|
g|-X-X-X-X-X-X-X-X-X-X-X-X-X-X-X-X-X-X-X-X-X-X-X-X-X-X-X-|
D|-X-X-X-X-X-X-X-X-X-X-X-X-X-X-X-X-X-X-X-X-X-X-X-X-X-X-X-|

[Guitar two]

d|----------------------------------------------------------|
a|----------------------------------------------------------|
f|----------------------------------------------------------|
c|-X-X---X-X----X-X--X-X--X-X----X-X---X-X----X-X--X-X--X-X-|
g|-X-X---X-X----X-X--X-X--X-X----X-X---X-X----X-X--X-X--X-X-|
D|-X-X---X-X----X-X--X-X--X-X----X-X---X-X----X-X--X-X--X-X-|

[Guitar one]

d|-------------------------------------------|
a|-------------------------------------------|
f|-------------------------------------------|
c|------4--6--7--9--11--14--16-------16-16\5-|
g|------4--6--7--9--11--14--16-------16-16\5-|
D|------2--4--5--7---9--12--14-------14-14\3-|

[Guitar two]
   *pick scrape up the neck
d|--------------------------------|
a|--------------------------------|
f|---------------4--6--9--11------|
c|-12/--4--6--7--4--6--9--11------|
g|-12/--4--6--7--2--4--7---9------|
D|-12/--2--4--5-------------------|

[Guitar one]

d|---------------------------------------------|
a|---------------------------------------------|
f|---------------------------------------------|
c|-5-5-5-5-5-5-5-5-5-5-5-5-5-5-5-5-5-5-5-5-5-5-|
g|-5-5-5-5-5-5-5-5-5-5-5-5-5-5-5-5-5-5-5-5-5-5-|
D|-3-3-3-3-3-3-3-3-3-3-3-3-3-3-3-3-3-3-3-3-3-3-|

[Guitar two]

d|--------------------------------------------------------------------|
a|--------------------------------------------------------------------|
f|-------------------\12-12-12-12-12-12-12-12-12-12-12-12-12-12-12-12-|
c|-------------------\-X--X--X--X--X--X--X--X--X--X--X--X--X--X--X--X-|
g|-------------------\10-10-10-10-10-10-10-10-10-10-10-10-10-10-10-10-|
D|--------------------------------------------------------------------|

[pre-chorus]

[Guitar one]

d|----------------------------------------------------------------|
a|----------------------------------------------------------------|
f|--------------5---------9---------------9-9-9-9-9-9-9-9-9-9-9-9-|
c|-3------------5---------9---------------9-9-9-9-9-9-9-9-9-9-9-9-|
g|-3------------3---------7---------------7-7-7-7-7-7-7-7-7-7-7-7-|
D|-1--------------------------------------------------------------|

[Guitar two]

d|--------------------------------------------------------------|
a|--------------------------------------------------------------|
f|--------------------------------------------------------------|
c|-3-3\5-3-2-3-2-----------6---6---6---6---6-6-6-6-6-6-6-6-6-6--|
g|-3-------------5-3-5-5/7---7---7---7---7--7-7-7-7-7-7-7-7-7-7-|
D|-1------------------------------------------------------------|

[chorus]

[Guitar one]

d|-------------------------------------------------------|
a|-------------------------------------------------------|
f|-------------------------------------------------------|
c|-7-7---7-7-7-7---7-7-7--10-10---10-10-10-10---10-10-10-|
g|-7-7---7-7-7-7---7-7-7--10-10---10-10-10-10---10-10-10-|
D|-5-5---5-5-5-5---5-5-5---8--8----8--8--8--8----8--8--8-|

[Guitar two]

d|-------------------------------------------------------|
a|-------------------------------------------------------|
f|-------------------------------------------------------|
c|-7-7---7-7-7-7---7-7-7--10-10---10-10-10-10---10-10-10-|
g|-7-7---7-7-7-7---7-7-7--10-10---10-10-10-10---10-10-10-|
D|-5-5---5-5-5-5---5-5-5---8--8----8--8--8--8----8--8--8-|

[Guitar one]

d|------------------------------------------------------------|
a|------------------------------------------------------------|
f|-10-10-10-10-------------------10-10-10-10------------------|
c|-10-10-10-10--10-10-10--10-10--10-10-10-10--12-12-12--12-12-|
g|--8--8--8--8--10-10-10--10-10---8--8--8--8--12-12-12--12-12-|
D|---------------8--8--8---8--8---------------10-10-10--10-10-|


[Guitar two]

d|---------------------------------------------------------------|
a|---------------------------------------------------------------|
f|-10-10-10-10-------------------10-10-10-10--7--5\7-5\7-7\9-7\9-|
c|-10-10-10-10--10-10-10--10-10--10-10-10-10--X--X\X-X\X-X\X-X\X-|
g|--8--8--8--8--10-10-10--10-10---8--8--8--8--5--3\5-3\5-5\7-5\7-|
D|---------------8--8--8---8--8----------------------------------|

[Guitar one]

d|-------------------------------------------------------|
a|-------------------------------------------------------|
f|-------------------------------------------------------|
c|-7-7---7-7-7-7---7-7-7--10-10---10-10-10-10---10-10-10-|
g|-7-7---7-7-7-7---7-7-7--10-10---10-10-10-10---10-10-10-|
D|-5-5---5-5-5-5---5-5-5---8--8----8--8--8--8----8--8--8-|

[Guitar Two]

d|-------------------------------------------------------|
a|-------------------------------------------------------|
f|-14-------------12----------------14-12-10-9-9-10-9----|
c|--X--------------X-----------------X--X--X-X-X--X-X----|
g|-12-------------10----------------12-10--8-7-7--8-7----|
D|-------------------------------------------------------|

[Guitar one]

d|------------------------------------------------------------|
a|------------------------------------------------------------|
f|-10-10-10-10-------------------10-10-10-10------------------|
c|-10-10-10-10--10-10-10--10-10--10-10-10-10--12-12-12--12-12-|
g|--8--8--8--8--10-10-10--10-10---8--8--8--8--12-12-12--12-12-|
D|---------------8--8--8---8--8---------------10-10-10--10-10-|

[Guitar Two]

d|----------------------------------------------|
a|----------------------------------------------|
f|-10-10--10-10--9--7--5----10-10---10--10---12-|
c|--X--X---X--X--X--X--X-----X--X----X---X----X-|
g|--8--8---8--8--7--5--3-----8--8----8---8---10-|
D|----------------------------------------------|

[interlude (Guitar one only)]

[Guitar one]

d|-------------------------------------------------|
a|---------------------10-10-10-10-----------------|
f|-------------------------------------------------|
c|---------11-11-11-11-------------11-11-11-11-----|
g|-9-9-9-9-------------------------------------9/8-|
D|-------------------------------------------------|

d|-------------------------------------------------|
a|-------------------------------------------------|
f|---------------------10-10-10-10-----------------|
c|---------11-11-11-11-------------11-11-11-11-----|
g|-8-8-8-8-------------------------------------8/5-|
D|-------------------------------------------------|

d|-----------------------------------------------------------------|
a|-----------------------------------------------------------------|
f|-----------------7-7-7-7-----------------------------------------|
c|---------6-6-6-6---------6-6-6-6---------7-7-6-6---------7-7-7-7-|
g|-5-5-5-5---------------------------------------------------------|
D|---------------------------------5-5-5-5---------4-4-4-4---------|

d|---------------------------------------------------------------------|
a|---------------------------------------------------------------------|
f|---------------------------------------------------------------------|
c|---------4-4-------------4-4-4-4-------------9-9-9-9---------9-9-9-9-|
g|-5-5-5-5-----7-7-5-5-5-5---------5\7-7-7-7-7---------7-7-7-7---------|
D|---------------------------------------------------------------------|

[Interlude Harmony]

[Guitar One]

d|-------------------------------------------------|
a|---------------------10-10-10-10-----------------|
f|-------------------------------------------------|
c|---------11-11-11-11-------------11-11-11-11-----|
g|-9-9-9-9-------------------------------------9/8-|
D|-------------------------------------------------|

[Guitar Two]

d|-------------------------------------------------|
a|----------9--9--9--9-11-11-11-11--9--9--9--9-----|
f|-------------------------------------------------|
c|-------------------------------------------------|
g|-9-9-9-9-------------------------------------9/8-|
D|-------------------------------------------------|

[Guitar One]

d|-------------------------------------------------|
a|-------------------------------------------------|
f|---------------------10-10-10-10-----------------|
c|---------11-11-11-11-------------11-11-11-11-----|
g|-8-8-8-8-------------------------------------8/5-|
D|-------------------------------------------------|

[Guitar two]

d|-------------------------------------------------|
a|-------------------------------------------------|
f|---------------------10-10-10-10-----------------|
c|---------11-11-11-11-------------11-11-11-11-----|
g|-8-8-8-8-------------------------------------8/5-|
D|-------------------------------------------------|

[Guitar one]

d|-----------------------------------------------------------------|
a|-----------------------------------------------------------------|
f|-----------------7-7-7-7-----------------------------------------|
c|---------6-6-6-6---------6-6-6-6---------7-7-6-6---------7-7-7-7-|
g|-5-5-5-5---------------------------------------------------------|
D|---------------------------------5-5-5-5---------4-4-4-4---------|

[Guitar two]

d|-----------------------------------------------------------------|
a|-----------------------------------------------------------------|
f|-----------------6-6-6-6-----------------6-6-------------6-6-----|
c|---------7-7-7-7---------7-7-7-7-----6-6-----6-6-----6-6-----6-6-|
d|-5-5-5-5---------------------------------------------------------|
D|---------------------------------5-5-------------4-4-------------|

[Guitar one]

d|---------------------------------------------------------------------|
a|---------------------------------------------------------------------|
f|---------------------------------------------------------------------|
c|---------4-4-------------4-4-4-4-------------9-9-9-9---------9-9-9-9-|
g|-5-5-5-5-----7-7-5-5-5-5---------5\7-7-7-7-7---------7-7-7-7---------|
D|---------------------------------------------------------------------|

[Guitar two]

d|---------------------------------------------------------------------|
a|---------------------------------------------------------------------|
f|---------------------------------------------------------------------|
c|---------7-7-6-6---------7-7-7-7-------------4-4-4-4---------4-4-4-4-|
g|-5-5-5-5---------5-5-5-5---------4\5-5-5-5-5---------5-5-5-5---------|
D|---------------------------------------------------------------------|

[pre-chorus]

[Guitar one]

d|----------------------------------------------------------------|
a|----------------------------------------------------------------|
f|--------------5---------9---------------9-9-9-9-9-9-9-9-9-9-9-9-|
c|-3------------5---------9---------------9-9-9-9-9-9-9-9-9-9-9-9-|
g|-3------------3---------7---------------7-7-7-7-7-7-7-7-7-7-7-7-|
D|-1--------------------------------------------------------------|

[Guitar two]

d|--------------------------------------------------------------|
a|--------------------------------------------------------------|
f|--------------------------------------------------------------|
c|-3-3\5-3-2-3-2-----------6---6---6---6---6-6-6-6-6-6-6-6-6-6--|
g|-3-------------5-3-5-5/7---7---7---7---7--7-7-7-7-7-7-7-7-7-7-|
D|-1------------------------------------------------------------|

[chorus 3]

[Guitar one]

d|-------------------------------------------------------|
a|-------------------------------------------------------|
f|-------------------------------------------------------|
c|-7-7---7-7-7-7---7-7-7--10-10---10-10-10-10---10-10-10-|
g|-7-7---7-7-7-7---7-7-7--10-10---10-10-10-10---10-10-10-|
D|-5-5---5-5-5-5---5-5-5---8--8----8--8--8--8----8--8--8-|

d|--------------------------------------------------|
a|--------------------------------------------------|
f|-10-10-10-10-------------------10-10-10-10--10--9-|
c|-10-10-10-10--10-10-10--10-10--10-10-10-10--10--9-|
g|--8--8--8--8--10-10-10--10-10---8--8--8--8---8--7-|
D|---------------8--8--8---8--8---------------------|

[Chorus 4]

[Guitar one]

d|-------------------------------------------------------|
a|-------------------------------------------------------|
f|-------------------------------------------------------|
c|-7-7---7-7-7-7---7-7-7--10-10---10-10-10-10---10-10-10-|
g|-7-7---7-7-7-7---7-7-7--10-10---10-10-10-10---10-10-10-|
D|-5-5---5-5-5-5---5-5-5---8--8----8--8--8--8----8--8--8-|

[Guitar Two]

d|-------------------------------------------------------|
a|-------------------------------------------------------|
f|-14-------------12----------------14-12-10-9-9-10-9----|
c|--X--------------X-----------------X--X--X-X-X--X-X----|
g|-12-------------10----------------12-10--8-7-7--8-7----|
D|-------------------------------------------------------|

[Guitar one]

d|------------------------------------------------------------|
a|------------------------------------------------------------|
f|-10-10-10-10-------------------10-10-10-10------------------|
c|-10-10-10-10--10-10-10--10-10--10-10-10-10--12-12-12--12-12-|
g|--8--8--8--8--10-10-10--10-10---8--8--8--8--12-12-12--12-12-|
D|---------------8--8--8---8--8---------------10-10-10--10-10-|

d|-------------------------------------|
a|-------------------------------------|
f|-------------------------------------|
c|-12-12-12-12-12-12-12-12-12-12-12-12-|
g|-12-12-12-12-12-12-12-12-12-12-12-12-|
D|-10-10-10-10-10-10-10-10-10-10-10-10-|

[outro Chorus]

[Guitar one]

d|-------------------------------------------------------|
a|-------------------------------------------------------|
f|-------------------------------------------------------|
c|-7-7---7-7-7-7---7-7-7--10-10---10-10-10-10---10-10-10-|
g|-7-7---7-7-7-7---7-7-7--10-10---10-10-10-10---10-10-10-|
D|-5-5---5-5-5-5---5-5-5---8--8----8--8--8--8----8--8--8-|

[Guitar 2]

d|-------------------------------------|
a|-------------------------------------|
f|---10-9-7----7-9------10-9-7----7-9--|
c|-7--------10-----7-10--------10------|
g|-------------------------------------|
D|-------------------------------------|

d|------------------------------------------------------------|
a|------------------------------------------------------------|
f|-10-10-10-10-------------------10-10-10-10------------------|
c|-10-10-10-10--10-10-10--10-10--10-10-10-10--12-12-12--12-12-|
g|--8--8--8--8--10-10-10--10-10---8--8--8--8--12-12-12--12-12-|
D|---------------8--8--8---8--8---------------10-10-10--10-10-|

[Guitar 2]

d|---------------------------------------------|
a|---------------------------------------------|
f|------10-9-7----7-9------10-9-7-10\12-10-9-7-|
c|-7-10--------10-----7-10---------------------|
g|---------------------------------------------|
D|---------------------------------------------|

[Guitar one]

d|-------------------------------------------------------|
a|-------------------------------------------------------|
f|-------------------------------------------------------|
c|-7-7---7-7-7-7---7-7-7--10-10---10-10-10-10---10-10-10-|
g|-7-7---7-7-7-7---7-7-7--10-10---10-10-10-10---10-10-10-|
D|-5-5---5-5-5-5---5-5-5---8--8----8--8--8--8----8--8--8-|

[Guitar 2]

d|-------------------------------------|
a|-------------------------------------|
f|---10-9-7----7-9------10-9-7----7-9--|
c|-7--------10-----7-10--------10------|
g|-------------------------------------|
D|-------------------------------------|

d|------------------------------------------------------------|
a|------------------------------------------------------------|
f|-10-10-10-10-------------------10-10-10-10------------------|
c|-10-10-10-10--10-10-10--10-10--10-10-10-10--12-12--5-6-7/---|
g|--8--8--8--8--10-10-10--10-10---8--8--8--8--12-12--5-6-7/---|
D|---------------8--8--8---8--8---------------10-10--3-4-5/---|

[Guitar 2]

d|-------------------------------------------------------|
a|-------------------------------------------------------|
f|------10-9-7----7-9------10-9-7-14--14-14--14---14/----|
c|-7-10--------10-----7-10---------X--X---X---X----X/----|
g|--------------------------------12-12--12--12---12/----|
D|-------------------------------------------------------|

-------------------------
9) Don't Call Me Peanut
-------------------------
Tuning: whole step down

Intro
D|-----------------0----------0-----|
A|-----0-0---------1----------3-----|
F|-------0-------2---2------4---0---|   x4
C|---2---2-0--/3--------3/5---------|
G|/3-----3--------------------------|
D|----------------------------------|

|----------------------------------|
|-----0-0~--0----------------------|
|-------0~--0----2-2--5~-5---------|   x1
|---2---2~--2-0--3-3--6~-6---------|
|/3-----3~--3----3-3--6~-6---------|
|----------------1-1--4~-4---------|

Verse 1
|---------------------------------------------------------|
|---------------------------------------------------------|
|--2-----2---------0---0---0--------2------4/---9~--9--9--|   x1
|--2-----2---------2---2---2--------3------5/---10~-10-10-|
|0---0----------------------------3------5------10~-10-10-|
|------4----4-3~-3---3---3---3--1------3--------8~--7--7--|

Chorus
|----------------------------------------------------------|--------------|
|-----0h1-----0h1p0----------------------------------------|--------------|
|----------2--------2---------4---4------------------------|---------8--8-|
|---2------2----------------5-5---5------------------------|------9--9--9-|
|-0--------0--------------5-----5---5---/8--10--11--12~--12|----9-------9-|
|----------------------/3----------------------------------|-/7---------7-|

                      |---|
                      |---|
    The second time   |-8-|
    just strum        |-9-|
  at the end        |-9-|
                      |-7-|



	Repeat everything, then...


Solo
|------------------------------------|
|------------------------------------|
|------------------------------------|
|------------------------------------|
|-/14--13--11~--11----11h13p11--9-9~-|
|------------------12----------------|


|-----------------------------9-11-9-6h7---|
|-----------11-----11br-9----------------9-|
|--------11----11~---------10--------------|
|---9h11-----------------------------------|
|-9----------------------------------------|
|------------------------------------------|


|--------------------------------------------------------|
|---------------------------------------------------11---|
|----------------8h9p8----------------------------11--11-|
|-----------9h11-------11/13\11-9~------------9h11-------|
|----------------------------------7/11\10-9-------------|
|-/11-10-9~----------------------------------------------|


|-----------------------------------------------------------------|
|-----------------------------------------------------------------|
|---------------------------5~----------10-10~---------4-4~-4-----|
|---------------------------6~----------11-11~---------5-5~-5-----|
|-/14-13-11-9-7-7h9p7-6-4---6~----------11-11~---------5-5~-5-----|
|-------------------------4-4~-/11-10-9-9--9~---/5-4-3-3-3~-3-(0)-|


|-------------------------------|
|------0--------0---------------|
|------0--------0------9-----9--|
|----2-2-2----2-2-2----9-----9--|
|-/3---3--------3------7-----7--|
|-----------3---3---0-(0)-0-(0)-|

|------------------------------------|
|------------------------------------|
|----------10-10~---------4-4~-4-----|
|----------11-11~---------5-5~-5-----|
|----------11-11~---------5-5~-5-----|
|-/11-10-9-9--9~---/5-4-3-3-3~-3-(0)-|

|-------------------------------|
|------0--------0---------------|
|------0--------0------9-----9--|
|----2-2-2----2-2-2----9-----9--|
|-/3---3--------3------7-----7--|
|-----------3---3---0-(0)-0-(0)-|


|----------------------------------------------------------------|-------|
|----------------------------------------------------------------|-------|
|-------------10-------------11--------------13--13-13-13--13-13-|-15-16-|
|-------------11-------------12--------------14--14-14-14--14-14-|-15-16-|
|----------11----11-------12-----12-------14-14--14-14-14--14-14-|-13-14-|
|-/11-10-9-----------9/10-----------10/12----12--12-12-12--12-12-|-------|


                               |-------|
                               |-11-12-|
The second Guitar plays...     |-11-11-|
      at the end               |-11-11-|
                               |-9--9--|
                               |-------|	

	Play Chorus again,
	     End on...

|---|
|---|
|-8-|
|-9-|
|-9-|
|-7-|


| /  slide up
| \  slide down
| h  hammer-on
| p  pull-off
| ~  vibrato
| +  harmonic
| x  Mute note

------------------
10) Half a Life
------------------
Tuning: Drop D

[intro]

e|------------------------------------------------------------------|
b|------------------------------------------------------------------|
g|---------------------------------7-7---7-7-7---7-7-7---7-7-7---7--|
d|-8-8---8-8-8---8-8-8---8-8-8---8-7-7---7-7-7---7-7-7---7-7-7---7--|
a|-8-8---8-8-8---8-8-8---8-8-8---8-5-5---5-5-5---5-5-5---5-5-5---5--|
D|-8-8---8-8-8---8-8-8---8-8-8---8----------------------------------|[x2]

[verse]

 PM.............................................................|
e|---------------------------------------------------------------|
b|---------------------------------------------------------------|
g|---------------------------------------------------------------|
d|-8-8---8-8-8---8-8-8---8-8-8---8-5-5---5-5-5---5-5-5---5-5-5---|
a|-8-8---8-8-8---8-8-8---8-8-8---8-5-5---5-5-5---5-5-5---5-5-5---|
D|-8-8---8-8-8---8-8-8---8-8-8---8-5-5---5-5-5---5-5-5---5-5-5---|
 
 PM............................................|
e|-----------------------------------------------|
b|-----------------------------------------------|
g|-----------------------------------------------|
d|-8-8---8-8-8---8-7-7---7-7-7---7-3-3---3-3-3---|
a|-8-8---8-8-8---8-7-7---7-7-7---7-3-3---3-3-3---|
D|-8-8---8-8-8---8-7-7---7-7-7---7-3-3---3-3-3---| [x2]

[re-intro]

e|------------------------------------------------------------------|
b|------------------------------------------------------------------|
g|---------------------------------7-7---7-7-7---7-7-7---7-7-7---7--|
d|-8-8---8-8-8---8-8-8---8-8-8---8-7-7---7-7-7---7-7-7---7-7-7---7--|
a|-8-8---8-8-8---8-8-8---8-8-8---8-5-5---5-5-5---5-5-5---5-5-5---5--|
D|-8-8---8-8-8---8-8-8---8-8-8---8----------------------------------|[x2]

[verse 1]

 PM............................................................|
e|---------------------------------------------------------------|
b|---------------------------------------------------------------|
g|---------------------------------------------------------------|
d|-8-8---8-8-8---8-8-8---8-8-8---8-5-5---5-5-5---5-5-5---5-5-5---|
a|-8-8---8-8-8---8-8-8---8-8-8---8-5-5---5-5-5---5-5-5---5-5-5---|
D|-8-8---8-8-8---8-8-8---8-8-8---8-5-5---5-5-5---5-5-5---5-5-5---|
 
 PM............................................|
e|-----------------------------------------------|
b|-----------------------------------------------|
g|-----------------------------------------------|
d|-8-8---8-8-8---8-7-7---7-7-7---7-3-3---3-3-3---|
a|-8-8---8-8-8---8-7-7---7-7-7---7-3-3---3-3-3---|
D|-8-8---8-8-8---8-7-7---7-7-7---7-3-3---3-3-3---|

[pre-chorus]

e|-----------------------------------------------------------|
b|-----------------------------------------------------------|
g|-----------------------------------------------------------|
d|-5-5---5-5--5--5-3-3---3-3--3--3-5-5---5-5--5--5---3---4---|
a|-5-5---5-5--5--5-3-3---3-3--3--3-5-5---5-5--5--5---3---4---|
D|-5-5---5-5--5--5-3-3---3-3--3--3-5-5---5-5--5--5---3---4---|

[chorus]

guitar 1
e|-------------------------------------------------------------------------|
b|-------------------------------------------------------------------------|
g|-------------------------------------------------------------------------|
d|-3-5-5-5---5-5-5---5-3-3-3---3-3-3---3-1-1-1---1-1-1---1-3-3-3---3-3-3---|
a|-3-5-5-5---5-5-5---5-3-3-3---3-3-3---3-1-1-1---1-1-1---1-3-3-3---3-3-3---|
D|-3-5-5-5---5-5-5---5-3-3-3---3-3-3---3-1-1-1---1-1-1---1-3-3-3---3-3-3---|[x2]

guitar 2 (on second cycle)
e|------------------------------------------------------|
b|-----------------------------6------------------------|
g|-3-5--5b-5-3h5---3-5--5b-5-3---5-3-5b-5-3-------------|
d|------------------------------------------5-3---------|
a|----------------------------------------------5-3-1---|
D|------------------------------------------------------|

[re-intro]

e|--------------------------------------------------------------------|
b|--------------------------------------------------------------------|
g|----------------------------------/7-7---7-7-7---7-7-7---7-7-7---7--|
d|-8-8---8-8-8---8-8-8---8-8-8---8--/7-7---7-7-7---7-7-7---7-7-7---7--|
a|-8-8---8-8-8---8-8-8---8-8-8---8--/5-5---5-5-5---5-5-5---5-5-5---5--|
D|-8-8---8-8-8---8-8-8---8-8-8---8------------------------------------|

[verse 2]

 PM............................................................|
e|---------------------------------------------------------------|
b|---------------------------------------------------------------|
g|---------------------------------------------------------------|
d|-8-8---8-8-8---8-8-8---8-8-8---8-5-5---5-5-5---5-5-5---5-5-5---|
a|-8-8---8-8-8---8-8-8---8-8-8---8-5-5---5-5-5---5-5-5---5-5-5---|
D|-8-8---8-8-8---8-8-8---8-8-8---8-5-5---5-5-5---5-5-5---5-5-5---|
 
 PM............................................|
e|-----------------------------------------------|
b|-----------------------------------------------|
g|-----------------------------------------------|
d|-8-8---8-8-8---8-7-7---7-7-7---7-3-3---3-3-3---|
a|-8-8---8-8-8---8-7-7---7-7-7---7-3-3---3-3-3---|
D|-8-8---8-8-8---8-7-7---7-7-7---7-3-3---3-3-3---| [x2]

[pre-chorus]

e|-----------------------------------------------------------|
b|-----------------------------------------------------------|
g|-----------------------------------------------------------|
d|-5-5---5-5--5--5-3-3---3-3--3--3-5-5---5-5--5--5---3---4---|
a|-5-5---5-5--5--5-3-3---3-3--3--3-5-5---5-5--5--5---3---4---|
D|-5-5---5-5--5--5-3-3---3-3--3--3-5-5---5-5--5--5---3---4---|

[chorus]

guitar 1
e|-------------------------------------------------------------------------|
b|-------------------------------------------------------------------------|
g|-------------------------------------------------------------------------|
d|-3-5-5-5---5-5-5---5-3-3-3---3-3-3---3-1-1-1---1-1-1---1-3-3-3---3-3-3---|
a|-3-5-5-5---5-5-5---5-3-3-3---3-3-3---3-1-1-1---1-1-1---1-3-3-3---3-3-3---|
D|-3-5-5-5---5-5-5---5-3-3-3---3-3-3---3-1-1-1---1-1-1---1-3-3-3---3-3-3---|[x2]

guitar 2 (on second cycle)
e|------------------------------------------------------|
b|-----------------------------6------------------------|
g|-3-5--5b-5-3h5---3-5--5b-5-3---5-3-5b-5-3-------------|
d|------------------------------------------5-3---------|
a|----------------------------------------------5-3-1---|
D|------------------------------------------------------|

[interlude]

 PM|...............................................................|
e|------------------------------------------------------------------|
b|------------------------------------------------------------------|
g|---------------------------------3-3-3-3--------------------------|
d|-5-5-5-5-5-5-5-5-3-3-3-3-3-3-3-3-3-3-3-3-3-3-3-3-5-5-5-5-5-5-5-5--|
a|-5-5-5-5-5-5-5-5-3-3-3-3-3-3-3-3-1-1-1-1-3-3-3-3-5-5-5-5-5-5-5-5--|
D|-5-5-5-5-5-5-5-5-3-3-3-3-3-3-3-3---------3-3-3-3-5-5-5-5-5-5-5-5--|

 PM...........................|
e|-----------------------------|
b|-----------------------------|
g|-----------------------------|
d|-1-1-1-1-1-1-1-1-3-3-3-3--3--|
a|-1-1-1-1-1-1-1-1-3-3-3-3--3--|
D|-1-1-1-1-1-1-1-1-3-3-3-3--3--|

[solo]

guitar 1

e|----------------------------------|
b|----------------------------------|
g|-------------------------8-7-5-3--|
d|-8--1-3-5-5--7-8-5-5-5-5-8-7-5-3--|
a|-8--1-3-5-5--7-8-5-5-5-5-6-5-3-1--|
D|-8--1-3-5-5--7-8-5-5-5-5----------| [x4]

guitar 2

                  
e|-------------3----------------------|-----------------------|
b|---------------6-3-6-3---3----------|-----------------------|
g|-----3---3-5-----------5---5-3-5b-3-|-/6-7-6-5-6-5h6p5\3-3--|
d|-3/5---5----------------------------|-----------------------|
a|------------------------------------|-----------------------|
D|------------------------------------|-----------------------|

e|-------------------------------------|------------------|
b|-------------------------------------|------------------|
g|-------------------------------------|-/7-8p7-7-8-8h10--|
d|-------6-8-5h6p5---8---5-7-8-7-5-----|------------------|
a|-6-7-8-----------8---8-----------8-5-|------------------|
D|-------------------------------------|------------------|

e|----------------------10-11-13-13br-13-|
b|------11-13b-----11-13-----------------|
g|-10-12------10-12----------------------|
d|---------------------------------------|
a|---------------------------------------|
D|---------------------------------------|

e|-13-11-10-11-10--10-----------------------------------------------|
b|---------------13--13-11-10-11-10--10-----------------------------|
g|---------------------------------12--12-10-12-10--10--------------|
d|------------------------------------------------13--13-12-10\8-8--|
a|------------------------------------------------------------------|
D|------------------------------------------------------------------|

e|---------------------------------------------------------------------|
b|---------------------------------------------------------------------|
g|-3-3/5-7-7\5-5/8-8\7-7/10-10\8-8/12-12\10-10/14-14\12-12/15-15\14-14-|
d|-X-X/X-X-X\X-X/X-X\X-X/-X--X\X-X/-X--X\-X--X/-X--X\-X--X/-X--X\-X--X-|
a|-1-1/3-5-5\3-3/6-6\5-5/-8--8\6-6/10-10\-8--8/12-12\10-10/13-13\12-12-|
D|---------------------------------------------------------------------|

e|----------------|
b|----------------|
g|-14/15-15/17\15-|
d|--X/-X--X/-X\-X-|
a|-12/13-13/15\13-|
D|----------------|

[verse 3]

e|----------------------------------|
b|----------------------------------|
g|-------------------------8-7-5-3--|
d|-8--1-3-5-5--7-8-5-5-5-5-8-7-5-3--|
a|-8--1-3-5-5--7-8-5-5-5-5-6-5-3-1--|
D|-8--1-3-5-5--7-8-5-5-5-5----------| [x4]

[chorus]

guitar 1
e|-----------------------------------------------------------------|    |---|
b|-----------------------------------------------------------------|    |---|
g|-----------------------------------------------------------------|    |---|
d|-5-5-5-5-5-5-5-5-3-3-3-3-3-3-3-3-1-1-1-1-1-1-1-1-3-3-3-3-3-3-3-3-|    |-5-|
a|-5-5-5-5-5-5-5-5-3-3-3-3-3-3-3-3-1-1-1-1-1-1-1-1-3-3-3-3-3-3-3-3-|    |-5-|
D|-5-5-5-5-5-5-5-5-3-3-3-3-3-3-3-3-1-1-1-1-1-1-1-1-3-3-3-3-3-3-3-3-|[x2]|-5-|

guitar 2 (on second cycle)
e|--------------------------------------------------------|
b|-----------------------------6--------------------------|
g|-3-5--5b-5-3h5---3-5--5b-5-3---5-3-5b-5-3---------------|
d|------------------------------------------5-3-----------|
a|----------------------------------------------5-3-1-1b--|
D|--------------------------------------------------------|


| /  slide up
| \  slide down
| h  hammer-on
| p  pull-off
| ~  vibrato
| +  harmonic
| x  Mute note
===============================================================================
comments
We did not receive enough feedback on this tab! Please rate:
print report bad tab
1 2 3 4 5
I want to post or [tab]
guest
You may want to rate the tab now too:
select rating
Please do not post tabs as comments. Select "correction" instead!