Oops, an error
Loading. Please wait.

Dear Your Holiness Tab

ver3
ver3

Whole song

More versions @911Tabs.com
7,903 views 15 this week
4 commentsread comments
1 2 3 4 5
excellent!
x 1
Autoscroll
+/-
esc
set tempo
stop
Contributor
Difficulty
novice
WARNING: You are trying to view
                                    content from Ultimate-Guitar.com
                                    in an unauthorized application,
                                    which is prohibited.

                                    Please use an official Ultimate
                                    Guitar Tabs application for iPhone,
                                    iPad or Android to access legitimate
                                    chords, guitar, bass, and drum tabs
                                    from Ultimate-Guitar.com database.

                                    Type "ultimate guitar tabs" in Apple
                                    App Store's or Android Market's
                                    search to find the application.
Dear Your Holiness by BAYSIDE
The Walking Wounded

Tabbed by Andrew Adams (ataproxax@yahoo.com)

MIDI
http://www.megaupload.com/?d=BWL11EZQ

Tuning - Whole-Step Down (D Standard)

Lead Guitar - Jack O'Shea (Top)
Rhythm Guitar - Anthony Raneri (Bottom)

D  :----------------|-5--5--5--5-x-x-4---|--4-4---4-4-4-4-|
A  :----------------|-6--6--6--6-x-x-5---|--5-5---5-5-5-5-|
F  :----------------|-7--7--7--7-x-x-6---|--6-6---6-6-6-6-|
C  :----------------|-7--7--7--7-x-x-6---|--6-6---6-6-6-6-|
G  :----------------|-5--5--5--5-x-x-4---|--4-4---4-4-4-4-|
D  :----------------|--------------------|----------------|

D  :----------------|--------------------|----------------|
A  :----------------|--------------------|----------------|
F  :----------------|10-10-10-10-x-x-9---|--9-9---9-9-9-9-|
C  :----------------|-x--x--x--x-x-x-x---|--x-x---x-x-x-x-|
G  :----------------|-8--8--8--8-x-x-7---|--7-7---7-7-7-7-|
D  :----------------|--------------------|----------------|

============================================================================

D  :-----------------|----------------------|-------5--5-x-x-4---|
A  :-----------------|----------------------|-------6--6-x-x-5---|
F  :-----------------|----------------------|-------7--7-x-x-6---|
C  :--7-8-10-8-7-----|--10-10---10-10-10-10-|-------7--7-x-x-6---|
G  :5------------8---|---8--8----8--8--8--8-|-5-----5--5-x-x-4---|
D  :-----------------|----------------------|--------------------|

D  :-----------------|----------------------|--------------------|
A  :-----------------|----------------------|--------------------|
F  :3-3-3--3-x-x-----|----------------------|10-10-10-10-x-x-9---|
C  :3-3-3--3-x-x-3---|---3--3----3--3--3--3-|-x--x--x--x-x-x-x---|
G  :1-1-1--1-x-x-3---|---3--3----3--3--3--3-|-8--8--8--8-x-x-7---|
D  :-------------1---|---1--1----1--1--1--1-|--------------------|

============================================================================

D  :--4-4---4-4-4-4-|-----------------|----------------------|
A  :--5-5---5-5-5-5-|-----------------|----------------------|
F  :--6-6---6-6-6-6-|-----------------|----------------------|
C  :--6-6---6-6-6-6-|--7-8-10-8-7-----|--10-10---10-10-10-10-|
G  :--4-4---4-4-4-4-|5------------8---|---8--8----8--8--8--8-|
D  :----------------|-----------------|----------------------|

D  :----------------|-----------------|----------------------|
A  :----------------|-----------------|----------------------|
F  :--9-9---9-9-9-9-|3-3-3--3-x-x-----|----------------------|
C  :--x-x---x-x-x-x-|3-3-3--3-x-x-3---|---3--3----3--3--3--3-|
G  :--7-7---7-7-7-7-|1-1-1--1-x-x-3---|---3--3----3--3--3--3-|
D  :----------------|-------------1---|---1--1----1--1--1--1-|

============================================================================

D  :-5--5--5--5--5--5--5--5-|-5--5--5--5--5--5--5--5-|----------------|
A  :-6--6--6--6--6--6--6--6-|-6--6--6--6--6--6--6--6-|----------------|
F  :-7--7--7--7--7--7--7--7-|-7--7--7--7--7--7--7--7-|----------------|
C  :-7--7--7--7--7--7--7--7-|-7--7--7--7--7--7--7--7-|3-3-3-3-3-3-3-3-|
G  :-5--5--5--5--5--5--5--5-|-5--5--5--5--5--5--5--5-|3-3-3-3-3-3-3-3-|
D  :------------------------|------------------------|1-1-1-1-1-1-1-1-|

D  :------------------------|------------------------|----------------|
A  :------------------------|------------------------|----------------|
F  :10-10-10-10-10-10-10-10-|10-10-10-10-10-10-10-10-|----------------|
C  :-x--x--x--x--x--x--x--x-|-x--x--x--x--x--x--x--x-|3-3-3-3-3-3-3-3-|
G  :-8--8--8--8--8--8--8--8-|-8--8--8--8--8--8--8--8-|3-3-3-3-3-3-3-3-|
D  :------------------------|------------------------|1-1-1-1-1-1-1-1-|

============================================================================

D  :----------------|----------------|----------------|----------------|
A  :----------------|----------------|----------------|----------------|
F  :----------------|3-3-3-3-3-3-3-3-|3-3-3-3-3-3-3-3-|6-6-6-6-6-6-6-6-|
C  :3-3-3-3-3-3-3-3-|3-3-3-3-3-3-3-3-|3-3-3-3-3-3-3-3-|6-6-6-6-6-6-6-6-|
G  :3-3-3-3-3-3-3-3-|1-1-1-1-1-1-1-1-|1-1-1-1-1-1-1-1-|4-4-4-4-4-4-4-4-|
D  :1-1-1-1-1-1-1-1-|----------------|----------------|----------------|

D  :----------------|----------------|----------------|----------------|
A  :----------------|----------------|----------------|----------------|
F  :----------------|3-3-3-3-3-3-3-3-|3-3-3-3-3-3-3-3-|6-6-6-6-6-6-6-6-|
C  :3-3-3-3-3-3-3-3-|3-3-3-3-3-3-3-3-|3-3-3-3-3-3-3-3-|6-6-6-6-6-6-6-6-|
G  :3-3-3-3-3-3-3-3-|1-1-1-1-1-1-1-1-|1-1-1-1-1-1-1-1-|4-4-4-4-4-4-4-4-|
D  :1-1-1-1-1-1-1-1-|----------------|----------------|----------------|

============================================================================

D  :----------------|-5--5--5--5--5--5--5--5-|-5--5--5--5--5--5--5--5-|
A  :----------------|-6--6--6--6--6--6--6--6-|-6--6--6--6--6--6--6--6-|
F  :6---5---3---5---|-7--7--7--7--7--7--7--7-|-7--7--7--7--7--7--7--7-|
C  :x---x---x---x---|-7--7--7--7--7--7--7--7-|-7--7--7--7--7--7--7--7-|
G  :4---3---1---3---|-5--5--5--5--5--5--5--5-|-5--5--5--5--5--5--5--5-|
D  :----------------|------------------------|------------------------|

D  :----------------|------------------------|------------------------|
A  :----------------|------------------------|------------------------|
F  :6-6-6-6-6-6-6-6-|10-10-10-10-10-10-10-10-|10-10-10-10-10-10-10-10-|
C  :6-6-6-6-6-6-6-6-|-x--x--x--x--x--x--x--x-|-x--x--x--x--x--x--x--x-|
G  :4-4-4-4-4-4-4-4-|-8--8--8--8--8--8--8--8-|-8--8--8--8--8--8--8--8-|
D  :----------------|------------------------|------------------------|

============================================================================

D  :----------------|----------------|----------------|----------------|
A  :----------------|----------------|----------------|----------------|
F  :----------------|----------------|3-3-3-3-3-3-3-3-|3-3-3-3-3-3-3-3-|
C  :3-3-3-3-3-3-3-3-|3-3-3-3-3-3-3-3-|3-3-3-3-3-3-3-3-|3-3-3-3-3-3-3-3-|
G  :3-3-3-3-3-3-3-3-|3-3-3-3-3-3-3-3-|1-1-1-1-1-1-1-1-|1-1-1-1-1-1-1-1-|
D  :1-1-1-1-1-1-1-1-|1-1-1-1-1-1-1-1-|----------------|----------------|

D  :----------------|----------------|----------------|----------------|
A  :----------------|----------------|----------------|----------------|
F  :----------------|----------------|3-3-3-3-3-3-3-3-|3-3-3-3-3-3-3-3-|
C  :3-3-3-3-3-3-3-3-|3-3-3-3-3-3-3-3-|3-3-3-3-3-3-3-3-|3-3-3-3-3-3-3-3-|
G  :3-3-3-3-3-3-3-3-|3-3-3-3-3-3-3-3-|1-1-1-1-1-1-1-1-|1-1-1-1-1-1-1-1-|
D  :1-1-1-1-1-1-1-1-|1-1-1-1-1-1-1-1-|----------------|----------------|

============================================================================

D  :----------------|----------------|----------------|----------------|
A  :----------------|----------------|----------------|----------------|
F  :6-6-6-6-6-6-6-6-|6---5---3---5---|3-3-3-3-x-x-5---|--5-5---5-5-5-5-|
C  :6-6-6-6-6-6-6-6-|x---x---x---x---|3-3-3-3-x-x-5---|--5-5---5-5-5-5-|
G  :4-4-4-4-4-4-4-4-|4---3---1---3---|1-1-1-1-x-x-3---|--3-3---3-3-3-3-|
D  :----------------|----------------|----------------|----------------|

D  :----------------|----------------|----------------|----------------|
A  :----------------|----------------|----------------|----------------|
F  :6-6-6-6-6-6-6-6-|6-6-6-6-6-6-6-6-|3-3-3-3-x-x-5---|--5-5---5-5-5-5-|
C  :6-6-6-6-6-6-6-6-|6-6-6-6-6-6-6-6-|3-3-3-3-x-x-5---|--5-5---5-5-5-5-|
G  :4-4-4-4-4-4-4-4-|4-4-4-4-4-4-4-4-|1-1-1-1-x-x-3---|--3-3---3-3-3-3-|
D  :----------------|----------------|----------------|----------------|

============================================================================

D  :--------------------|----0-1-0-------|----------------|----------------|
A  :--------------------|3---------3-----|----------------|----------------|
F  :------------------2-|--2---------2---|3-3-3-3-x-x-----|----------------|
C  :-3--3--3--3-x-x-----|----------------|3-3-3-3-x-x-3---|--3-3---3-3-3-3-|
G  :-3--3--3--3-x-x-----|----------------|1-1-1-1-x-x-3---|--3-3---3-3-3-3-|
D  :-1--1--1--1-x-x-----|----------------|------------1---|--1-1---1-1-1-1-|

D  :--------------------|----------------|----------------|----------------|
A  :--------------------|----------------|----------------|----------------|
F  :10-10-10-10-x-x-7---|--7-7---7-7-7-7-|3-3-3-3-x-x-----|----------------|
C  :-x--x--x--x-x-x-x---|--x-x---x-x-x-x-|3-3-3-3-x-x-3---|--3-3---3-3-3-3-|
G  :-8--8--8--8-x-x-5---|--5-5---5-5-5-5-|1-1-1-1-x-x-3---|--3-3---3-3-3-3-|
D  :--------------------|----------------|------------1---|--1-1---1-1-1-1-|

============================================================================

D  :----------------|----------------|----------------|----------------|
A  :----------------|----------------|----------------|----------------|
F  :5-5-*-5-5-5-*-5-|5-5-*-5-5-5-*---|3-3-3-3-x-x-5---|--5-5---5-5-5-5-|
C  :x-x-*-x-x-x-*-x-|x-x-*-x-x-x-*---|3-3-3-3-x-x-5---|--5-5---5-5-5-5-|
G  :3-3-*-3-3-3-*-3-|3-3-*-3-3-3-*---|1-1-1-1-x-x-3---|--3-3---3-3-3-3-|
D  :----------------|----------------|----------------|----------------|

D  :----------------|----------------|----------------|----------------|
A  :----------------|----------------|----------------|----------------|
F  :5-5-*-5-5-5-*-5-|5-5-*-5-5-5-*---|3-3-3-3-x-x-5---|--5-5---5-5-5-5-|
C  :x-x-*-x-x-x-*-x-|x-x-*-x-x-x-*---|3-3-3-3-x-x-5---|--5-5---5-5-5-5-|
G  :3-3-*-3-3-3-*-3-|3-3-*-3-3-3-*---|1-1-1-1-x-x-3---|--3-3---3-3-3-3-|
D  :----------------|----------------|----------------|----------------|

============================================================================

D  :--------------------|----0-1-0-------|----------------|----------------|
A  :--------------------|3---------3-----|----------------|----------------|
F  :------------------2-|--2---------2---|3-3-3-3-x-x-----|----------------|
C  :-3--3--3--3-x-x-----|----------------|3-3-3-3-x-x-3---|--3-3---3-3-3-3-|
G  :-3--3--3--3-x-x-----|----------------|1-1-1-1-x-x-3---|--3-3---3-3-3-3-|
D  :-1--1--1--1-x-x-----|----------------|------------1---|--1-1---1-1-1-1-|

D  :--------------------|----------------|----------------|----------------|
A  :--------------------|----------------|----------------|----------------|
F  :10-10-10-10-x-x-7---|--7-7---7-7-7-7-|3-3-3-3-x-x-----|----------------|
C  :-x--x--x--x-x-x-x---|--x-x---x-x-x-x-|3-3-3-3-x-x-3---|--3-3---3-3-3-3-|
G  :-8--8--8--8-x-x-5---|--5-5---5-5-5-5-|1-1-1-1-x-x-3---|--3-3---3-3-3-3-|
D  :--------------------|----------------|------------1---|--1-1---1-1-1-1-|

============================================================================

D  :----------------|----------------|----------------|----------------|
A  :----------------|----------------|----------------|----------------|
F  :5-5-*-5-5-5-*-5-|5-5-*-5-5-5-*---|3---3---x-x-x-x-|x-5-5---x-x-x-x-|
C  :x-x-*-x-x-x-*-x-|x-x-*-x-x-x-*---|3---3---x-x-x-x-|x-5-5---x-x-x-x-|
G  :3-3-*-3-3-3-*-3-|3-3-*-3-3-3-*---|1---1---x-x-x-x-|x-3-3---x-x-x-x-|
D  :----------------|----------------|----------------|----------------|

D  :----------------|----------------|----------------|----------------|
A  :----------------|----------------|----------------|----------------|
F  :5-5-*-5-5-5-*-5-|5-5-*-5-5-5-*---|3---3---x-x-x-x-|x-5-5---x-x-x-x-|
C  :x-x-*-x-x-x-*-x-|x-x-*-x-x-x-*---|3---3---x-x-x-x-|x-5-5---x-x-x-x-|
G  :3-3-*-3-3-3-*-3-|3-3-*-3-3-3-*---|1---1---x-x-x-x-|x-3-3---x-x-x-x-|
D  :----------------|----------------|----------------|----------------|

============================================================================

D  :----------------|----------------|----------------|----------------|
A  :----------------|----------------|----------------|----------------|
F  :--------x-x-x-x-|x-------x-x-x-x-|3---3---x-x-x-x-|x-5-5---x-x-x-x-|
C  :3---3---x-x-x-x-|x-3-3---x-x-x-x-|3---3---x-x-x-x-|x-5-5---x-x-x-x-|
G  :3---3---x-x-x-x-|x-3-3---x-x-x-x-|1---1---x-x-x-x-|x-3-3---x-x-x-x-|
D  :1---1-----------|--1-1-----------|----------------|----------------|

D  :----------------|----------------|----------------|----------------|
A  :----------------|----------------|----------------|----------------|
F  :--------x-x-x-x-|x-5-5---x-x-x-x-|3---3---x-x-x-x-|x-5-5---x-x-x-x-|
C  :3---3---x-x-x-x-|x-5-5---x-x-x-x-|3---3---x-x-x-x-|x-5-5---x-x-x-x-|
G  :3---3---x-x-x-x-|x-3-3---x-x-x-x-|1---1---x-x-x-x-|x-3-3---x-x-x-x-|
D  :1---1-----------|----------------|----------------|----------------|

============================================================================

D  :----------------|----------------|----------------|----------------|
A  :----------------|----------------|------5-6-5-----|----------------|
F  :--------x-x-x-x-|x-------x-x-x-x-|7-5-7-------7---|--5-7-5-7-5---5-|
C  :3---3---x-x-x-x-|x-3-3---x-x-x-x-|----------------|------------7---|
G  :3---3---x-x-x-x-|x-3-3---x-x-x-x-|----------------|----------------|
D  :1---1-----------|--1-1-----------|----------------|----------------|

D  :----------------|----------------|----------------|----------------|
A  :----------------|----------------|----------------|----------------|
F  :--------x-x-x-x-|x-5-5---x-x-x-x-|7-7-7-7-7-7-7-7-|7-7-7-7-7-7-7-7-|
C  :3---3---x-x-x-x-|x-5-5---x-x-x-x-|7-7-7-7-7-7-7-7-|7-7-7-7-7-7-7-7-|
G  :3---3---x-x-x-x-|x-3-3---x-x-x-x-|5-5-5-5-5-5-5-5-|5-5-5-5-5-5-5-5-|
D  :1---1-----------|----------------|----------------|----------------|

============================================================================

D  :----------------|----------------|----------------|----------------|
A  :------5-6-5-----|----------------|------5-6-5-----|----------------|
F  :7-5-7-------7---|--5-7-5-7-5---5-|7-5-7-------7---|--5-7-5-7-5---5-|
C  :----------------|------------7---|----------------|------------7---|
G  :----------------|----------------|----------------|----------------|
D  :----------------|----------------|----------------|----------------|

D  :----------------|----------------|----------------|----------------|
A  :----------------|----------------|----------------|----------------|
F  :----------------|----------------|7-7-7-7-7-7-7-7-|7-7-7-7-7-7-7-7-|
C  :3-3-3-3-3-3-3-3-|3-3-3-3-3-3-3-3-|7-7-7-7-7-7-7-7-|7-7-7-7-7-7-7-7-|
G  :3-3-3-3-3-3-3-3-|3-3-3-3-3-3-3-3-|5-5-5-5-5-5-5-5-|5-5-5-5-5-5-5-5-|
D  :1-1-1-1-1-1-1-1-|1-1-1-1-1-1-1-1-|----------------|----------------|

============================================================================

D  :----------------|-----------------|-5--5--5--5-x-x-4---|
A  :------5-6-5-----|-----------------|-6--6--6--6-x-x-5---|
F  :7-5-7-------7---|5~---------------|-7--7--7--7-x-x-6---|
C  :----------------|-----------------|-7--7--7--7-x-x-6---|
G  :----------------|-----------------|-5--5--5--5-x-x-4---|
D  :----------------|-----------------|--------------------|

D  :----------------|-----------------|--------------------|
A  :----------------|-----------------|--------------------|
F  :----------------|-----------------|10-10-10-10-x-x-9---|
C  :3-3-3-3-3-3-3-3-|3~---------------|-x--x--x--x-x-x-x---|
G  :3-3-3-3-3-3-3-3-|3~---------------|-8--8--8--8-x-x-7---|
D  :1-1-1-1-1-1-1-1-|1~---------------|--------------------|

============================================================================

D  :--4-4---4-4-4-4-|-----------------|----------------------|
A  :--5-5---5-5-5-5-|-----------------|----------------------|
F  :--6-6---6-6-6-6-|-----------------|----------------------|
C  :--6-6---6-6-6-6-|--7-8-10-8-7-----|--10-10---10-10-10-10-|
G  :--4-4---4-4-4-4-|5------------8---|---8--8----8--8--8--8-|
D  :----------------|-----------------|----------------------|

D  :----------------|-----------------|----------------------|
A  :----------------|-----------------|----------------------|
F  :--9-9---9-9-9-9-|3-3-3--3-x-x-----|----------------------|
C  :--x-x---x-x-x-x-|3-3-3--3-x-x-3---|---3--3----3--3--3--3-|
G  :--7-7---7-7-7-7-|1-1-1--1-x-x-3---|---3--3----3--3--3--3-|
D  :----------------|-------------1---|---1--1----1--1--1--1-|

============================================================================

D  :-------5--5-x-x-4---|--4-4---4-4-4-4-|-----------------|
A  :-------6--6-x-x-5---|--5-5---5-5-5-5-|-----------------|
F  :-------7--7-x-x-6---|--6-6---6-6-6-6-|-----------------|
C  :-------7--7-x-x-6---|--6-6---6-6-6-6-|--7-8-10-8-7-----|
G  :-5-----5--5-x-x-4---|--4-4---4-4-4-4-|5------------8---|
D  :--------------------|----------------|-----------------|

D  :--------------------|----------------|-----------------|
A  :--------------------|----------------|-----------------|
F  :10-10-10-10-x-x-9---|--9-9---9-9-9-9-|3-3-3--3-x-x-----|
C  :-x--x--x--x-x-x-x---|--x-x---x-x-x-x-|3-3-3--3-x-x-3---|
G  :-8--8--8--8-x-x-7---|--7-7---7-7-7-7-|1-1-1--1-x-x-3---|
D  :--------------------|----------------|-------------1---|

============================================================================

D  :----------------------|----------------------|----------------------|
A  :----------------------|----------------------|----------------------|
F  :----------------------|----------------------|------------9-10-9----|
C  :--10-10---10-10-10-10-|/12-*-10-*-12-*-------|10-12-10-12--------12-|
G  :---8--8----8--8--8--8-|----------------10-12-|----------------------|
D  :----------------------|----------------------|----------------------|

D  :----------------------|----------------------|----------------------|
A  :----------------------|----------------------|----------------------|
F  :----------------------|----------------------|----------------------|
C  :---3--3----3--3--3--3-|----------------------|------------2--3-2----|
G  :---3--3----3--3--3--3-|/-5-*--3-*--5-*-------|-3--5--3--5---------5-|
D  :---1--1----1--1--1--1-|-----------------3--5-|----------------------|

============================================================================

D  :--------------------|--------------------|----------------|
A  :--------------------|--------------------|----------------|
F  :/10-*-9-*-----------|12-*-10-*-9-/10-----|7-7-7-7-7-7-7-7-|
C  :----------12-*-10-*-|--------------------|7-7-7-7-7-7-7-7-|
G  :--------------------|--------------------|5-5-5-5-5-5-5-5-|
D  :--------------------|--------------------|----------------|

D  :--------------------|--------------------|----------------|
A  :--------------------|--------------------|----------------|
F  :--------------------|--------------------|7-7-7-7-7-7-7-7-|
C  :/-3-*-2-*-----------|-5-*--3-*-2-/-3-----|7-7-7-7-7-7-7-7-|
G  :-----------5-*--3-*-|--------------------|5-5-5-5-5-5-5-5-|
D  :--------------------|--------------------|----------------|

============================================================================

D  :----------------|----------------|----------------|----------------|
A  :----------------|----------------|----------------|----------------|
F  :7-7-7-7-7-7-7-7-|----------------|----------------|3-3-3-3-3-3-3-3-|
C  :7-7-7-7-7-7-7-7-|3-3-3-3-3-3-3-3-|3-3-3-3-3-3-3-3-|3-3-3-3-3-3-3-3-|
G  :5-5-5-5-5-5-5-5-|3-3-3-3-3-3-3-3-|3-3-3-3-3-3-3-3-|1-1-1-1-1-1-1-1-|
D  :----------------|1-1-1-1-1-1-1-1-|1-1-1-1-1-1-1-1-|----------------|

D  :----------------|----------------|----------------|----------------|
A  :----------------|----------------|----------------|----------------|
F  :7-7-7-7-7-7-7-7-|----------------|----------------|3-3-3-3-3-3-3-3-|
C  :7-7-7-7-7-7-7-7-|3-3-3-3-3-3-3-3-|3-3-3-3-3-3-3-3-|3-3-3-3-3-3-3-3-|
G  :5-5-5-5-5-5-5-5-|3-3-3-3-3-3-3-3-|3-3-3-3-3-3-3-3-|1-1-1-1-1-1-1-1-|
D  :----------------|1-1-1-1-1-1-1-1-|1-1-1-1-1-1-1-1-|----------------|

============================================================================

D  :----------------|----------------|----------------|----------------|
A  :----------------|----------------|----------------|----------------|
F  :3-3-3-3-3-3-3-3-|6-6-6-6-6-6-6-6-|6---5---3---5---|3-3-3-3-x-x-5---|
C  :3-3-3-3-3-3-3-3-|6-6-6-6-6-6-6-6-|x---x---x---x---|3-3-3-3-x-x-5---|
G  :1-1-1-1-1-1-1-1-|4-4-4-4-4-4-4-4-|4---3---1---3---|1-1-1-1-x-x-3---|
D  :----------------|----------------|----------------|----------------|

D  :----------------|----------------|----------------|----------------|
A  :----------------|----------------|----------------|----------------|
F  :3-3-3-3-3-3-3-3-|6-6-6-6-6-6-6-6-|6-6-6-6-6-6-6-6-|3-3-3-3-x-x-5---|
C  :3-3-3-3-3-3-3-3-|6-6-6-6-6-6-6-6-|6-6-6-6-6-6-6-6-|3-3-3-3-x-x-5---|
G  :1-1-1-1-1-1-1-1-|4-4-4-4-4-4-4-4-|4-4-4-4-4-4-4-4-|1-1-1-1-x-x-3---|
D  :----------------|----------------|----------------|----------------|

============================================================================

D  :----------------|--------------------|----0-1-0-------|----------------|
A  :----------------|--------------------|3---------3-----|----------------|
F  :--5-5---5-5-5-5-|------------------2-|--2---------2---|3-3-3-3-x-x-----|
C  :--5-5---5-5-5-5-|-3--3--3--3-x-x-----|----------------|3-3-3-3-x-x-3---|
G  :--3-3---3-3-3-3-|-3--3--3--3-x-x-----|----------------|1-1-1-1-x-x-3---|
D  :----------------|-1--1--1--1-x-x-----|----------------|------------1---|

D  :----------------|--------------------|----------------|----------------|
A  :----------------|--------------------|----------------|----------------|
F  :--5-5---5-5-5-5-|10-10-10-10-x-x-7---|--7-7---7-7-7-7-|3-3-3-3-x-x-----|
C  :--5-5---5-5-5-5-|-x--x--x--x-x-x-x---|--x-x---x-x-x-x-|3-3-3-3-x-x-3---|
G  :--3-3---3-3-3-3-|-8--8--8--8-x-x-5---|--5-5---5-5-5-5-|1-1-1-1-x-x-3---|
D  :----------------|--------------------|----------------|------------1---|

============================================================================

D  :----------------|----------------|----------------|----------------|
A  :----------------|----------------|----------------|----------------|
F  :----------------|5-5-*-5-5-5-*-5-|5-5-*-5-5-5-*---|3-3-3-3-x-x-5---|
C  :--3-3---3-3-3-3-|x-x-*-x-x-x-*-x-|x-x-*-x-x-x-*---|3-3-3-3-x-x-5---|
G  :--3-3---3-3-3-3-|3-3-*-3-3-3-*-3-|3-3-*-3-3-3-*---|1-1-1-1-x-x-3---|
D  :--1-1---1-1-1-1-|----------------|----------------|----------------|

D  :----------------|----------------|----------------|----------------|
A  :----------------|----------------|----------------|----------------|
F  :----------------|5-5-*-5-5-5-*-5-|5-5-*-5-5-5-*---|3-3-3-3-x-x-5---|
C  :--3-3---3-3-3-3-|x-x-*-x-x-x-*-x-|x-x-*-x-x-x-*---|3-3-3-3-x-x-5---|
G  :--3-3---3-3-3-3-|3-3-*-3-3-3-*-3-|3-3-*-3-3-3-*---|1-1-1-1-x-x-3---|
D  :--1-1---1-1-1-1-|----------------|----------------|----------------|

============================================================================

D  :----------------|--------------------|----0-1-0-------|----------------|
A  :----------------|--------------------|3---------3-----|----------------|
F  :--5-5---5-5-5-5-|------------------2-|--2---------2---|3-3-3-3-x-x-----|
C  :--5-5---5-5-5-5-|-3--3--3--3-x-x-----|----------------|3-3-3-3-x-x-3---|
G  :--3-3---3-3-3-3-|-3--3--3--3-x-x-----|----------------|1-1-1-1-x-x-3---|
D  :----------------|-1--1--1--1-x-x-----|----------------|------------1---|

D  :----------------|--------------------|----------------|----------------|
A  :----------------|--------------------|----------------|----------------|
F  :--5-5---5-5-5-5-|10-10-10-10-x-x-7---|--7-7---7-7-7-7-|3-3-3-3-x-x-----|
C  :--5-5---5-5-5-5-|-x--x--x--x-x-x-x---|--x-x---x-x-x-x-|3-3-3-3-x-x-3---|
G  :--3-3---3-3-3-3-|-8--8--8--8-x-x-5---|--5-5---5-5-5-5-|1-1-1-1-x-x-3---|
D  :----------------|--------------------|----------------|------------1---|

============================================================================

D  :----------------|----------------|----------------|----------------|
A  :----------------|----------------|----------------|----------------|
F  :----------------|5-5-*-5-5-5-*-5-|5-5-*-5-5-5-*---|3---3---x-x-x-x-|
C  :--3-3---3-3-3-3-|x-x-*-x-x-x-*-x-|x-x-*-x-x-x-*---|3---3---x-x-x-x-|
G  :--3-3---3-3-3-3-|3-3-*-3-3-3-*-3-|3-3-*-3-3-3-*---|1---1---x-x-x-x-|
D  :--1-1---1-1-1-1-|----------------|----------------|----------------|

D  :----------------|----------------|----------------|----------------|
A  :----------------|----------------|----------------|----------------|
F  :----------------|5-5-*-5-5-5-*-5-|5-5-*-5-5-5-*---|3---3---x-x-x-x-|
C  :--3-3---3-3-3-3-|x-x-*-x-x-x-*-x-|x-x-*-x-x-x-*---|3---3---x-x-x-x-|
G  :--3-3---3-3-3-3-|3-3-*-3-3-3-*-3-|3-3-*-3-3-3-*---|1---1---x-x-x-x-|
D  :--1-1---1-1-1-1-|----------------|----------------|----------------|

============================================================================

D  :----------------|----------------|----------------|----------------|
A  :----------------|----------------|----------------|----------------|
F  :x-5-5---x-x-x-x-|--------x-x-x-x-|x-------x-x-x-x-|3---3---x-x-x-x-|
C  :x-5-5---x-x-x-x-|3---3---x-x-x-x-|x-3-3---x-x-x-x-|3---3---x-x-x-x-|
G  :x-3-3---x-x-x-x-|3---3---x-x-x-x-|x-3-3---x-x-x-x-|1---1---x-x-x-x-|
D  :----------------|1---1-----------|--1-1-----------|----------------|

D  :----------------|----------------|----------------|----------------|
A  :----------------|----------------|----------------|----------------|
F  :x-5-5---x-x-x-x-|--------x-x-x-x-|x-5-5---x-x-x-x-|3---3---x-x-x-x-|
C  :x-5-5---x-x-x-x-|3---3---x-x-x-x-|x-5-5---x-x-x-x-|3---3---x-x-x-x-|
G  :x-3-3---x-x-x-x-|3---3---x-x-x-x-|x-3-3---x-x-x-x-|1---1---x-x-x-x-|
D  :----------------|1---1-----------|----------------|----------------|

============================================================================

D  :----------------|----------------|----------------|----------------|
A  :----------------|----------------|----------------|------5-6-5-----|
F  :x-5-5---x-x-x-x-|--------x-x-x-x-|x-------x-x-x-x-|7-5-7-------7---|
C  :x-5-5---x-x-x-x-|3---3---x-x-x-x-|x-3-3---x-x-x-x-|----------------|
G  :x-3-3---x-x-x-x-|3---3---x-x-x-x-|x-3-3---x-x-x-x-|----------------|
D  :----------------|1---1-----------|--1-1-----------|----------------|

D  :----------------|----------------|----------------|----------------|
A  :----------------|----------------|----------------|----------------|
F  :x-5-5---x-x-x-x-|--------x-x-x-x-|x-5-5---x-x-x-x-|7-7-7-7-7-7-7-7-|
C  :x-5-5---x-x-x-x-|3---3---x-x-x-x-|x-5-5---x-x-x-x-|7-7-7-7-7-7-7-7-|
G  :x-3-3---x-x-x-x-|3---3---x-x-x-x-|x-3-3---x-x-x-x-|5-5-5-5-5-5-5-5-|
D  :----------------|1---1-----------|----------------|----------------|

============================================================================

D  :----------------|----------------|----------------|--------------------|
A  :----------------|------5-6-5-----|----------------|--------8-10-8------|
F  :--5-7-5-7-5---5-|7-5-7-------7---|--5-7-5-7-5---5-|10-9-10--------10---|
C  :------------7---|----------------|------------7---|--------------------|
G  :----------------|----------------|----------------|--------------------|
D  :----------------|----------------|----------------|--------------------|

D  :----------------|----------------|----------------|--------------------|
A  :----------------|----------------|----------------|--------------------|
F  :7-7-7-7-7-7-7-7-|----------------|----------------|-7-7--7-7--7-7--7-7-|
C  :7-7-7-7-7-7-7-7-|3-3-3-3-3-3-3-3-|3-3-3-3-3-3-3-3-|-7-7--7-7--7-7--7-7-|
G  :5-5-5-5-5-5-5-5-|3-3-3-3-3-3-3-3-|3-3-3-3-3-3-3-3-|-5-5--5-5--5-5--5-5-|
D  :----------------|1-1-1-1-1-1-1-1-|1-1-1-1-1-1-1-1-|--------------------|

============================================================================

D  :-------------------|--------------------|-----------------|
A  :-------------------|--------8-10-8------|-----------------|
F  :--9-10-9-10-9----9-|10-9-10--------10---|9~---------------|
C  :--------------10---|--------------------|-----------------|
G  :-------------------|--------------------|-----------------|
D  :-------------------|--------------------|-----------------|

D  :-------------------|--------------------|-----------------|
A  :-------------------|--------------------|-----------------|
F  :7-7--7-7--7-7--7-7-|--------------------|-----------------|
C  :7-7--7-7--7-7--7-7-|-3-3--3-3--3-3--3-3-|3~---------------|
G  :5-5--5-5--5-5--5-5-|-3-3--3-3--3-3--3-3-|3~---------------|
D  :-------------------|-1-1--1-1--1-1--1-1-|1~---------------|

============================================================================

D  :------------------------|------------------------|
A  :10-10-------------------|10-10-------------------|
F  :10-10-12-12-10-10--9--9-|10-10-12-12-10-10--9--9-|
C  :------14-14-12-12-10-10-|------14-14-12-12-10-10-|
G  :------------------------|------------------------|
D  :------------------------|------------------------|

D  :------------------------|------------------------|
A  :------------------------|------------------------|
F  :-7--7--7--7--7--7--7--7-|-7--7--7--7--7--7--7--7-|
C  :-7--7--7--7--7--7--7--7-|-7--7--7--7--7--7--7--7-|
G  :-5--5--5--5--5--5--5--5-|-5--5--5--5--5--5--5--5-|
D  :------------------------|------------------------|

============================================================================

D  :------------------------|------------------------|
A  :10-10-------------------|10-10-------------------|
F  :10-10-12-12-10-10--9--9-|10-10-12-12-10-10--9--9-|
C  :------14-14-12-12-10-10-|------14-14-12-12-10-10-|
G  :------------------------|------------------------|
D  :------------------------|------------------------|

D  :------------------------|------------------------|
A  :------------------------|------------------------|
F  :-3--3--3--3--3--3--3--3-|-3--3--3--3--3--3--3--3-|
C  :-3--3--3--3--3--3--3--3-|-3--3--3--3--3--3--3--3-|
G  :-1--1--1--1--1--1--1--1-|-1--1--1--1--1--1--1--1-|
D  :------------------------|------------------------|

============================================================================

D  :------------------------|------------------------|
A  :10-10-------------------|10-10-------------------|
F  :10-10-12-12-10-10--9--9-|10-10-12-12-10-10--9--9-|
C  :------14-14-12-12-10-10-|------14-14-12-12-10-10-|
G  :------------------------|------------------------|
D  :------------------------|------------------------|

D  :------------------------|------------------------|
A  :------------------------|------------------------|
F  :-7--7--7--7--7--7--7--7-|-7--7--7--7--7--7--7--7-|
C  :-7--7--7--7--7--7--7--7-|-7--7--7--7--7--7--7--7-|
G  :-5--5--5--5--5--5--5--5-|-5--5--5--5--5--5--5--5-|
D  :------------------------|------------------------|

============================================================================

D  :------------------------|------------------------|-----------------|
A  :10-10-------------------|10-10-------------------|-----------------|
F  :10-10-12-12-10-10--9--9-|10-10-12-12-10-10--9--9-|*----------------|
C  :------14-14-12-12-10-10-|------14-14-12-12-10-10-|*----------------|
G  :------------------------|------------------------|-----------------|
D  :------------------------|------------------------|-----------------|

D  :------------------------|------------------------|-----------------|
A  :------------------------|------------------------|-----------------|
F  :-3--3--3--3--3--3--3--3-|-3--3--3--3--3--3--3--3-|3~---------------|
C  :-3--3--3--3--3--3--3--3-|-3--3--3--3--3--3--3--3-|3~---------------|
G  :-1--1--1--1--1--1--1--1-|-1--1--1--1--1--1--1--1-|1~---------------|
D  :------------------------|------------------------|-----------------|

============================================================================

D  :-----------------|------------------|----------------|-----------------|
A  :-----------------|------------------|----------------|-----------------|
F  :-----------------|------------------|----------------|-----------------|
C  :-----------------|------------------|----------------|-----------------|
G  :-----------------|------------------|----------------|-----------------|
D  :-----------------|------------------|----------------|-----------------|

D  :-----------------|------------------|----------------|-----------------|
A  :-----------------|------------------|----------------|-----------------|
F  :--5~-------------|----10~-----------|----------------|--3~-------------|
C  :--5~-------------|----10~-----------|----------------|--3~-------------|
G  :--3~-------------|-----8~-----------|----------------|--1~-------------|
D  :-----------------|------------------|----------------|-----------------|

============================================================================

D  :-----------------|------------------|----------------|
A  :-----------------|------------------|----------------|
F  :-----------------|------------------|----------------|
C  :-----------------|------------------|----------------|
G  :-----------------|------------------|----------------|
D  :-----------------|------------------|----------------|

D  :-----------------|------------------|----------------|
A  :-----------------|------------------|----------------|
F  :----5~-----------|------10~---------|----------------|
C  :----5~-----------|------10~---------|----------------|
G  :----3~-----------|-------8~---------|----------------|
D  :-----------------|------------------|----------------|

============================================================================

D  :------------------|----------------|-------------------|
A  :------------------|----------------|-------------------|
F  :10---10---x-x-9---|--9-9---9-9-9-9-|12---12---x-x-10---|
C  :-x----x---x-x-x---|--x-x---x-x-x-x-|-x----x---x-x--x---|
G  :-8----8---x-x-7---|--7-7---7-7-7-7-|10---10---x-x--8---|
D  :------------------|----------------|-------------------|

D  :------------------|----------------|-------------------|
A  :------------------|----------------|-------------------|
F  :10---10---x-x-9---|--9-9---9-9-9-9-|12---12---x-x-10---|
C  :-x----x---x-x-x---|--x-x---x-x-x-x-|-x----x---x-x--x---|
G  :-8----8---x-x-7---|--7-7---7-7-7-7-|10---10---x-x--8---|
D  :------------------|----------------|-------------------|

============================================================================

D  :----------------------|----------------|----------------|
A  :----------------------|----------------|----------------|
F  :--10-10---10-10-10-10-|3---3---x-x-5---|--5-5---5-5-5-5-|
C  :---x--x----x--x--x--x-|x---x---x-x-x---|--x-x---x-x-x-x-|
G  :---8--8----8--8--8--8-|1---1---x-x-3---|--3-3---3-3-3-3-|
D  :----------------------|----------------|----------------|

D  :----------------------|----------------|----------------|
A  :----------------------|----------------|----------------|
F  :--10-10---10-10-10-10-|3---3---x-x-5---|--5-5---5-5-5-5-|
C  :---x--x----x--x--x--x-|x---x---x-x-x---|--x-x---x-x-x-x-|
G  :---8--8----8--8--8--8-|1---1---x-x-3---|--3-3---3-3-3-3-|
D  :----------------------|----------------|----------------|

============================================================================

D  :----------------|----------------|----------------|----------------|
A  :----------------|----------------|----------------|----------------|
F  :5-5-*-5-5-5-*-5-|5-5-*-5-5-5-*---|3---3---x-x-x-x-|x-5-5---x-x-x-x-|
C  :x-x-*-x-x-x-*-x-|x-x-*-x-x-x-*---|3---3---x-x-x-x-|x-5-5---x-x-x-x-|
G  :3-3-*-3-3-3-*-3-|3-3-*-3-3-3-*---|1---1---x-x-x-x-|x-3-3---x-x-x-x-|
D  :----------------|----------------|----------------|----------------|

D  :----------------|----------------|----------------|----------------|
A  :----------------|----------------|----------------|----------------|
F  :5-5-*-5-5-5-*-5-|5-5-*-5-5-5-*---|3---3---x-x-x-x-|x-5-5---x-x-x-x-|
C  :x-x-*-x-x-x-*-x-|x-x-*-x-x-x-*---|3---3---x-x-x-x-|x-5-5---x-x-x-x-|
G  :3-3-*-3-3-3-*-3-|3-3-*-3-3-3-*---|1---1---x-x-x-x-|x-3-3---x-x-x-x-|
D  :----------------|----------------|----------------|----------------|

============================================================================

D  :----------------|----------------|----------------|----------------|
A  :----------------|----------------|----------------|----------------|
F  :--------x-x-x-x-|x-------x-x-x-x-|3---3---x-x-x-x-|x-5-5---x-x-x-x-|
C  :3---3---x-x-x-x-|x-3-3---x-x-x-x-|3---3---x-x-x-x-|x-5-5---x-x-x-x-|
G  :3---3---x-x-x-x-|x-3-3---x-x-x-x-|1---1---x-x-x-x-|x-3-3---x-x-x-x-|
D  :1---1-----------|--1-1-----------|----------------|----------------|

D  :----------------|----------------|----------------|----------------|
A  :----------------|----------------|----------------|----------------|
F  :--------x-x-x-x-|x-5-5---x-x-x-x-|3---3---x-x-x-x-|x-5-5---x-x-x-x-|
C  :3---3---x-x-x-x-|x-5-5---x-x-x-x-|3---3---x-x-x-x-|x-5-5---x-x-x-x-|
G  :3---3---x-x-x-x-|x-3-3---x-x-x-x-|1---1---x-x-x-x-|x-3-3---x-x-x-x-|
D  :1---1-----------|----------------|----------------|----------------|

============================================================================

D  :----------------|----------------|-----------------------|
A  :----------------|----------------|-----------------------|
F  :--------x-x-x-x-|x-------x-x-x-x-|------9----10----12----|
C  :3---3---x-x-x-x-|x-3-3---x-x-x-x-|10-10---10----10----10-|
G  :3---3---x-x-x-x-|x-3-3---x-x-x-x-|-----------------------|
D  :1---1-----------|--1-1-----------|-----------------------|

D  :----------------|----------------|-----------------------|
A  :----------------|----------------|-----------------------|
F  :--------x-x-x-x-|x-5-5---x-x-x-x-|-3--3-3--3--3--3--3--3-|
C  :3---3---x-x-x-x-|x-5-5---x-x-x-x-|-3--3-3--3--3--3--3--3-|
G  :3---3---x-x-x-x-|x-3-3---x-x-x-x-|-1--1-1--1--1--1--1--1-|
D  :1---1-----------|----------------|-----------------------|

============================================================================

D  :----------------------|-----------------------|----------------------|
A  :----------------------|-----------------------|----------------------|
F  :10----9----10-9-------|------9----10----12----|10----9----10-9-------|
C  :---10---10------12-10-|10-10---10----10----10-|---10---10------12-10-|
G  :----------------------|-----------------------|----------------------|
D  :----------------------|-----------------------|----------------------|

D  :----------------------|-----------------------|----------------------|
A  :----------------------|-----------------------|----------------------|
F  :-5--5-5--5--5-5--5--5-|-----------------------|----------------------|
C  :-5--5-5--5--5-5--5--5-|-3--3-3--3--3--3--3--3-|-3--3-3--3--3-3--3--3-|
G  :-3--3-3--3--3-3--3--3-|-3--3-3--3--3--3--3--3-|-3--3-3--3--3-3--3--3-|
D  :----------------------|-1--1-1--1--1--1--1--1-|-1--1-1--1--1-1--1--1-|

============================================================================

D  :-----------------------|----------------------|-----------------------|
A  :-----------------------|----------------------|-----------------------|
F  :------9----10----12----|10----9----10-9-------|------9----10----12----|
C  :10-10---10----10----10-|---10---10------12-10-|10-10---10----10----10-|
G  :-----------------------|----------------------|-----------------------|
D  :-----------------------|----------------------|-----------------------|

D  :-----------------------|----------------------|-----------------------|
A  :-----------------------|----------------------|-----------------------|
F  :-3--3-3--3--3--3--3--3-|-5--5-5--5--5-5--5--5-|-----------------------|
C  :-3--3-3--3--3--3--3--3-|-5--5-5--5--5-5--5--5-|-3--3-3--3--3--3--3--3-|
G  :-1--1-1--1--1--1--1--1-|-3--3-3--3--3-3--3--3-|-3--3-3--3--3--3--3--3-|
D  :-----------------------|----------------------|-1--1-1--1--1--1--1--1-|

============================================================================

D  :----------------------|----------------|----------------|
A  :----------------------|------5-6-5-----|8-6-5-6-5-------|
F  :10----9----10-9-------|7-5-7-------7-5-|----------7-5---|
C  :---10---10------12-10-|----------------|--------------7-|
G  :----------------------|----------------|----------------|
D  :----------------------|----------------|----------------|

D  :----------------------|----------------|----------------|
A  :----------------------|----------------|----------------|
F  :----------------------|7-7-7-7-7-7-7-7-|7-7-7-7-7-7-7-7-|
C  :-3--3-3--3--3-3--3--3-|7-7-7-7-7-7-7-7-|7-7-7-7-7-7-7-7-|
G  :-3--3-3--3--3-3--3--3-|5-5-5-5-5-5-5-5-|5-5-5-5-5-5-5-5-|
D  :-1--1-1--1--1-1--1--1-|----------------|----------------|

============================================================================

D  :----------------|----------------|----------------|----------------|
A  :------5-6-5-----|8-6-5-6-5-------|------5-6-5-----|8-6-5-6-5-------|
F  :7-5-7-------7-5-|----------7-5---|7-5-7-------7-5-|----------7-5---|
C  :----------------|--------------7-|----------------|--------------7-|
G  :----------------|----------------|----------------|----------------|
D  :----------------|----------------|----------------|----------------|

D  :----------------|----------------|----------------|----------------|
A  :----------------|----------------|----------------|----------------|
F  :----------------|----------------|7-7-7-7-7-7-7-7-|7-7-7-7-7-7-7-7-|
C  :3-3-3-3-3-3-3-3-|3-3-3-3-3-3-3-3-|7-7-7-7-7-7-7-7-|7-7-7-7-7-7-7-7-|
G  :3-3-3-3-3-3-3-3-|3-3-3-3-3-3-3-3-|5-5-5-5-5-5-5-5-|5-5-5-5-5-5-5-5-|
D  :1-1-1-1-1-1-1-1-|1-1-1-1-1-1-1-1-|----------------|----------------|

============================================================================

D  :----------------|-----------------|-----------------|
A  :------5-6-5-----|-----------------|-----------------|
F  :7-5-7-------7---|5~---------------|-----------------|
C  :----------------|-----------------|3~---------------|
G  :----------------|-----------------|3~---------------|
D  :----------------|-----------------|1~---------------|

D  :----------------|-----------------|-----------------|
A  :----------------|-----------------|-----------------|
F  :----------------|-----------------|-----------------|
C  :3-3-3-3-3-3-3-3-|3~---------------|3~---------------|
G  :3-3-3-3-3-3-3-3-|3~---------------|3~---------------|
D  :1-1-1-1-1-1-1-1-|1~---------------|1~---------------|

comments
We did not receive enough feedback on this tab! Please rate:
print report bad tab
1 2 3 4 5
4 comments total. Showing first comments.
0 reply
semperxfix10 wrote on October 12 2007, 10:07 pm

Great tab, about time someone figured this song out.

0 reply
blessmuizplz wrote on October 6 2009, 02:33 pm

crazy tuning ....but seems good

0 reply
jakedaman9 wrote on January 19 2011, 10:07 am

bayside always plays in d standard.

I want to post or [tab]
guest
You may want to rate the tab now too:
select rating
Please do not post tabs as comments. Select "correction" instead!