Oops, an error
Loading. Please wait.

Devotion And Desire Acoustic Tab

ver3
ver3

Whole song

Interactive

More versions @911Tabs.com
18,068 views 27 this week
10 commentsread comments
1 2 3 4 5
excellent!
x 11
Autoscroll
+/-
esc
set tempo
stop
Contributor
Difficulty
intermediate
Hey! There's an official Ultimate Guitar app which is ideal
for learning songs when you're away from computer. Get the app
WARNING: You are trying to view
                                    content from Ultimate-Guitar.com
                                    in an unauthorized application,
                                    which is prohibited.

                                    Please use an official Ultimate
                                    Guitar Tabs application for iPhone,
                                    iPad or Android to access legitimate
                                    chords, guitar, bass, and drum tabs
                                    from Ultimate-Guitar.com database.

                                    Type "ultimate guitar tabs" in Apple
                                    App Store's or Android Market's
                                    search to find the application.
Devotion and Desire (Acoustic)
Acoustic CD/DVD
BAYSIDE


Tabbed by Andrew Adams (ataproxax@yahoo.com)


Devotion and Desire Acoustic MIDI
http://www.megaupload.com/?d=XQHJCVGT


This is the correct way to play Devotion and Desire. You can watch any video of the
live, this is the correct way to play the acoustic way. Also, this is the correct way to
the electric way as well, just tuned to D-Standard. If this is taken in as version 3, 
my other 2 tabs are inaccurate. Even if it sounds right, this is the exact way it is
And sorry that I don't throw in the signs for hammer ons, pull offs, and what not. I 
this on a program and using those don't add any effects and just mess with my mind, so just 
common sense and hammer on and pull off on what you know should be hammer on and pull off.


Tuning - C# Standard (1 1/2 Steps Down)

GUITAR ONE - Jack O'Shea (Top Guitar)
GUITAR TWO - Anthony Raneri (Bottom Guitar)

Db :----------------|-----------------|----------------|----------------|
Ab :----------------|---------8-7-*---|----------------|----------------|
E  :----------------|-------------9-8-|9-9-9---9-9-9-9-|--9-9---9-9-9-9-|
B  :----------------|9-7--*-----------|9-9-9---9-9-9-9-|--9-9---9-9-9-9-|
Gb :----------------|----10-9-*-------|7-7-7---7-7-7-7-|--7-7---7-7-7-7-|
Db :----------------|-----------------|----------------|----------------|

Db :----------------|-----------------|----------------|----------------|
Ab :----------------|-----------------|5-5-5---5-5-5-5-|--5-5---5-5-5-5-|
E  :----------------|---------4-2-0---|4-4-4---4-4-4-4-|--4-4---4-4-4-4-|
B  :----------------|5-4--2-0-------4-|2-2-2---2-2-2-2-|--2-2---2-2-2-2-|
Gb :----------------|-----------------|----------------|----------------|
Db :----------------|-----------------|----------------|----------------|

============================================================================

Db :----------------|----------------|----------------|
Ab :----------------|----------------|----------------|
E  :9-9-9---9-9-9-9-|--9-9---9-9-9-9-|9-9-9-9-9-9-9-9-|
B  :9-9-9---9-9-9-9-|--9-9---9-9-9-9-|9-9-9-9-9-9-9-9-|
Gb :7-7-7---7-7-7-7-|--7-7---7-7-7-7-|7-7-7-7-7-7-7-7-|
Db :8-8-8---8-8-8-8-|--8-8---8-8-8-8-|*---------------|

Db :----------------|----------------|----------------|
Ab :5-5-5---5-5-5-5-|--5-5---5-5-5-5-|5-5-5-5-5-5-5-5-|
E  :4-4-4---4-4-4-4-|--4-4---4-4-4-4-|4-4-4-4-4-4-4-4-|
B  :2-2-2---2-2-2-2-|--2-2---2-2-2-2-|2-2-2-2-2-2-2-2-|
Gb :3-3-3---3-3-3-3-|--3-3---3-3-3-3-|----------------|
Db :----------------|----------------|----------------|

============================================================================

Db :------------------------|------------------------|----------------|
Ab :------------------------|------------------------|----------------|
E  :-*----------------------|------------------------|8-8-8-8-8-8-8-8-|
B  :-9--9--9--9--9--9--9--9-|10-10-10-10-10-10-10-10-|9-9-9-9-9-9-9-9-|
Gb :10-10-10-10-10-10-10-10-|10-10-10-10-10-10-10-10-|6-6-6-6-6-6-6-6-|
Db :-7--7--7--7--7--7--7--7-|-8--8--8--8--8--8--8--8-|*---------------|

Db :------------------------|------------------------|----------------|
Ab :------------------------|------------------------|----------------|
E  :-4--4--4--4--4--4--4--4-|-5--5--5--5--5--5--5--5-|8-8-8-8-8-8-8-8-|
B  :-5--5--5--5--5--5--5--5-|-5--5--5--5--5--5--5--5-|9-9-9-9-9-9-9-9-|
Gb :-2--2--2--2--2--2--2--2-|-3--3--3--3--3--3--3--3-|6-6-6-6-6-6-6-6-|
Db :------------------------|------------------------|----------------|

============================================================================

Db :----------------|----------------|----------------|----------------|
Ab :----------------|----------------|----------------|----------------|
E  :9---x-9-9---x-9-|x-9-x-9-9-x-9---|9---x-9-9---x-9-|x-9-x-9-9-x-9-x-|
B  :9---x-9-9---x-9-|x-9-x-9-9-x-9---|9---x-9-9---x-9-|x-9-x-9-9-x-9-x-|
Gb :7---x-7-7---x-7-|x-7-x-7-7-x-7---|7---x-7-7---x-7-|x-7-x-7-7-x-7-x-|
Db :----------------|----------------|8---x-8-8---x-8-|x-8-x-8-8-x-8-x-|

Db :----------------|----------------|----------------|----------------|
Ab :5---x-5-5---x-5-|x-5-x-5-5-x-5---|5---x-5-5---x-5-|x-5-x-5-5-x-5-x-|
E  :4---x-4-4---x-4-|x-4-x-4-4-x-4---|4---x-4-4---x-4-|x-4-x-4-4-x-4-x-|
B  :2---x-2-2---x-2-|x-2-x-2-2-x-2---|2---x-2-2---x-2-|x-2-x-2-2-x-2-x-|
Gb :----------------|----------------|3---x-3-3---x-3-|x-3-x-3-3-x-3-x-|
Db :----------------|----------------|----------------|----------------|

============================================================================

Db :-----------------|--------------------|-------------------|
Ab :-----------------|--------------------|-------------------|
E  :9---x-9-9------*-|--------------------|---------------x-8-|
B  :9---x-9-9---x--9-|x--9-x--9--9-x--9-x-|10---x-10-10---x-9-|
Gb :7---x-7-7---x-10-|x-10-x-10-10-x-10-x-|10---x-10-10---x-6-|
Db :------------x--7-|x--7-x--7--7-x--7-x-|-8---x--8--8---*---|

Db :-----------------|--------------------|-------------------|
Ab :5---x-5-5--------|--------------------|-------------------|
E  :4---x-4-4---x--4-|x--4-x--4--4x---4-x-|-5---x--5--5---x-8-|
B  :2---x-2-2---x--5-|x--5-x--5--5-x--5-x-|-5---x--5--5---x-9-|
Gb :------------x--2-|x--2-x--2--2-x--2-x-|-3---x--3--3---x-6-|
Db :-----------------|--------------------|---------------*---|

============================================================================

Db :----------------|----------------|----------------|----------------|
Ab :----------------|----------------|----------------|----------------|
E  :x-8-x-8-8-x-8-x-|9---x-9-9---x-9-|x-9-x-9-9-x-9---|9---x-9-9---x-9-|
B  :x-9-x-9-9-x-9-x-|9---x-9-9---x-9-|x-9-x-9-9-x-9---|9---x-9-9---x-9-|
Gb :x-6-x-6-6-x-6-x-|7---x-7-7---x-7-|x-7-x-7-7-x-7---|7---x-7-7---x-7-|
Db :----------------|----------------|----------------|8---x-8-8---x-8-|

Db :----------------|----------------|----------------|----------------|
Ab :----------------|5---x-5-5---x-5-|x-5-x-5-5-x-5---|5---x-5-5---x-5-|
E  :x-8-x-8-8-x-8-x-|4---x-4-4---x-4-|x-4-x-4-4-x-4---|4---x-4-4---x-4-|
B  :x-9-x-9-9-x-9-x-|2---x-2-2---x-2-|x-2-x-2-2-x-2---|2---x-2-2---x-2-|
Gb :x-6-x-6-6-x-6-x-|----------------|----------------|3---x-3-3---x-3-|
Db :----------------|----------------|----------------|----------------|

============================================================================

Db :----------------|-----------------|--------------------|
Ab :----------------|-----------------|--------------------|
E  :x-9-x-9-9-x-9-x-|9---x-9-9------*-|--------------------|
B  :x-9-x-9-9-x-9-x-|9---x-9-9---x--9-|x--9-x--9--9-x--9-x-|
Gb :x-7-x-7-7-x-7-x-|7---x-7-7---x-10-|x-10-x-10-10-x-10-x-|
Db :x-8-x-8-8-x-8-x-|------------x--7-|x--7-x--7--7-x--7-x-|

Db :----------------|-----------------|--------------------|
Ab :x-5-x-5-5-x-5-x-|5---x-5-5--------|--------------------|
E  :x-4-x-4-4-x-4-x-|4---x-4-4---x--4-|x--4-x--4--4x---4-x-|
B  :x-2-x-2-2-x-2-x-|2---x-2-2---x--5-|x--5-x--5--5-x--5-x-|
Gb :x-3-x-3-3-x-3-x-|------------x--2-|x--2-x--2--2-x--2-x-|
Db :----------------|-----------------|--------------------|

============================================================================

Db :-------------------|----------------|----------------|----------------|
Ab :-------------------|----------------|5---5-5-5-5-5-5-|5-5-5-5-5-5-5-5-|
E  :---------------x-8-|x-8-x-8-8-x-8-x-|4---4-4-4-4-4-4-|4-4-4-4-4-4-4-4-|
B  :10---x-10-10---x-9-|x-9-x-9-9-x-9-x-|2---2-2-2-2-2-2-|2-2-2-2-2-2-2-2-|
Gb :10---x-10-10---x-6-|x-6-x-6-6-x-6-x-|----------------|----------------|
Db :-8---x--8--8---*---|----------------|----------------|----------------|

Db :-------------------|----------------|----------------|----------------|
Ab :-------------------|----------------|5---5-5-5-5-5-5-|5-5-5-5-5-5-5-5-|
E  :-5---x--5--5---x-8-|x-8-x-8-8-x-8-x-|4---4-4-4-4-4-4-|4-4-4-4-4-4-4-4-|
B  :-5---x--5--5---x-9-|x-9-x-9-9-x-9-x-|2---2-2-2-2-2-2-|2-2-2-2-2-2-2-2-|
Gb :-3---x--3--3---x-6-|x-6-x-6-6-x-6-x-|----------------|----------------|
Db :---------------*---|----------------|----------------|----------------|

============================================================================

Db :----------------|----------------|----------------|----------------|
Ab :5---5-5-5-5-5-5-|5-5-5-5-5-5-5-5-|5---5-5-5-5-5-5-|----------------|
E  :4---4-4-4-4-4-4-|4-4-4-4-4-4-4-4-|4---4-4-4-4-4-4-|4---4-4-4-4-4-4-|
B  :2---2-2-2-2-2-2-|2-2-2-2-2-2-2-2-|2---2-2-2-2-2-2-|5---5-5-5-5-5-5-|
Gb :3---3-3-3-3-3-3-|3-3-3-3-3-3-3-3-|----------------|2---2-2-2-2-2-2-|
Db :----------------|----------------|----------------|----------------|

Db :----------------|----------------|----------------|----------------|
Ab :5---5-5-5-5-5-5-|5-5-5-5-5-5-5-5-|5---5-5-5-5-5-5-|----------------|
E  :4---4-4-4-4-4-4-|4-4-4-4-4-4-4-4-|4---4-4-4-4-4-4-|4---4-4-4-4-4-4-|
B  :2---2-2-2-2-2-2-|2-2-2-2-2-2-2-2-|2---2-2-2-2-2-2-|5---5-5-5-5-5-5-|
Gb :3---3-3-3-3-3-3-|3-3-3-3-3-3-3-3-|----------------|2---2-2-2-2-2-2-|
Db :----------------|----------------|----------------|----------------|

============================================================================

Db :----------------|----------------|0-0-0-*---------|----------------|
Ab :----------------|----------------|5-5-5-*---------|----------------|
E  :8-8---8---8---8-|--8-8---8-8-8-8-|4-4-4-*---------|----------------|
B  :9-9---9---9---9-|--9-9---9-9-9-9-|2-2-2-*---------|----------------|
Gb :6-6---6---6---6-|--6-6---6-6-6-6-|----------------|----------------|
Db :----------------|----------------|----------------|----------------|

Db :----------------|----------------|0-0-0-*---------|----------------|
Ab :----------------|----------------|5-5-5-*---------|----------------|
E  :8-8---8---8---8-|--8-8---8-8-8-8-|4-4-4-*---------|----------------|
B  :9-9---9---9---9-|--9-9---9-9-9-9-|2-2-2-*---------|----------------|
Gb :6-6---6---6---6-|--6-6---6-6-6-6-|----------------|----------------|
Db :----------------|----------------|----------------|----------------|

============================================================================

Db :----------------|----------------|----------------|----------------|
Ab :----------------|----------------|----------------|----------------|
E  :5---5-5---5-5-5-|5-5-5-5-5-5-5-5-|2---2-2---2-2-2-|2-2-2-2-2-2-2-2-|
B  :5---5-5---5-5-5-|5-5-5-5-5-5-5-5-|2---2-2---2-2-2-|2-2-2-2-2-2-2-2-|
Gb :3---3-3---3-3-3-|3-3-3-3-3-3-3-3-|0---0-0---0-0-0-|0-0-0-0-0-0-0-0-|
Db :----------------|----------------|----------------|----------------|

Db :----------------|----------------|----------------|----------------|
Ab :----------------|----------------|----------------|----------------|
E  :5---5-5---5-5-5-|5-5-5-5-5-5-5-5-|2---2-2---2-2-2-|2-2-2-2-2-2-2-2-|
B  :5---5-5---5-5-5-|5-5-5-5-5-5-5-5-|2---2-2---2-2-2-|2-2-2-2-2-2-2-2-|
Gb :3---3-3---3-3-3-|3-3-3-3-3-3-3-3-|0---0-0---0-0-0-|0-0-0-0-0-0-0-0-|
Db :----------------|----------------|----------------|----------------|

============================================================================

Db :----------------|----------------|--------------------|
Ab :----------------|----------------|--------------------|
E  :8---8-8---8-8-8-|8-8-8-8-8-8-8-8-|/9---12---11---12---|
B  :9---9-9---9-9-9-|9-9-9-9-9-9-9-9-|--------------------|
Gb :6---6-6---6-6-6-|6-6-6-6-6-6-6-6-|--------------------|
Db :----------------|----------------|--------------------|

Db :----------------|----------------|--------------------|
Ab :----------------|----------------|-5----5-5----5--5-5-|
E  :8---8-8---8-8-8-|8-8-8-8-8-8-8-8-|-4----4-4----4--4-4-|
B  :9---9-9---9-9-9-|9-9-9-9-9-9-9-9-|-2----2-2----2--2-2-|
Gb :6---6-6---6-6-6-|6-6-6-6-6-6-6-6-|--------------------|
Db :----------------|----------------|--------------------|

============================================================================

Db :-------------------|--------------------|--------------------|
Ab :-------------------|--------------------|--------------------|
E  :9---12---11---12---|-----12---11---12---|14---12---11---12---|
B  :-------------------|10------------------|--------------------|
Gb :-------------------|--------------------|--------------------|
Db :-------------------|--------------------|--------------------|

Db :-------------------|--------------------|--------------------|
Ab :5-5--5-5--5-5--5-5-|--------------------|--------------------|
E  :4-4--4-4--4-4--4-4-|-5----5-5----5--5-5-|-5-5--5-5--5-5--5-5-|
B  :2-2--2-2--2-2--2-2-|-5----5-5----5--5-5-|-5-5--5-5--5-5--5-5-|
Gb :-------------------|-3----3-3----3--3-3-|-3-3--3-3--3-3--3-3-|
Db :-------------------|--------------------|--------------------|

============================================================================

Db :--------------------|-------------------|-----------------|
Ab :--------------------|-------------------|-----------------|
E  :-----12---11---12---|14---12---11---9---|8---9---11---9---|
B  :10------------------|-------------------|-----------------|
Gb :--------------------|-------------------|-----------------|
Db :--------------------|-------------------|-----------------|

Db :--------------------|-------------------|-----------------|
Ab :--------------------|-------------------|-----------------|
E  :-2----2-2----2--2-2-|-2-2--2-2--2-2-2-2-|8---8-8----8-8-8-|
B  :-2----2-2----2--2-2-|-2-2--2-2--2-2-2-2-|9---9-9----9-9-9-|
Gb :-0----0-0----0--0-0-|-0-0--0-0--0-0-0-0-|6---6-6----6-6-6-|
Db :--------------------|-------------------|-----------------|

============================================================================

Db :----------------|------0---------|----------------|----------------|
Ab :----------------|------0---------|----------------|----------------|
E  :8---------------|------0---------|----------------|9---x-9-9---x-9-|
B  :----------7-5---|2---2-0---------|x-x-x-x-x-x-x-x-|9---x-9-9---x-9-|
Gb :----------7-5---|2---2-0---------|x-x-x-x-x-x-x-x-|7---x-7-7---x-7-|
Db :----------5-3---|0---0-0---------|x-x-x-x-x-x-x-x-|----------------|

Db :----------------|------0---------|----------------|----------------|
Ab :----------------|------0---------|----------------|5---x-5-5---x-5-|
E  :8---8-8---------|------0---------|----------------|4---x-4-4---x-4-|
B  :9---9-9---7-5---|2---2-0---------|x-x-x-x-x-x-x-x-|2---x-2-2---x-2-|
Gb :6---6-6---7-5---|2---2-0---------|x-x-x-x-x-x-x-x-|----------------|
Db :----------5-3---|0---0-0---------|x-x-x-x-x-x-x-x-|----------------|

============================================================================

Db :----------------|----------------|----------------|-----------------|
Ab :----------------|----------------|----------------|-----------------|
E  :x-9-x-9-9-x-9---|9---x-9-9---x-9-|x-9-x-9-9-x-9-x-|9---x-9-9------*-|
B  :x-9-x-9-9-x-9---|9---x-9-9---x-9-|x-9-x-9-9-x-9-x-|9---x-9-9---x--9-|
Gb :x-7-x-7-7-x-7---|7---x-7-7---x-7-|x-7-x-7-7-x-7-x-|7---x-7-7---x-10-|
Db :----------------|8---x-8-8---x-8-|x-8-x-8-8-x-8-x-|------------x--7-|

Db :----------------|----------------|----------------|-----------------|
Ab :x-5-x-5-5-x-5---|5---x-5-5---x-5-|x-5-x-5-5-x-5-x-|5---x-5-5--------|
E  :x-4-x-4-4-x-4---|4---x-4-4---x-4-|x-4-x-4-4-x-4-x-|4---x-4-4---x--4-|
B  :x-2-x-2-2-x-2---|2---x-2-2---x-2-|x-2-x-2-2-x-2-x-|2---x-2-2---x--5-|
Gb :----------------|3---x-3-3---x-3-|x-3-x-3-3-x-3-x-|------------x--2-|
Db :----------------|----------------|----------------|-----------------|

============================================================================

Db :--------------------|-------------------|----------------|
Ab :--------------------|-------------------|----------------|
E  :--------------------|---------------x-8-|x-8-x-8-8-x-8-x-|
B  :x--9-x--9--9-x--9-x-|10---x-10-10---x-9-|x-9-x-9-9-x-9-x-|
Gb :x-10-x-10-10-x-10-x-|10---x-10-10---x-6-|x-6-x-6-6-x-6-x-|
Db :x--7-x--7--7-x--7-x-|-8---x--8--8---*---|----------------|

Db :--------------------|-------------------|----------------|
Ab :--------------------|-------------------|----------------|
E  :x--4-x--4--4x---4-x-|-5---x--5--5---x-8-|x-8-x-8-8-x-8-x-|
B  :x--5-x--5--5-x--5-x-|-5---x--5--5---x-9-|x-9-x-9-9-x-9-x-|
Gb :x--2-x--2--2-x--2-x-|-3---x--3--3---x-6-|x-6-x-6-6-x-6-x-|
Db :--------------------|---------------*---|----------------|

============================================================================

Db :----------------|----------------|----------------|----------------|
Ab :----------------|----------------|----------------|----------------|
E  :9---x-9-9---x-9-|x-9-x-9-9-x-9---|9---x-9-9---x-9-|x-9-x-9-9-x-9-x-|
B  :9---x-9-9---x-9-|x-9-x-9-9-x-9---|9---x-9-9---x-9-|x-9-x-9-9-x-9-x-|
Gb :7---x-7-7---x-7-|x-7-x-7-7-x-7---|7---x-7-7---x-7-|x-7-x-7-7-x-7-x-|
Db :----------------|----------------|8---x-8-8---x-8-|x-8-x-8-8-x-8-x-|

Db :----------------|----------------|----------------|----------------|
Ab :5---x-5-5---x-5-|x-5-x-5-5-x-5---|5---x-5-5---x-5-|x-5-x-5-5-x-5-x-|
E  :4---x-4-4---x-4-|x-4-x-4-4-x-4---|4---x-4-4---x-4-|x-4-x-4-4-x-4-x-|
B  :2---x-2-2---x-2-|x-2-x-2-2-x-2---|2---x-2-2---x-2-|x-2-x-2-2-x-2-x-|
Gb :----------------|----------------|3---x-3-3---x-3-|x-3-x-3-3-x-3-x-|
Db :----------------|----------------|----------------|----------------|

============================================================================

Db :-----------------|--------------------|-------------------|
Ab :-----------------|--------------------|-------------------|
E  :9---x-9-9------*-|--------------------|---------------x-8-|
B  :9---x-9-9---x--9-|x--9-x--9--9-x--9-x-|10---x-10-10---x-9-|
Gb :7---x-7-7---x-10-|x-10-x-10-10-x-10-x-|10---x-10-10---x-6-|
Db :------------x--7-|x--7-x--7--7-x--7-x-|-8---x--8--8---*---|

Db :-----------------|--------------------|-------------------|
Ab :5---x-5-5--------|--------------------|-------------------|
E  :4---x-4-4---x--4-|x--4-x--4--4x---4-x-|-5---x--5--5---x-8-|
B  :2---x-2-2---x--5-|x--5-x--5--5-x--5-x-|-5---x--5--5---x-9-|
Gb :------------x--2-|x--2-x--2--2-x--2-x-|-3---x--3--3---x-6-|
Db :-----------------|--------------------|---------------*---|

============================================================================

Db :----------------|----------------|----------------|----------------|
Ab :----------------|5---5-5-5-5-5-5-|5-5-5-5-5-5-5-5-|5---5-5-5-5-5-5-|
E  :x-8-x-8-8-x-8-x-|4---4-4-4-4-4-4-|4-4-4-4-4-4-4-4-|4---4-4-4-4-4-4-|
B  :x-9-x-9-9-x-9-x-|2---2-2-2-2-2-2-|2-2-2-2-2-2-2-2-|2---2-2-2-2-2-2-|
Gb :x-6-x-6-6-x-6-x-|----------------|----------------|3---3-3-3-3-3-3-|
Db :----------------|----------------|----------------|----------------|

Db :----------------|----------------|----------------|----------------|
Ab :----------------|5---5-5-5-5-5-5-|5-5-5-5-5-5-5-5-|5---5-5-5-5-5-5-|
E  :x-8-x-8-8-x-8-x-|4---4-4-4-4-4-4-|4-4-4-4-4-4-4-4-|4---4-4-4-4-4-4-|
B  :x-9-x-9-9-x-9-x-|2---2-2-2-2-2-2-|2-2-2-2-2-2-2-2-|2---2-2-2-2-2-2-|
Gb :x-6-x-6-6-x-6-x-|----------------|----------------|3---3-3-3-3-3-3-|
Db :----------------|----------------|----------------|----------------|

============================================================================

Db :----------------|----------------|----------------|----------------|
Ab :5-5-5-5-5-5-5-5-|5---5-5-5-5-5-5-|----------------|----------------|
E  :4-4-4-4-4-4-4-4-|4---4-4-4-4-4-4-|4---4-4-4-4-4-4-|8-8---8---8---8-|
B  :2-2-2-2-2-2-2-2-|2---2-2-2-2-2-2-|5---5-5-5-5-5-5-|9-9---9---9---9-|
Gb :3-3-3-3-3-3-3-3-|----------------|2---2-2-2-2-2-2-|6-6---6---6---6-|
Db :----------------|----------------|----------------|----------------|

Db :----------------|----------------|----------------|----------------|
Ab :5-5-5-5-5-5-5-5-|5---5-5-5-5-5-5-|----------------|----------------|
E  :4-4-4-4-4-4-4-4-|4---4-4-4-4-4-4-|4---4-4-4-4-4-4-|8-8---8---8---8-|
B  :2-2-2-2-2-2-2-2-|2---2-2-2-2-2-2-|5---5-5-5-5-5-5-|9-9---9---9---9-|
Gb :3-3-3-3-3-3-3-3-|----------------|2---2-2-2-2-2-2-|6-6---6---6---6-|
Db :----------------|----------------|----------------|----------------|

============================================================================

Db :----------------|0-0-0-0-0-0-0-0-|0-0-0-0-0-0-0-0-|----------------|
Ab :----------------|5-5-5-5-5-5-5-5-|5-5-5-5-5-5-5-5-|----------------|
E  :--8-8---8-8-8-8-|4-4-4-4-4-4-4-4-|4-4-4-4-4-4-4-4-|5---5-5---5-5-5-|
B  :--9-9---9-9-9-9-|2-2-2-2-2-2-2-2-|2-2-2-2-2-2-2-2-|5---5-5---5-5-5-|
Gb :--6-6---6-6-6-6-|----------------|----------------|3---3-3---3-3-3-|
Db :----------------|----------------|----------------|----------------|

Db :----------------|0-0-0-0-0-0-0-0-|0-0-0-0-0-0-0-0-|----------------|
Ab :----------------|5-5-5-5-5-5-5-5-|5-5-5-5-5-5-5-5-|----------------|
E  :--8-8---8-8-8-8-|4-4-4-4-4-4-4-4-|4-4-4-4-4-4-4-4-|5---5-5---5-5-5-|
B  :--9-9---9-9-9-9-|2-2-2-2-2-2-2-2-|2-2-2-2-2-2-2-2-|5---5-5---5-5-5-|
Gb :--6-6---6-6-6-6-|----------------|----------------|3---3-3---3-3-3-|
Db :----------------|----------------|----------------|----------------|

============================================================================

Db :----------------|----------------|----------------|----------------|
Ab :----------------|----------------|----------------|----------------|
E  :5-5-5-5-5-5-5-5-|2---2-2---2-2-2-|2-2-2-2-2-2-2-2-|8---8-8---8-8-8-|
B  :5-5-5-5-5-5-5-5-|2---2-2---2-2-2-|2-2-2-2-2-2-2-2-|9---9-9---9-9-9-|
Gb :3-3-3-3-3-3-3-3-|0---0-0---0-0-0-|0-0-0-0-0-0-0-0-|6---6-6---6-6-6-|
Db :----------------|----------------|----------------|----------------|

Db :----------------|----------------|----------------|----------------|
Ab :----------------|----------------|----------------|----------------|
E  :5-5-5-5-5-5-5-5-|2---2-2---2-2-2-|2-2-2-2-2-2-2-2-|8---8-8---8-8-8-|
B  :5-5-5-5-5-5-5-5-|2---2-2---2-2-2-|2-2-2-2-2-2-2-2-|9---9-9---9-9-9-|
Gb :3-3-3-3-3-3-3-3-|0---0-0---0-0-0-|0-0-0-0-0-0-0-0-|6---6-6---6-6-6-|
Db :----------------|----------------|----------------|----------------|

============================================================================

Db :----------------|--------------------|-------------------|
Ab :----------------|--------------------|-------------------|
E  :8-8-8-8-8-8-8-8-|/9---12---11---12---|9---12---11---12---|
B  :9-9-9-9-9-9-9-9-|--------------------|-------------------|
Gb :6-6-6-6-6-6-6-6-|--------------------|-------------------|
Db :----------------|--------------------|-------------------|

Db :----------------|--------------------|-------------------|
Ab :----------------|-5----5-5----5--5-5-|5-5--5-5--5-5--5-5-|
E  :8-8-8-8-8-8-8-8-|-4----4-4----4--4-4-|4-4--4-4--4-4--4-4-|
B  :9-9-9-9-9-9-9-9-|-2----2-2----2--2-2-|2-2--2-2--2-2--2-2-|
Gb :6-6-6-6-6-6-6-6-|--------------------|-------------------|
Db :----------------|--------------------|-------------------|

============================================================================

Db :--------------------|--------------------|--------------------|
Ab :--------------------|--------------------|--------------------|
E  :-----12---11---12---|14---12---11---12---|-----12---11---12---|
B  :10------------------|--------------------|10------------------|
Gb :--------------------|--------------------|--------------------|
Db :--------------------|--------------------|--------------------|

Db :--------------------|--------------------|--------------------|
Ab :--------------------|--------------------|--------------------|
E  :-5----5-5----5--5-5-|-5-5--5-5--5-5--5-5-|-2----2-2----2--2-2-|
B  :-5----5-5----5--5-5-|-5-5--5-5--5-5--5-5-|-2----2-2----2--2-2-|
Gb :-3----3-3----3--3-3-|-3-3--3-3--3-3--3-3-|-0----0-0----0--0-0-|
Db :--------------------|--------------------|--------------------|

============================================================================

Db :-------------------|-----------------|--------------------|
Ab :-------------------|-----------------|--------------------|
E  :14---12---11---9---|8---9---11---9---|11---12---11---12---|
B  :-------------------|-----------------|--------------------|
Gb :-------------------|-----------------|--------------------|
Db :-------------------|-----------------|--------------------|

Db :-------------------|-----------------|--------------------|
Ab :-------------------|-----------------|--------------------|
E  :-2-2--2-2--2-2-2-2-|8---8-8----8-8-8-|-8-8--8-8--8-8--8-8-|
B  :-2-2--2-2--2-2-2-2-|9---9-9----9-9-9-|-9-9--9-9--9-9--9-9-|
Gb :-0-0--0-0--0-0-0-0-|6---6-6----6-6-6-|-6-6--6-6--6-6--6-6-|
Db :-------------------|-----------------|--------------------|

============================================================================

Db :-----------------|------------------|------------------------|
Ab :-----------------|15^---------------|------------------------|
E  :14---------------|------------------|14-16-14-12-11-12----11-|
B  :-----------------|------------------|------------------14----|
Gb :-----------------|------------------|------------------------|
Db :-----------------|------------------|------------------------|

Db :-----------------|------------------|------------------------|
Ab :-----------------|------------------|-5-----5--5-----5--5--5-|
E  :-8-8-8-8-8-8-8-8-|-8--8-8-8-8-8-8-8-|-4-----4--4-----4--4--4-|
B  :-9-9-9-9-9-9-9-9-|-9--9-9-9-9-9-9-9-|-2-----2--2-----2--2--2-|
Gb :-6-6-6-6-6-6-6-6-|-6--6-6-6-6-6-6-6-|------------------------|
Db :-----------------|------------------|------------------------|

============================================================================

Db :-----------------------|----------------|----------------|
Ab :-----------------------|----------------|----------------|
E  :------11-12----11----9-|----------------|----------------|
B  :12-14-------14----12---|5-----7---7-----|5-----0---0-----|
Gb :-----------------------|----------------|----------------|
Db :-----------------------|----------------|----------------|

Db :-----------------------|----------------|----------------|
Ab :-5--5--5--5--5--5--5-5-|----------------|----------------|
E  :-4--4--4--4--4--4--4-4-|5---5-5---5-5-5-|5-5-5-5-5-5-5-5-|
B  :-2--2--2--2--2--2--2-2-|5---5-5---5-5-5-|5-5-5-5-5-5-5-5-|
Gb :-----------------------|3---3-3---3-3-3-|3-3-3-3-3-3-3-3-|
Db :-----------------------|----------------|----------------|

============================================================================

Db :----------------|----------------|-----------------|-------------------|
Ab :----------------|----------------|-----------------|--12---------------|
E  :----------------|----------------|-----------------|---------11--------|
B  :0-----2---5-2-5-|7-8---7-5-2-5-7-|--9-----10-----9-|----------------13-|
Gb :----------------|----------------|-----------------|-------------------|
Db :----------------|----------------|-----------------|-------------------|

Db :----------------|----------------|-----------------|-------------------|
Ab :----------------|----------------|-----------------|-------------------|
E  :2---2-2---2-2-2-|2-2-2-2-2-2-2-2-|8---8-8----8-8-8-|8--8-8-8--8-8-8--8-|
B  :2---2-2---2-2-2-|2-2-2-2-2-2-2-2-|9---9-9----9-9-9-|9--9-9-9--9-9-9--9-|
Gb :0---0-0---0-0-0-|0-0-0-0-0-0-0-0-|6---6-6----6-6-6-|6--6-6-6--6-6-6--6-|
Db :----------------|----------------|-----------------|-------------------|

============================================================================

Db :0-0-12-0-0-0-10-0-0-0-8-0-0-0-7-0|0-0-5-0-0-0-8-0-0-0-7-0-0-0-5-0|
Ab :---------------------------------|-------------------------------|
E  :---------------------------------|-------------------------------|
B  :---------------------------------|-------------------------------|
Gb :---------------------------------|-------------------------------|
Db :---------------------------------|-------------------------------|

Db :---------------------------------|-------------------------------|
Ab :5--------5----5-------5---5---5--|5---5---5---5---5---5---5---5--|
E  :4--------4----4-------4---4---4--|4---4---4---4---4---4---4---4--|
B  :2--------2----2-------2---2---2--|2---2---2---2---2---2---2---2--|
Gb :---------------------------------|-------------------------------|
Db :---------------------------------|-------------------------------|

============================================================================

Db :0-0-10-0-0-0-8-0-0-0-12-0-0-0-10-0|0-0-14-0-0-0-12-0-0-0-14-15-----|
Ab :----------------------------------|--------------------------------|
E  :----------------------------------|--------------------------------|
B  :----------------------------------|--------------------------------|
Gb :----------------------------------|--------------------------------|
Db :----------------------------------|--------------------------------|

Db :----------------------------------|--------------------------------|
Ab :----------------------------------|--------------------------------|
E  :5--------5---5--------5---5----5--|5----5---5----5---5----5----5-5-|
B  :5--------5---5--------5---5----5--|5----5---5----5---5----5----5-5-|
Gb :3--------3---3--------3---3----3--|3----3---3----3---3----3----3-3-|
Db :----------------------------------|--------------------------------|

============================================================================

Db :----------------------|-----------------------------|------------------|
Ab :---------------17-----|------15---------------------|------------------|
E  :14-16-14--------------|16-17----17-16-14------------|-------8-9-11-8---|
B  :---------17-14--------|------------------14-15-14---|9---10----------9-|
Gb :----------------------|-----------------------------|------------------|
Db :----------------------|-----------------------------|------------------|

Db :----------------------|-----------------------------|------------------|
Ab :----------------------|-----------------------------|------------------|
E  :-2-----2--2-----2-2-2-|-2-----2--2--2--2--2-----2-2-|8----8-8----8-8-8-|
B  :-2-----2--2-----2-2-2-|-2-----2--2--2--2--2-----2-2-|9----9-9----9-9-9-|
Gb :-0-----0--0-----0-0-0-|-0-----0--0--0--0--0-----0-0-|6----6-6----6-6-6-|
Db :----------------------|-----------------------------|------------------|

============================================================================

Db :-------------------|----------------|----------------|----------------|
Ab :12-*-13-*-12-------|----------------|----------------|----------------|
E  :11-*-11-*-11-------|9---9-9-*-9-*-9-|*-9-*-9---------|5---5-5-*-5-*-5-|
B  :-9-*--9-*--9-------|9---9-9-*-9-*-9-|*-9-*-9---7-9-7-|5---5-5-*-5-*-5-|
Gb :-------------------|7---7-7-*-7-*-7-|*-7-*-7---------|3---3-3-*-3-*-3-|
Db :-------------------|----------------|----------------|----------------|

Db :-------------------|----------------|----------------|----------------|
Ab :-------------------|5---5-5-*-5-*-5-|*-5-*-5---------|----------------|
E  :-8-8--8-8--8-8-8-8-|4---4-4-*-4-*-4-|*-4-*-4---2-4-2-|5---5-5-*-5-*-5-|
B  :-9-9--9-9--9-9-9-9-|2---2-2-*-2-*-2-|*-2-*-2---------|5---5-5-*-5-*-5-|
Gb :-6-6--6-6--6-6-6-6-|----------------|----------------|3---3-3-*-3-*-3-|
Db :-------------------|----------------|----------------|----------------|

============================================================================

Db :----------------|---------------------|-------------------|
Ab :----------------|---------------------|-------------------|
E  :*-5-*-5---5-4-2-|---------------------|-------------------|
B  :*-5-*-5---------|-9----9--9-*--9-*--9-|*--9-*--9---10-9---|
Gb :*-3-*-3---------|10---10-10-*-10-*-10-|*-10-*-10----------|
Db :----------------|-7----7--7-*--7-*--7-|*--7-*--7----------|

Db :----------------|---------------------|-------------------|
Ab :----------------|---------------------|-------------------|
E  :*-5-*-5---5-4-2-|-4----4--4-*--4-*--4-|*--4-*--4----5-4---|
B  :*-5-*-5---------|-5----5--5-*--5-*--5-|*--5-*--5----------|
Gb :*-3-*-3---------|-2----2--2-*--2-*--2-|*--2-*--2----------|
Db :----------------|---------------------|-------------------|

============================================================================

Db :----------------|----------------|----------------|----------------|
Ab :----------------|----------------|----------------|----------------|
E  :2---2-2-*-2-*-2-|*-2-------8-9---|9---9-9-*-9-*-9-|*-9-*-9---------|
B  :2---2-2-*-2-*-2-|*-2-------------|9---9-9-*-9-*-9-|*-9-*-9---7-9-7-|
Gb :0---0-0-*-0-*-0-|*-0---0---------|7---7-7-*-7-*-7-|*-7-*-7---------|
Db :----------------|----------------|----------------|----------------|

Db :----------------|----------------|----------------|----------------|
Ab :----------------|----------------|5---5-5-*-5-*-5-|*-5-*-5---------|
E  :2---2-2-*-2-*-2-|*-2-------8-9---|4---4-4-*-4-*-4-|*-4-*-4---2-4-2-|
B  :2---2-2-*-2-*-2-|*-2-------------|2---2-2-*-2-*-2-|*-2-*-2---------|
Gb :0---0-0-*-0-*-0-|*-0---0---------|----------------|----------------|
Db :----------------|----------------|----------------|----------------|

============================================================================

Db :----------------|----------------|---------------------|
Ab :----------------|----------------|---------------------|
E  :5---5-5-*-5-*-5-|*-5-*-5---5-4-2-|---------------------|
B  :5---5-5-*-5-*-5-|*-5-*-5---------|-9----9--9-*--9-*--9-|
Gb :3---3-3-*-3-*-3-|*-3-*-3---------|10---10-10-*-10-*-10-|
Db :----------------|----------------|-7----7--7-*--7-*--7-|

Db :----------------|----------------|---------------------|
Ab :----------------|----------------|---------------------|
E  :5---5-5-*-5-*-5-|*-5-*-5---5-4-2-|-4----4--4-*--4-*--4-|
B  :5---5-5-*-5-*-5-|*-5-*-5---------|-5----5--5-*--5-*--5-|
Gb :3---3-3-*-3-*-3-|*-3-*-3---------|-2----2--2-*--2-*--2-|
Db :----------------|----------------|---------------------|

============================================================================

Db :-------------------|----------------|----------------|----------------|
Ab :-------------------|----------------|----------------|----------------|
E  :-------------------|2---2-2-*-2-*-2-|*-2-------8-9---|9---9-9-*-9-*-9-|
B  :*--9-*--9---10-9---|2---2-2-*-2-*-2-|*-2-------------|9---9-9-*-9-*-9-|
Gb :*-10-*-10----------|0---0-0-*-0-*-0-|*-0---0---------|7---7-7-*-7-*-7-|
Db :*--7-*--7----------|----------------|----------------|----------------|

Db :-------------------|----------------|----------------|----------------|
Ab :-------------------|----------------|----------------|5---5-5-*-5-*-5-|
E  :*--4-*--4----5-4---|2---2-2-*-2-*-2-|*-2-------8-9---|4---4-4-*-4-*-4-|
B  :*--5-*--5----------|2---2-2-*-2-*-2-|*-2-------------|2---2-2-*-2-*-2-|
Gb :*--2-*--2----------|0---0-0-*-0-*-0-|*-0---0---------|----------------|
Db :-------------------|----------------|----------------|----------------|

============================================================================

Db :----------------|----------------|----------------|
Ab :----------------|----------------|----------------|
E  :*-9-*-9---------|5---5-5-*-5-*-5-|*-5-*-5---5-4-2-|
B  :*-9-*-9---7-9-7-|5---5-5-*-5-*-5-|*-5-*-5---------|
Gb :*-7-*-7---------|3---3-3-*-3-*-3-|*-3-*-3---------|
Db :----------------|----------------|----------------|

Db :----------------|----------------|----------------|
Ab :*-5-*-5---------|----------------|----------------|
E  :*-4-*-4---2-4-2-|5---5-5-*-5-*-5-|*-5-*-5---5-4-2-|
B  :*-2-*-2---------|5---5-5-*-5-*-5-|*-5-*-5---------|
Gb :----------------|3---3-3-*-3-*-3-|*-3-*-3---------|
Db :----------------|----------------|----------------|

============================================================================

Db :---------------------|-------------------|----------------|
Ab :---------------------|-------------------|----------------|
E  :---------------------|-------------------|2---2-2-*-2-----|
B  :-9----9--9-*--9-*--9-|*--9-*--9---10-9---|2---2-2-*-2-----|
Gb :10---10-10-*-10-*-10-|*-10-*-10----------|0---0-0-*-0---0-|
Db :-7----7--7-*--7-*--7-|*--7-*--7----------|----------------|

Db :---------------------|-------------------|----------------|
Ab :---------------------|-------------------|----------------|
E  :-4----4--4-*--4-*--4-|*--4-*--4----5-4---|2---2-2-*-2-----|
B  :-5----5--5-*--5-*--5-|*--5-*--5----------|2---2-2-*-2-----|
Gb :-2----2--2-*--2-*--2-|*--2-*--2----------|0---0-0-*-0---0-|
Db :---------------------|-------------------|----------------|

============================================================================

Db :-----------------|----------------|0-0-0-0-0-0-0-0-|0-0-0-0-0-0-0-0-|
Ab :-----------8-7-*-|----------------|5-5-5-5-5-5-5-5-|5-5-5-5-5-5-5-5-|
E  :---------------9-|8-9-*-----------|4-4-4-4-4-4-4-4-|4-4-4-4-4-4-4-4-|
B  :--9-7--*---------|--9-*-----------|2-2-2-2-2-2-2-2-|2-2-2-2-2-2-2-2-|
Gb :------10-9-*-----|--7-*-----------|----------------|----------------|
Db :-----------------|----------------|----------------|----------------|

Db :-----------------|----------------|0-0-0-0-0-0-0-0-|0-0-0-0-0-0-0-0-|
Ab :-----------------|--5-*-----------|5-5-5-5-5-5-5-5-|5-5-5-5-5-5-5-5-|
E  :-----------4-2-0-|--4-*-----------|4-4-4-4-4-4-4-4-|4-4-4-4-4-4-4-4-|
B  :--5-4--2-0-------|4-2-*-----------|2-2-2-2-2-2-2-2-|2-2-2-2-2-2-2-2-|
Gb :-----------------|----------------|----------------|----------------|
Db :-----------------|----------------|----------------|----------------|

============================================================================

Db :----------------|----------------|----------------|----------------|
Ab :----------------|----------------|----------------|----------------|
E  :5---5-5---5-5-5-|5-5-5-5-5-5-5-5-|2---2-2---2-2-2-|2-2-2-2-2-2-2-2-|
B  :5---5-5---5-5-5-|5-5-5-5-5-5-5-5-|2---2-2---2-2-2-|2-2-2-2-2-2-2-2-|
Gb :3---3-3---3-3-3-|3-3-3-3-3-3-3-3-|0---0-0---0-0-0-|0-0-0-0-0-0-0-0-|
Db :----------------|----------------|----------------|----------------|

Db :----------------|----------------|----------------|----------------|
Ab :----------------|----------------|----------------|----------------|
E  :5---5-5---5-5-5-|5-5-5-5-5-5-5-5-|2---2-2---2-2-2-|2-2-2-2-2-2-2-2-|
B  :5---5-5---5-5-5-|5-5-5-5-5-5-5-5-|2---2-2---2-2-2-|2-2-2-2-2-2-2-2-|
Gb :3---3-3---3-3-3-|3-3-3-3-3-3-3-3-|0---0-0---0-0-0-|0-0-0-0-0-0-0-0-|
Db :----------------|----------------|----------------|----------------|

============================================================================

Db :----------------|----------------|--------------------|
Ab :----------------|----------------|--------------------|
E  :8---8-8---8-8-8-|8-8-8-8-8-8-8-8-|/9---12---11---12---|
B  :9---9-9---9-9-9-|9-9-9-9-9-9-9-9-|--------------------|
Gb :6---6-6---6-6-6-|6-6-6-6-6-6-6-6-|--------------------|
Db :----------------|----------------|--------------------|

Db :----------------|----------------|--------------------|
Ab :----------------|----------------|-5----5-5----5--5-5-|
E  :8---8-8---8-8-8-|8-8-8-8-8-8-8-8-|-4----4-4----4--4-4-|
B  :9---9-9---9-9-9-|9-9-9-9-9-9-9-9-|-2----2-2----2--2-2-|
Gb :6---6-6---6-6-6-|6-6-6-6-6-6-6-6-|--------------------|
Db :----------------|----------------|--------------------|

============================================================================

Db :-------------------|--------------------|--------------------|
Ab :-------------------|--------------------|--------------------|
E  :9---12---11---12---|-----12---11---12---|14---12---11---12---|
B  :-------------------|10------------------|--------------------|
Gb :-------------------|--------------------|--------------------|
Db :-------------------|--------------------|--------------------|

Db :-------------------|--------------------|--------------------|
Ab :5-5--5-5--5-5--5-5-|--------------------|--------------------|
E  :4-4--4-4--4-4--4-4-|-5----5-5----5--5-5-|-5-5--5-5--5-5--5-5-|
B  :2-2--2-2--2-2--2-2-|-5----5-5----5--5-5-|-5-5--5-5--5-5--5-5-|
Gb :-------------------|-3----3-3----3--3-3-|-3-3--3-3--3-3--3-3-|
Db :-------------------|--------------------|--------------------|

============================================================================

Db :--------------------|-------------------|-----------------|
Ab :--------------------|-------------------|-----------------|
E  :-----12---11---12---|14---12---11---9---|8---9---11---9---|
B  :10------------------|-------------------|-----------------|
Gb :--------------------|-------------------|-----------------|
Db :--------------------|-------------------|-----------------|

Db :--------------------|-------------------|-----------------|
Ab :--------------------|-------------------|-----------------|
E  :-2----2-2----2--2-2-|-2-2--2-2--2-2-2-2-|8---8-8----8-8-8-|
B  :-2----2-2----2--2-2-|-2-2--2-2--2-2-2-2-|9---9-9----9-9-9-|
Gb :-0----0-0----0--0-0-|-0-0--0-0--0-0-0-0-|6---6-6----6-6-6-|
Db :--------------------|-------------------|-----------------|

============================================================================

Db :----------------|----------------|
Ab :----------------|----------------|
E  :8---------------|9---------*-----|
B  :----------------|9-------*-------|
Gb :----------------|7-----*---------|
Db :----------------|----------------|

Db :----------------|----------------|
Ab :----------------|5---------*-----|
E  :8---8-8-8-8-8-8-|4-------*-------|
B  :9---9-9-9-9-9-9-|2-----*---------|
Gb :6---6-6-6-6-6-6-|----------------|
Db :----------------|----------------|
comments
print report bad tab
10 comments total. Showing first comments. show 1 bad comment
0 reply
wongacaster wrote on August 23 2008, 09:22 am

Wait wait wait.
Lol readf the tab wrong.
Disregard My comment.



This tab is right lol.

Im playing it right now.

Great dude.


Shoulda read it more before bagging it.

-1 reply
worcma18 wrote on February 15 2009, 01:35 pm

comparing this to the recording.. this sounds too high. unless you have your tuning wrong?

I want to post or [tab]
guest
You may want to rate the tab now too:
select rating
Please do not post tabs as comments. Select "correction" instead!