Oops, an error
Loading. Please wait.

Duality Tab

ver3
ver3

Whole song

More versions @911Tabs.com
14,090 views 6 this week
1 commentread comment
1 2 3 4 5
excellent!
x 4
Autoscroll
+/-
esc
set tempo
stop
Contributor
Difficulty
novice
WARNING: You are trying to view
                                    content from Ultimate-Guitar.com
                                    in an unauthorized application,
                                    which is prohibited.

                                    Please use an official Ultimate
                                    Guitar Tabs application for iPhone,
                                    iPad or Android to access legitimate
                                    chords, guitar, bass, and drum tabs
                                    from Ultimate-Guitar.com database.

                                    Type "ultimate guitar tabs" in Apple
                                    App Store's or Android Market's
                                    search to find the application.
"Duality" - Bayside
The Walking Wounded (2007)
Victory Records

Tabbed by: Andrew Adams

Rhythm Guitar (Top) - Anthony Raneri
Lead Guitar (Bottom) - Jack O'Shea

TUNING: D-Standard (Whole Step Down)

How should this sound when I play it? The midi link is:

http://www.megaupload.com/?d=97VCVHV5

This is the correct tab for Duality. Sorry I don't add all the goods like slide or
it would just ruin the way the tab comes out.. So here you go. Make do with what you have,
be glad I am even tabbing it. I also threw in a few live fillers that are not included 
the song. It has a better sound to it. ;)


D  :----------------|----------------|----------------|----------------|
A  :----------------|----------------|----------------|----------------|
F  :----------------|----------------|----------------|----------------|
C  :----------------|--9---9---9---9-|--9---9---9---9-|--5---5---5---5-|
G  :----------------|----------------|----------------|----------------|
D  :----------------|7---7---7---7---|7---7---7---7---|3---3---3---3---|

D  :----------------|----------------|----------------|----------------|
A  :----------------|----------------|----------------|----------------|
F  :----------------|4-2-4-2-4-2-4-2-|4-2-4-2-4-2-4-2-|0-2-0-2-0-2-0-2-|
C  :----------------|----------------|----------------|----------------|
G  :----------------|----------------|----------------|----------------|
D  :----------------|----------------|----------------|----------------|

============================================================================

D  :----------------|----------------|----------------|----------------|
A  :----------------|----------------|----------------|----------------|
F  :--7---7---------|----------------|----------------|----------------|
C  :----------7---7-|--5---5---5---5-|--5---5---5---5-|----------------|
G  :5---5-----------|----------------|----------------|--9---9---9---9-|
D  :--------5---5---|3---3---3---3---|3---3---3---3---|6---6---6---6---|

D  :----------------|----------------|----------------|----------------|
A  :----------------|----------------|----------------|----------------|
F  :--2---2---2---2-|--4---4---4---4-|--4---4---4---4-|--3---3---3---3-|
C  :0---0---4---4---|5---5---5---5---|5---5---2---2---|4---4---4---4---|
G  :----------------|----------------|----------------|----------------|
D  :----------------|----------------|----------------|----------------|

============================================================================

D  :----------------|----------------|----------------|----------------|
A  :----------------|----------------|----------------|----------------|
F  :----------------|----------------|----------------|----------------|
C  :----------------|--9---9---9---9-|--9---9---9---9-|--5---5---5---5-|
G  :--9---9---9---9-|----------------|----------------|----------------|
D  :6---6---6---6---|7---7---7---7---|7---7---7---7---|3---3---3---3---|

D  :----------------|----------------|----------------|----------------|
A  :----------------|----------------|----------------|----------------|
F  :--3---3---3---3-|4-2-4-2-4-2-4-2-|4-2-4-2-4-2-4-2-|0-2-0-2-0-2-0-2-|
C  :4---4---4---4---|----------------|----------------|----------------|
G  :----------------|----------------|----------------|----------------|
D  :----------------|----------------|----------------|----------------|

============================================================================

D  :----------------|----------------|----------------|----------------|
A  :----------------|----------------|----------------|----------------|
F  :--7---7---------|----------------|----------------|----------------|
C  :----------7---7-|--5---5---5---5-|--5---5---5---5-|----------------|
G  :5---5-----------|----------------|----------------|--9---9---9---9-|
D  :--------5---5---|3---3---3---3---|3---3---3---3---|6---6---6---6---|

D  :----------------|----------------|----------------|----------------|
A  :----------------|----------------|----------------|----------------|
F  :--2---2---2---2-|--4---4---4---4-|--4---4---4---4-|--3---3---3---3-|
C  :0---0---4---4---|5---5---5---5---|5---5---2---2---|4---4---4---4---|
G  :----------------|----------------|----------------|----------------|
D  :----------------|----------------|----------------|----------------|

============================================================================

D  :----------------|----------------|----------------|----------------|
A  :----------------|----------------|----------------|----------------|
F  :----------------|----------------|----------------|----------------|
C  :----------------|9-9-x-x-7-7-x-x-|5-5-x-x-4-4-x-x-|2---------------|
G  :--9---9---9---9-|9-9-x-x-7-7-x-x-|5-5-x-x-4-4-x-x-|2---------------|
D  :6---6---6---6---|7-7-x-x-5-5-x-x-|3-3-x-x-2-2-x-x-|0---------------|

D  :----------------|------2-------2-|------2-------2-|----------------|
A  :----------------|0-3-5---0-3-5---|0-3-5---0-3-5---|--0-3-5---0-3-5-|
F  :--3---3---3---3-|----------------|----------------|0-------0-------|
C  :4---4---4---4---|----------------|----------------|----------------|
G  :----------------|----------------|----------------|----------------|
D  :----------------|----------------|----------------|----------------|

============================================================================

D  :----------------|----------------|------------------------|
A  :----------------|----------------|------------------------|
F  :----------------|7-7-7-7-7-7-7-7-|11-11-11-11-11-12-11-11-|
C  :--------x-x-----|----------------|------------------------|
G  :--------x-x-----|5-5-5-5-5-5-5-5-|-9--9--9--9--9-10--9--9-|
D  :--------x-x-----|----------------|------------------------|

D  :----------------|----------------|------------------------|
A  :--0-3-5---------|----------------|------------------------|
F  :0---------------|7-7-7-7-7-7-7-7-|11-11-11-11-11-11-11-11-|
C  :--------x-x-----|7-7-7-7-7-7-7-7-|11-11-11-11-11-11-11-11-|
G  :--------x-x-----|5-5-5-5-5-5-5-5-|-9--9--9--9--9--9--9--9-|
D  :--------x-x-----|----------------|------------------------|

============================================================================

D  :------------------------|-----------------|----------------|
A  :------------------------|-----------------|----------------|
F  :11-11-11-11-11-11-11-11-|11---9---7---6---|7-7-7-7-7-7-7-7-|
C  :------------------------|-----------------|----------------|
G  :-9--9--9--9--9--9--9--9-|-9---7---5---4---|5-5-5-5-5-5-5-5-|
D  :------------------------|-----------------|----------------|

D  :------------------------|-----------------|----------------|
A  :------------------------|-----------------|----------------|
F  :------------------------|-----------------|7-7-7-7-7-7-7-7-|
C  :-9--9--9--9--9--9--9--9-|-7-7-7-7-7-7-7-7-|7-7-7-7-7-7-7-7-|
G  :-9--9--9--9--9--9--9--9-|-7-7-7-7-7-7-7-7-|5-5-5-5-5-5-5-5-|
D  :-7--7--7--7--7--7--7--7-|-5-5-5-5-5-5-5-5-|----------------|

============================================================================

D  :------------------------|------------------------|-----------------|
A  :------------------------|------------------------|-----------------|
F  :11-11-11-11-11-12-11-11-|11-11-11-11-11-11-11-11-|11---9---7---6---|
C  :------------------------|------------------------|-----------------|
G  :-9--9--9--9--9-10--9--9-|-9--9--9--9--9--9--9--9-|-9---7---5---4---|
D  :------------------------|------------------------|-----------------|

D  :------------------------|------------------------|-----------------|
A  :------------------------|------------------------|-----------------|
F  :11-11-11-11-11-11-11-11-|------------------------|-----------------|
C  :11-11-11-11-11-11-11-11-|-9--9--9--9--9--9--9--9-|-7-7-7-7-7-7-7-7-|
G  :-9--9--9--9--9--9--9--9-|-9--9--9--9--9--9--9--9-|-7-7-7-7-7-7-7-7-|
D  :------------------------|-7--7--7--7--7--7--7--7-|-5-5-5-5-5-5-5-5-|

============================================================================

D  :----------------|----------------|---------------------|
A  :----------------|----------------|---------------------|
F  :----------------|7---7-7-7-7-7-7-|11-*-11-*-11-*-11-11-|
C  :5---5-5-5-5-5-5-|7---7-7-7-7-7-7-|---------------------|
G  :5---5-5-5-5-5-5-|5---5-5-5-5-5-5-|-9-*--9-*--9-*--9--9-|
D  :3---3-3-3-3-3-3-|----------------|---------------------|

D  :----------------|----------------|---------------------|
A  :----------------|----------------|---------------------|
F  :----------------|7---7-7-7-7-7-7-|---------------------|
C  :5---5-5-5-5-5-5-|7---7-7-7-7-7-7-|-9-*--9-*--9-*--9--9-|
G  :5---5-5-5-5-5-5-|5---5-5-5-5-5-5-|-9-*--9-*--9-*--9--9-|
D  :3---3-3-3-3-3-3-|----------------|-7-*--7-*--7-*--7--7-|

============================================================================

D  :---------------------|----------------|----------------|
A  :---------------------|----------------|----------------|
F  :11-*-11-*-11-*-11-11-|----------------|----------------|
C  :---------------------|5---5-5-5-5-5-5-|7-*-------------|
G  :-9-*--9-*--9-*--9--9-|5---5-5-5-5-5-5-|7-*-------------|
D  :---------------------|3---3-3-3-3-3-3-|5-*-------------|

D  :---------------------|----------------|----------------|
A  :---------------------|----------------|----------------|
F  :---------------------|----------------|----------------|
C  :-9-*--9-*--9-*--9--9-|5---5-5-5-5-5-5-|7-*-------------|
G  :-9-*--9-*--9-*--9--9-|5---5-5-5-5-5-5-|7-*-------------|
D  :-7-*--7-*--7-*--7--7-|3---3-3-3-3-3-3-|5-*-------------|

============================================================================

D  :----------------|----------------|----------------|----------------|
A  :----------------|----------------|----------------|----------------|
F  :----------------|----------------|----------------|----------------|
C  :----------------|----------------|--9---9---9---9-|--9---9---9---9-|
G  :----------------|----------------|----------------|----------------|
D  :----------------|----------------|7---7---7---7---|7---7---7---7---|

D  :----------------|----------------|----------------|----------------|
A  :----------------|----------------|----------------|----------------|
F  :----------------|----------------|4-2-4-2-4-2-4-2-|4-2-4-2-4-2-4-2-|
C  :9-9-x-x-9-9-x-x-|9-9-x-x-9-9-----|----------------|----------------|
G  :9-9-x-x-9-9-x-x-|9-9-x-x-9-9-----|----------------|----------------|
D  :7-7-x-x-7-7-x-x-|7-7-x-x-7-7-----|----------------|----------------|

============================================================================

D  :----------------|----------------|----------------|----------------|
A  :----------------|----------------|----------------|----------------|
F  :----------------|--7---7---------|----------------|----------------|
C  :--5---5---5---5-|----------7---7-|--5---5---5---5-|--5---5---5---5-|
G  :----------------|5---5-----------|----------------|----------------|
D  :3---3---3---3---|--------5---5---|3---3---3---3---|3---3---3---3---|

D  :----------------|----------------|----------------|----------------|
A  :----------------|----------------|----------------|----------------|
F  :0-2-0-2-0-2-0-2-|--2---2---2---2-|--4---4---4---4-|--4---4---4---4-|
C  :----------------|0---0---4---4---|5---5---5---5---|5---5---2---2---|
G  :----------------|----------------|----------------|----------------|
D  :----------------|----------------|----------------|----------------|

============================================================================

D  :----------------|----------------|----------------|----------------|
A  :----------------|----------------|----------------|----------------|
F  :----------------|----------------|----------------|----------------|
C  :----------------|----------------|--9---9---9---9-|--9---9---9---9-|
G  :--9---9---9---9-|--9---9---9---9-|----------------|----------------|
D  :6---6---6---6---|6---6---6---6---|7---7---7---7---|7---7---7---7---|

D  :----------------|----------------|----------------|----------------|
A  :----------------|----------------|----------------|----------------|
F  :--3---3---3---3-|--3---3---3---3-|4-2-4-2-4-2-4-2-|4-2-4-2-4-2-4-2-|
C  :4---4---4---4---|4---4---4---4---|----------------|----------------|
G  :----------------|----------------|----------------|----------------|
D  :----------------|----------------|----------------|----------------|

============================================================================

D  :----------------|----------------|----------------|----------------|
A  :----------------|----------------|----------------|----------------|
F  :----------------|--7---7---------|----------------|----------------|
C  :--5---5---5---5-|----------7---7-|--5---5---5---5-|--5---5---5---5-|
G  :----------------|5---5-----------|----------------|----------------|
D  :3---3---3---3---|--------5---5---|3---3---3---3---|3---3---3---3---|

D  :----------------|----------------|----------------|----------------|
A  :----------------|----------------|----------------|----------------|
F  :0-2-0-2-0-2-0-2-|--2---2---2---2-|--4---4---4---4-|--4---4---4---4-|
C  :----------------|0---0---4---4---|5---5---5---5---|5---5---2---2---|
G  :----------------|----------------|----------------|----------------|
D  :----------------|----------------|----------------|----------------|

============================================================================

D  :----------------|----------------|----------------|----------------|
A  :----------------|----------------|----------------|----------------|
F  :----------------|----------------|----------------|----------------|
C  :----------------|----------------|9-9-x-x-7-7-x-x-|5-5-x-x-4-4-x-x-|
G  :--9---9---9---9-|--9---9---9---9-|9-9-x-x-7-7-x-x-|5-5-x-x-4-4-x-x-|
D  :6---6---6---6---|6---6---6---6---|7-7-x-x-5-5-x-x-|3-3-x-x-2-2-x-x-|

D  :----------------|----------------|------2-------2-|------2-------2-|
A  :----------------|----------------|0-3-5---0-3-5---|0-3-5---0-3-5---|
F  :--3---3---3---3-|--3---3---3---3-|----------------|----------------|
C  :4---4---4---4---|4---4---4---4---|----------------|----------------|
G  :----------------|----------------|----------------|----------------|
D  :----------------|----------------|----------------|----------------|

============================================================================

D  :----------------|----------------|----------------|----------------|
A  :----------------|----------------|----------------|----------------|
F  :----------------|----------------|----------------|----------------|
C  :2---------------|----------------|9-9-x-x-7-7-x-x-|5-5-x-x-4-4-x-x-|
G  :2---------------|----------------|9-9-x-x-7-7-x-x-|5-5-x-x-4-4-x-x-|
D  :0---------------|----------------|7-7-x-x-5-5-x-x-|3-3-x-x-2-2-x-x-|

D  :----------------|----------------|------2-------2-|------2-------2-|
A  :--0-3-5---0-3-5-|--0-3-5---0-3-5-|0-3-5---0-3-5---|0-3-5---0-3-5---|
F  :0-------0-------|0-------0-------|----------------|----------------|
C  :----------------|----------------|----------------|----------------|
G  :----------------|----------------|----------------|----------------|
D  :----------------|----------------|----------------|----------------|

============================================================================

D  :----------------|----------------|----------------|
A  :----------------|----------------|----------------|
F  :----------------|----------------|7-7-7-7-7-7-7-7-|
C  :2---------------|--------x-x-----|----------------|
G  :2---------------|--------x-x-----|5-5-5-5-5-5-5-5-|
D  :0---------------|--------x-x-----|----------------|

D  :----------------|----------------|----------------|
A  :--0-3-5---0-3-5-|--0-3-5---------|----------------|
F  :0-------0-------|0---------------|7-7-7-7-7-7-7-7-|
C  :----------------|--------x-x-----|7-7-7-7-7-7-7-7-|
G  :----------------|--------x-x-----|5-5-5-5-5-5-5-5-|
D  :----------------|--------x-x-----|----------------|

============================================================================

D  :------------------------|------------------------|-----------------|
A  :------------------------|------------------------|-----------------|
F  :11-11-11-11-11-12-11-11-|11-11-11-11-11-11-11-11-|11---9---7---6---|
C  :------------------------|------------------------|-----------------|
G  :-9--9--9--9--9-10--9--9-|-9--9--9--9--9--9--9--9-|-9---7---5---4---|
D  :------------------------|------------------------|-----------------|

D  :------------------------|------------------------|-----------------|
A  :------------------------|------------------------|-----------------|
F  :11-11-11-11-11-11-11-11-|------------------------|-----------------|
C  :11-11-11-11-11-11-11-11-|-9--9--9--9--9--9--9--9-|-7-7-7-7-7-7-7-7-|
G  :-9--9--9--9--9--9--9--9-|-9--9--9--9--9--9--9--9-|-7-7-7-7-7-7-7-7-|
D  :------------------------|-7--7--7--7--7--7--7--7-|-5-5-5-5-5-5-5-5-|

============================================================================

D  :----------------|------------------------|------------------------|
A  :----------------|------------------------|------------------------|
F  :7-7-7-7-7-7-7-7-|11-11-11-11-11-12-11-11-|11-11-11-11-11-11-11-11-|
C  :----------------|------------------------|------------------------|
G  :5-5-5-5-5-5-5-5-|-9--9--9--9--9-10--9--9-|-9--9--9--9--9--9--9--9-|
D  :----------------|------------------------|------------------------|

D  :----------------|------------------------|------------------------|
A  :----------------|------------------------|------------------------|
F  :7-7-7-7-7-7-7-7-|11-11-11-11-11-11-11-11-|------------------------|
C  :7-7-7-7-7-7-7-7-|11-11-11-11-11-11-11-11-|-9--9--9--9--9--9--9--9-|
G  :5-5-5-5-5-5-5-5-|-9--9--9--9--9--9--9--9-|-9--9--9--9--9--9--9--9-|
D  :----------------|------------------------|-7--7--7--7--7--7--7--7-|

============================================================================

D  :-----------------|----------------|----------------|
A  :-----------------|----------------|----------------|
F  :11---9---7---6---|----------------|7---7-7-7-7-7-7-|
C  :-----------------|5---5-5-5-5-5-5-|7---7-7-7-7-7-7-|
G  :-9---7---5---4---|5---5-5-5-5-5-5-|5---5-5-5-5-5-5-|
D  :-----------------|3---3-3-3-3-3-3-|----------------|

D  :-----------------|----------------|----------------|
A  :-----------------|----------------|----------------|
F  :-----------------|----------------|7---7-7-7-7-7-7-|
C  :-7-7-7-7-7-7-7-7-|5---5-5-5-5-5-5-|7---7-7-7-7-7-7-|
G  :-7-7-7-7-7-7-7-7-|5---5-5-5-5-5-5-|5---5-5-5-5-5-5-|
D  :-5-5-5-5-5-5-5-5-|3---3-3-3-3-3-3-|----------------|

============================================================================

D  :---------------------|---------------------|----------------|
A  :---------------------|---------------------|----------------|
F  :11-*-11-*-11-*-11-11-|11-*-11-*-11-*-11-11-|----------------|
C  :---------------------|---------------------|5---5-5-5-5-5-5-|
G  :-9-*--9-*--9-*--9--9-|-9-*--9-*--9-*--9--9-|5---5-5-5-5-5-5-|
D  :---------------------|---------------------|3---3-3-3-3-3-3-|

D  :---------------------|---------------------|----------------|
A  :---------------------|---------------------|----------------|
F  :---------------------|---------------------|----------------|
C  :-9-*--9-*--9-*--9--9-|-9-*--9-*--9-*--9--9-|5---5-5-5-5-5-5-|
G  :-9-*--9-*--9-*--9--9-|-9-*--9-*--9-*--9--9-|5---5-5-5-5-5-5-|
D  :-7-*--7-*--7-*--7--7-|-7-*--7-*--7-*--7--7-|3---3-3-3-3-3-3-|

============================================================================

D  :----------------|----10-------------|--10---------------|
A  :----------------|-------12----------|-----12------------|
F  :----------------|----------11-------|--------11---------|
C  :7-*-------------|-------------------|-------------------|
G  :7-*-------------|-------------------|-------------------|
D  :5-*-------------|-------------------|-------------------|

D  :----------------|-------------------|-------------------|
A  :----------------|-------------------|-------------------|
F  :----------------|-------------------|-------------------|
C  :7-*-------------|9-9--9--9--9-9-9-9-|9--9--9--9-9-9-9-9-|
G  :7-*-------------|9-9--9--9--9-9-9-9-|9--9--9--9-9-9-9-9-|
D  :5-*-------------|7-7--7--7--7-7-7-7-|7--7--7--7-7-7-7-7-|

============================================================================

D  :----14-----------15-|14----------14-------|--------------------|
A  :-------15-----------|---15----15----------|--------------------|
F  :----------16--------|------16-------------|--------9-11-*------|
C  :--------------------|---------------------|12-9-12--------12---|
G  :--------------------|---------------------|--------------------|
D  :--------------------|---------------------|--------------------|

D  :--------------------|---------------------|--------------------|
A  :--------------------|---------------------|--------------------|
F  :--------------------|---------------------|----------------7---|
C  :8-8--8--8--8-8-8--8-|-8--8--8--8--8-8-8-8-|-9------5-------7---|
G  :9-9--9--9--9-9-9--9-|-9--9--9--9--9-9-9-9-|-9------5-------5---|
D  :5-5--5--5--5-5-5--5-|-6--6--6--6--6-6-6-6-|-7------3-----------|

============================================================================

D  :----------------|--------------------|----------------|
A  :----------------|--------------------|----------------|
F  :----------------|--------9-11-*------|----------------|
C  :--9-7-----------|12-9-12--------12---|--9-7-----------|
G  :------9-7-5-4-5-|--------------------|------9-7-5-4-5-|
D  :----------------|--------------------|----------------|

D  :----------------|--------------------|----------------|
A  :----------------|--------------------|----------------|
F  :----------------|----------------7---|----------------|
C  :----------------|-9------5-------7---|----------------|
G  :----------------|-9------5-------5---|----------------|
D  :----------------|-7------3-----------|----------------|

============================================================================

D  :----10-------------|--10---------------|----14-----------15-|
A  :-------12----------|-----12------------|-------15-----------|
F  :----------11-------|--------11---------|----------16--------|
C  :-------------------|-------------------|--------------------|
G  :-------------------|-------------------|--------------------|
D  :-------------------|-------------------|--------------------|

D  :-------------------|-------------------|--------------------|
A  :-------------------|-------------------|--------------------|
F  :-------------------|-------------------|--------------------|
C  :9-9--9--9--9-9-9-9-|9--9--9--9-9-9-9-9-|8-8--8--8--8-8-8--8-|
G  :9-9--9--9--9-9-9-9-|9--9--9--9-9-9-9-9-|9-9--9--9--9-9-9--9-|
D  :7-7--7--7--7-7-7-7-|7--7--7--7-7-7-7-7-|5-5--5--5--5-5-5--5-|

============================================================================

D  :14----------14-------|--------------------|----------------|
A  :---15----15----------|--------------------|----------------|
F  :------16-------------|--------9-11-*------|----------------|
C  :---------------------|12-9-12--------12---|--9-7-----------|
G  :---------------------|--------------------|------9-7-5-4-5-|
D  :---------------------|--------------------|----------------|

D  :---------------------|--------------------|----------------|
A  :---------------------|--------------------|----------------|
F  :---------------------|----------------7---|----------------|
C  :-8--8--8--8--8-8-8-8-|-9------5-------7---|----------------|
G  :-9--9--9--9--9-9-9-9-|-9------5-------5---|----------------|
D  :-6--6--6--6--6-6-6-6-|-7------3-----------|----------------|

============================================================================

D  :--------------------|----------------|----------------|
A  :--------------------|----------------|----------------|
F  :--------9-11-*------|----------------|9-9-9-9-9-9-9-9-|
C  :12-9-12--------12---|--9-7-----------|----------------|
G  :--------------------|------9-7-5-4-5-|7-7-7-7-7-7-7-7-|
D  :--------------------|----------------|----------------|

D  :--------------------|----------------|----------------|
A  :--------------------|----------------|----------------|
F  :----------------7---|----------------|9-9-9-9-9-9-9-9-|
C  :-9------5-------7---|----------------|----------------|
G  :-9------5-------5---|----------------|7-7-7-7-7-7-7-7-|
D  :-7------3-----------|----------------|----------------|

============================================================================

D  :------------------------|------------------------|----------------|
A  :------------------------|------------------------|----------------|
F  :11-11-11-11-11-11-11-11-|12-12-12-12-12-12-12-12-|----------------|
C  :------------------------|------------------------|x---x---x---x---|
G  :-9--9--9--9--9--9--9--9-|10-10-10-10-10-10-10-10-|x---x---x---x---|
D  :------------------------|------------------------|x---x---x---x---|

D  :------------------------|------------------------|----------------|
A  :------------------------|------------------------|----------------|
F  :11-11-11-11-11-11-11-11-|12-12-12-12-12-12-12-12-|----------------|
C  :------------------------|------------------------|x---x---x---x---|
G  :-9--9--9--9--9--9--9--9-|10-10-10-10-10-10-10-10-|x---x---x---x---|
D  :------------------------|------------------------|x---x---x---x---|

============================================================================

D  :----------------|------------------------|------------------------|
A  :----------------|------------------------|------------------------|
F  :7-7-7-7-7-7-7-7-|11-11-11-11-11-12-11-11-|11-11-11-11-11-11-11-11-|
C  :----------------|------------------------|------------------------|
G  :5-5-5-5-5-5-5-5-|-9--9--9--9--9-10--9--9-|-9--9--9--9--9--9--9--9-|
D  :----------------|------------------------|------------------------|

D  :----------------|------------------------|------------------------|
A  :----------------|------------------------|------------------------|
F  :7-7-7-7-7-7-7-7-|11-11-11-11-11-11-11-11-|------------------------|
C  :7-7-7-7-7-7-7-7-|11-11-11-11-11-11-11-11-|-9--9--9--9--9--9--9--9-|
G  :5-5-5-5-5-5-5-5-|-9--9--9--9--9--9--9--9-|-9--9--9--9--9--9--9--9-|
D  :----------------|------------------------|-7--7--7--7--7--7--7--7-|

============================================================================

D  :-----------------|----------------|------------------------|
A  :-----------------|----------------|------------------------|
F  :11---9---7---6---|7-7-7-7-7-7-7-7-|11-11-11-11-11-12-11-11-|
C  :-----------------|----------------|------------------------|
G  :-9---7---5---4---|5-5-5-5-5-5-5-5-|-9--9--9--9--9-10--9--9-|
D  :-----------------|----------------|------------------------|

D  :-----------------|----------------|------------------------|
A  :-----------------|----------------|------------------------|
F  :-----------------|7-7-7-7-7-7-7-7-|11-11-11-11-11-11-11-11-|
C  :-7-7-7-7-7-7-7-7-|7-7-7-7-7-7-7-7-|11-11-11-11-11-11-11-11-|
G  :-7-7-7-7-7-7-7-7-|5-5-5-5-5-5-5-5-|-9--9--9--9--9--9--9--9-|
D  :-5-5-5-5-5-5-5-5-|----------------|------------------------|

============================================================================

D  :------------------------|-----------------|----------------|
A  :------------------------|-----------------|----------------|
F  :11-11-11-11-11-11-11-11-|11---9---7---6---|----------------|
C  :------------------------|-----------------|5---5-5-5-5-5-5-|
G  :-9--9--9--9--9--9--9--9-|-9---7---5---4---|5---5-5-5-5-5-5-|
D  :------------------------|-----------------|3---3-3-3-3-3-3-|

D  :------------------------|-----------------|----------------|
A  :------------------------|-----------------|----------------|
F  :------------------------|-----------------|----------------|
C  :-9--9--9--9--9--9--9--9-|-7-7-7-7-7-7-7-7-|5---5-5-5-5-5-5-|
G  :-9--9--9--9--9--9--9--9-|-7-7-7-7-7-7-7-7-|5---5-5-5-5-5-5-|
D  :-7--7--7--7--7--7--7--7-|-5-5-5-5-5-5-5-5-|3---3-3-3-3-3-3-|

============================================================================

D  :----------------|---------------------|---------------------|
A  :----------------|---------------------|---------------------|
F  :7---7-7-7-7-7-7-|11-*-11-*-11-*-11-11-|11-*-11-*-11-*-11-11-|
C  :7---7-7-7-7-7-7-|---------------------|---------------------|
G  :5---5-5-5-5-5-5-|-9-*--9-*--9-*--9--9-|-9-*--9-*--9-*--9--9-|
D  :----------------|---------------------|---------------------|

D  :----------------|---------------------|---------------------|
A  :----------------|---------------------|---------------------|
F  :7---7-7-7-7-7-7-|---------------------|---------------------|
C  :7---7-7-7-7-7-7-|-9-*--9-*--9-*--9--9-|-9-*--9-*--9-*--9--9-|
G  :5---5-5-5-5-5-5-|-9-*--9-*--9-*--9--9-|-9-*--9-*--9-*--9--9-|
D  :----------------|-7-*--7-*--7-*--7--7-|-7-*--7-*--7-*--7--7-|

============================================================================

D  :----------------|----------------|----------------|----------------|
A  :----------------|----------------|----------------|----------------|
F  :----------------|----------------|----------------|----------------|
C  :5---5-5-5-5-5-5-|7---7-7-7-7-7-7-|5---5---5---5---|7---7---7---7---|
G  :5---5-5-5-5-5-5-|7---7-7-7-7-7-7-|5---5---5---5---|7---7---7---7---|
D  :3---3-3-3-3-3-3-|5---5-5-5-5-5-5-|3---3---3---3---|5---5---5---5---|

D  :----------------|----------------|----------------|----------------|
A  :----------------|----------------|----------------|----------------|
F  :----------------|----------------|----------------|----------------|
C  :5---5-5-5-5-5-5-|7---7-7-7-7-7-7-|5---5---5---5---|7---7---7---7---|
G  :5---5-5-5-5-5-5-|7---7-7-7-7-7-7-|5---5---5---5---|7---7---7---7---|
D  :3---3-3-3-3-3-3-|5---5-5-5-5-5-5-|3---3---3---3---|5---5---5---5---|

============================================================================

D  :-----------------|
A  :-----------------|
F  :------11---------|
C  :-----------------|
G  :-------9---------|
D  :-----------------|

D  :-----------------|
A  :-----------------|
F  :-------7---------|
C  :-------7---------|
G  :-------5---------|
D  :-----------------|
comments
print report bad tab
1 comment total.
0 reply
DkassBTU wrote on January 5 2009, 07:34 am

Great tab, laid out perfectly. Got it first try, and the small additions really add to it. I personally like to play this acoustically. Thanks!

Five stars!

I want to post or [tab]
guest
You may want to rate the tab now too:
select rating
Please do not post tabs as comments. Select "correction" instead!