Oops, an error
Loading. Please wait.

Existing In A Crisis Evelyn Tab

ver2
ver2

Whole song

More versions @911Tabs.com
3,378 views 1 this week
1 commentread comment
1 2 3 4 5
accurate
x 5
Autoscroll
+/-
esc
set tempo
stop
Contributor
Difficulty
intermediate
WARNING: You are trying to view
                                    content from Ultimate-Guitar.com
                                    in an unauthorized application,
                                    which is prohibited.

                                    Please use an official Ultimate
                                    Guitar Tabs application for iPhone,
                                    iPad or Android to access legitimate
                                    chords, guitar, bass, and drum tabs
                                    from Ultimate-Guitar.com database.

                                    Type "ultimate guitar tabs" in Apple
                                    App Store's or Android Market's
                                    search to find the application.
-------------------------------------------------------------------------------
                    Existing In a Crisis (Evelyn) - Bayside                      
-------------------------------------------------------------------------------
Tabbed by: Garrett Smith
Email: NNoodleNose@gmail.com
Tuning: Whole Step Down or D standard, whatever you prefer to call it.

[intro]

[guitar one]

d|------------------------------------------------------------|
a|------------------------------------------------------------|
f|------------------------------------------------------------|
c|-4-------12-------7----------4-------12--------7------------|
g|-4-------12-------7----------4-------12--------7------------|
D|-2-------10-------5----------2-------10--------5------------|

[Guitar two]

d|--------------------------------------------|
a|--------------------------------------------|
f|---------6h7p6---6--------------------------|
c|-----7-9-------9---7----------9b-9r-7-9-7---|
g|-7\9-----------------7--7\9-7---------------|
D|--------------------------------------------|

d|------------------------------|
a|------------------------------|
f|-------6h7p6---6-----9\11--9--|
c|---7-9-------9---7------------|
g|-9-----------------7----------|
D|------------------------------|

[verse]

[Guitar one]
 
d|-------------------------------------------------------------------------|
a|-------------------------------------------------------------------------|
f|-------------------------------------------------------------------------|
c|-7-4--4-4-4-4-4-4--12--12-12-12-12-12-12--7--7-7-7-7-7-7-7-7-7-7-7-7-7-7-|
g|-7-4--4-4-4-4-4-4--12--12-12-12-12-12-12--7--7-7-7-7-7-7-7-7-7-7-7-7-7-7-|
D|-5-2--2-2-2-2-2-2--10--10-10-10-10-10-10--5--5-5-5-5-5-5-5-5-5-5-5-5-5-5-|

[Guitar two]

d|-------------------------------------------------------------------------|
a|-------------------------------------------------------------------------|
f|--14---14-14---------14-11-----------------------------------------------|
c|--14---14-14---------14-11-------------------------------11------11------|
g|--12---12-12---------12--9----------------------------------11------11---|
D|---------------------------------------------------------------9-------9-|

[Guitar one]

d|------------------------------------------------------------------------|
a|------------------------------------------------------------------------|
f|------------------------------------------------------------------------|
c|--4--4-4-4-4-4-4--12--12-12-12-12-12-12--7--7-7-7-7-7-7-7-7-7-7-7-7-7-7-|
g|--4--4-4-4-4-4-4--12--12-12-12-12-12-12--7--7-7-7-7-7-7-7-7-7-7-7-7-7-7-|
D|--2--2-2-2-2-2-2--10--10-10-10-10-10-10--5--5-5-5-5-5-5-5-5-5-5-5-5-5-5-|

[Guitar Two]


d|------------------------------------------------------------------------|
a|------------------------------------------------------------------------|
f|--14---14-14---------14-11----------------------------------------------|
c|--14---14-14---------14-11----------------------------------------------|
g|--12---12-12---------12--9----------------------------------------------|
D|------------------------------------------------------------------------|

Guitar one]

d|---------------------------------------------------------------|
a|---------------------------------------------------------------|
f|---------------------------------------------------------------|
c|-4--4-4-4-4-4-4--12--12-12-12-12-12-12--7-7-7-7-4--4-4-4-4-4-4-|
g|-4--4-4-4-4-4-4--12--12-12-12-12-12-12--7-7-7-7-4--4-4-4-4-4-4-|
D|-2--2-2-2-2-2-2--10--10-10-10-10-10-10--5-5-5-5-2--2-2-2-2-2-2-|

[Guitar Two]


d|---------------------------------------------------------------|
a|---------------------------------------------------------------|
f|--14-------14-14----------------14-----------------------------|
c|--14-------14-14----------------14------7-7-7-7-4--4-4-4-4-4-4-|
g|--12-------12-12----------------12------7-7-7-7-4--4-4-4-4-4-4-|
D|----------------------------------------5-5-5-5-2--2-2-2-2-2-2-|


[Guitar One]

d|----------------------------------|
a|----------------------------------|
f|----------------------------------|
c|-5--5-5-5-5-5-5-5-5-5-5-5-5-5-5-5-|
g|-5--5-5-5-5-5-5-5-5-5-5-5-5-5-5-5-|
D|-3--3-3-3-3-3-3-3-3-3-3-3-3-3-3-3-|

[Guitar Two]

d|----------------------------------|
a|----------------------------------|
f|----------------------------------|
c|-5--5-5-5-5-5-5-5-5-5-5-5-5-5-5-5-|
g|-5--5-5-5-5-5-5-5-5-5-5-5-5-5-5-5-|
D|-3--3-3-3-3-3-3-3-3-3-3-3-3-3-3-3-|

[intro]

[guitar one]

d|------------------------------------------------------------|
a|------------------------------------------------------------|
f|------------------------------------------------------------|
c|-4-------12-------7----------4-------12--------7------------|
g|-4-------12-------7----------4-------12--------7------------|
D|-2-------10-------5----------2-------10--------5------------|

[Guitar two]

d|--------------------------------------------|
a|--------------------------------------------|
f|---------6h7p6---6--------------------------|
c|-----7-9-------9---7----------9b-9r-7-9-7---|
g|-7\9-----------------7--7\9-7---------------|
D|--------------------------------------------|

d|------------------------------|
a|------------------------------|
f|-------6h7p6---6-----9\11--9--|
c|---7-9-------9---7------------|
g|-9-----------------7----------|
D|------------------------------|

[verse]

[Guitar one]

d|-------------------------------------------------------------------------|
a|-------------------------------------------------------------------------|
f|-------------------------------------------------------------------------|
c|-7-4--4-4-4-4-4-4--12--12-12-12-12-12-12--7--7-7-7-7-7-7-7-7-7-7-7-7-7-7-|
g|-7-4--4-4-4-4-4-4--12--12-12-12-12-12-12--7--7-7-7-7-7-7-7-7-7-7-7-7-7-7-|
D|-5-2--2-2-2-2-2-2--10--10-10-10-10-10-10--5--5-5-5-5-5-5-5-5-5-5-5-5-5-5-|

[Guitar two]

d|-------------------------------------------------------------------------|
a|-------------------------------------------------------------------------|
f|--14---14-14---------14-11-----------------------------------------------|
c|--14---14-14---------14-11-------------------------------11------11------|
g|--12---12-12---------12--9----------------------------------11------11---|
D|---------------------------------------------------------------9-------9-|

[Guitar one]

d|------------------------------------------------------------------------|
a|------------------------------------------------------------------------|
f|------------------------------------------------------------------------|
c|--4--4-4-4-4-4-4--12--12-12-12-12-12-12--7--7-7-7-7-7-7-7-7-7-7-7-7-7-7-|
g|--4--4-4-4-4-4-4--12--12-12-12-12-12-12--7--7-7-7-7-7-7-7-7-7-7-7-7-7-7-|
D|--2--2-2-2-2-2-2--10--10-10-10-10-10-10--5--5-5-5-5-5-5-5-5-5-5-5-5-5-5-|

[Guitar Two]


d|------------------------------------------------------------------------|
a|------------------------------------------------------------------------|
f|--14---14-14---------14-11----------------------------------------------|
c|--14---14-14---------14-11----------------------------------------------|
g|--12---12-12---------12--9----------------------------------------------|
D|------------------------------------------------------------------------|

Guitar one]

d|---------------------------------------------------------------|
a|---------------------------------------------------------------|
f|---------------------------------------------------------------|
c|-4--4-4-4-4-4-4--12--12-12-12-12-12-12--7-7-7-7-4--4-4-4-4-4-4-|
g|-4--4-4-4-4-4-4--12--12-12-12-12-12-12--7-7-7-7-4--4-4-4-4-4-4-|
D|-2--2-2-2-2-2-2--10--10-10-10-10-10-10--5-5-5-5-2--2-2-2-2-2-2-|

[Guitar Two]


d|---------------------------------------------------------------|
a|---------------------------------------------------------------|
f|--14-------14-14----------------14-----------------------------|
c|--14-------14-14----------------14------7-7-7-7-4--4-4-4-4-4-4-|
g|--12-------12-12----------------12------7-7-7-7-4--4-4-4-4-4-4-|
D|----------------------------------------5-5-5-5-2--2-2-2-2-2-2-|


[Guitar One]

d|----------------------------------------------|
a|----------------------------------------------|
f|----------------------------------------------|
c|-5--5-5-5-5-5-5-5-5-5-5-5-5-5-5-5-5-5-5-5-5-5-|
g|-5--5-5-5-5-5-5-5-5-5-5-5-5-5-5-5-5-5-5-5-5-5-|
D|-3--3-3-3-3-3-3-3-3-3-3-3-3-3-3-3-3-3-3-3-3-3-|

[Guitar Two]

d|-------------------------------------------------------|
a|-------------------------------------------------------|
f|----------------------------------12-12-12-12-12-12-12-|
c|-5--5-5-5-5-5-5-5-5-5-5-5-5-5-5-5--X--X--X--X--X--X--X-|
g|-5--5-5-5-5-5-5-5-5-5-5-5-5-5-5-5-10-10-10-10-10-10-10-|
D|-3--3-3-3-3-3-3-3-3-3-3-3-3-3-3-3----------------------|

[pre-chorus]

[Guitar one]

d|----------------------------------------------------------------|
a|----------------------------------------------------------------|
f|--------------5---------9---------------9-9-9-9-9-9-9-9-9-9-9-9-|
c|-3------------5---------9---------------9-9-9-9-9-9-9-9-9-9-9-9-|
g|-3------------3---------7---------------7-7-7-7-7-7-7-7-7-7-7-7-|
D|-1--------------------------------------------------------------|

[Guitar two]

d|--------------------------------------------------------------|
a|--------------------------------------------------------------|
f|--------------------------------------------------------------|
c|-3-3\5-3-2-3-2-----------6---6---6---6---6-6-6-6-6-6-6-6-6-6--|
g|-3-------------5-3-5-5/7---7---7---7---7--7-7-7-7-7-7-7-7-7-7-|
D|-1------------------------------------------------------------|

[chorus]

[Guitar one]

d|-------------------------------------------------------|
a|-------------------------------------------------------|
f|-------------------------------------------------------|
c|-7-7---7-7-7-7---7-7-7--10-10---10-10-10-10---10-10-10-|
g|-7-7---7-7-7-7---7-7-7--10-10---10-10-10-10---10-10-10-|
D|-5-5---5-5-5-5---5-5-5---8--8----8--8--8--8----8--8--8-|

[Guitar two]

d|-------------------------------------------------------|
a|-------------------------------------------------------|
f|-------------------------------------------------------|
c|-7-7---7-7-7-7---7-7-7--10-10---10-10-10-10---10-10-10-|
g|-7-7---7-7-7-7---7-7-7--10-10---10-10-10-10---10-10-10-|
D|-5-5---5-5-5-5---5-5-5---8--8----8--8--8--8----8--8--8-|

[Guitar one]

d|------------------------------------------------------------|
a|------------------------------------------------------------|
f|-10-10-10-10-------------------10-10-10-10------------------|
c|-10-10-10-10--10-10-10--10-10--10-10-10-10--12-12-12--12-12-|
g|--8--8--8--8--10-10-10--10-10---8--8--8--8--12-12-12--12-12-|
D|---------------8--8--8---8--8---------------10-10-10--10-10-|


[Guitar two]

d|---------------------------------------------------------------|
a|---------------------------------------------------------------|
f|-10-10-10-10-------------------10-10-10-10--7--5\7-5\7-7\9-7\9-|
c|-10-10-10-10--10-10-10--10-10--10-10-10-10--X--X\X-X\X-X\X-X\X-|
g|--8--8--8--8--10-10-10--10-10---8--8--8--8--5--3\5-3\5-5\7-5\7-|
D|---------------8--8--8---8--8----------------------------------|

[Guitar one]

d|-------------------------------------------------------|
a|-------------------------------------------------------|
f|-------------------------------------------------------|
c|-7-7---7-7-7-7---7-7-7--10-10---10-10-10-10---10-10-10-|
g|-7-7---7-7-7-7---7-7-7--10-10---10-10-10-10---10-10-10-|
D|-5-5---5-5-5-5---5-5-5---8--8----8--8--8--8----8--8--8-|

[Guitar Two]

d|-------------------------------------------------------|
a|-------------------------------------------------------|
f|-14-------------12----------------14-12-10-9-9-10-9----|
c|--X--------------X-----------------X--X--X-X-X--X-X----|
g|-12-------------10----------------12-10--8-7-7--8-7----|
D|-------------------------------------------------------|

[Guitar one]

d|------------------------------------------------------------|
a|------------------------------------------------------------|
f|-10-10-10-10-------------------10-10-10-10------------------|
c|-10-10-10-10--10-10-10--10-10--10-10-10-10--12-12-12--12-12-|
g|--8--8--8--8--10-10-10--10-10---8--8--8--8--12-12-12--12-12-|
D|---------------8--8--8---8--8---------------10-10-10--10-10-|

[Guitar Two]

d|----------------------------------------------|
a|----------------------------------------------|
f|-10-10--10-10--9--7--5----10-10---10--10---12-|
c|--X--X---X--X--X--X--X-----X--X----X---X----X-|
g|--8--8---8--8--7--5--3-----8--8----8---8---10-|
D|----------------------------------------------|

[intro]

[guitar one]

d|------------------------------------------------------------|
a|------------------------------------------------------------|
f|------------------------------------------------------------|
c|-4-------12-------7----------4-------12--------7------------|
g|-4-------12-------7----------4-------12--------7------------|
D|-2-------10-------5----------2-------10--------5------------|

[Guitar two]

d|--------------------------------------------|
a|--------------------------------------------|
f|---------6h7p6---6--------------------------|
c|-----7-9-------9---7----------9b-9r-7-9-7---|
g|-7\9-----------------7--7\9-7---------------|
D|--------------------------------------------|

d|------------------------------|
a|------------------------------|
f|-------6h7p6---6-----9\11--9--|
c|---7-9-------9---7------------|
g|-9-----------------7----------|
D|------------------------------|

[verse 3](first part is muted goes something like this)

[Guitar one]

d|-------------------------------------------------------|
a|-------------------------------------------------------|
f|-------------------------------------------------------|
c|-X-X-X-X-X-X-X-X-X-X-X-X-X-X-X-X-X-X-X-X-X-X-X-X-X-X-X-|
g|-X-X-X-X-X-X-X-X-X-X-X-X-X-X-X-X-X-X-X-X-X-X-X-X-X-X-X-|
D|-X-X-X-X-X-X-X-X-X-X-X-X-X-X-X-X-X-X-X-X-X-X-X-X-X-X-X-|

[Guitar two]

d|----------------------------------------------------------|
a|----------------------------------------------------------|
f|----------------------------------------------------------|
c|-X-X---X-X----X-X--X-X--X-X----X-X---X-X----X-X--X-X--X-X-|
g|-X-X---X-X----X-X--X-X--X-X----X-X---X-X----X-X--X-X--X-X-|
D|-X-X---X-X----X-X--X-X--X-X----X-X---X-X----X-X--X-X--X-X-|

[Guitar one]

d|-------------------------------------------|
a|-------------------------------------------|
f|-------------------------------------------|
c|------4--6--7--9--11--14--16-------16-16\5-|
g|------4--6--7--9--11--14--16-------16-16\5-|
D|------2--4--5--7---9--12--14-------14-14\3-|

[Guitar two]
   *pick scrape up the neck
d|--------------------------------|
a|--------------------------------|
f|---------------4--6--9--11------|
c|-12/--4--6--7--4--6--9--11------|
g|-12/--4--6--7--2--4--7---9------|
D|-12/--2--4--5-------------------|

[Guitar one]

d|---------------------------------------------|
a|---------------------------------------------|
f|---------------------------------------------|
c|-5-5-5-5-5-5-5-5-5-5-5-5-5-5-5-5-5-5-5-5-5-5-|
g|-5-5-5-5-5-5-5-5-5-5-5-5-5-5-5-5-5-5-5-5-5-5-|
D|-3-3-3-3-3-3-3-3-3-3-3-3-3-3-3-3-3-3-3-3-3-3-|

[Guitar two]

d|--------------------------------------------------------------------|
a|--------------------------------------------------------------------|
f|-------------------\12-12-12-12-12-12-12-12-12-12-12-12-12-12-12-12-|
c|-------------------\-X--X--X--X--X--X--X--X--X--X--X--X--X--X--X--X-|
g|-------------------\10-10-10-10-10-10-10-10-10-10-10-10-10-10-10-10-|
D|--------------------------------------------------------------------|

[pre-chorus]

[Guitar one]

d|----------------------------------------------------------------|
a|----------------------------------------------------------------|
f|--------------5---------9---------------9-9-9-9-9-9-9-9-9-9-9-9-|
c|-3------------5---------9---------------9-9-9-9-9-9-9-9-9-9-9-9-|
g|-3------------3---------7---------------7-7-7-7-7-7-7-7-7-7-7-7-|
D|-1--------------------------------------------------------------|

[Guitar two]

d|--------------------------------------------------------------|
a|--------------------------------------------------------------|
f|--------------------------------------------------------------|
c|-3-3\5-3-2-3-2-----------6---6---6---6---6-6-6-6-6-6-6-6-6-6--|
g|-3-------------5-3-5-5/7---7---7---7---7--7-7-7-7-7-7-7-7-7-7-|
D|-1------------------------------------------------------------|

[chorus]

[Guitar one]

d|-------------------------------------------------------|
a|-------------------------------------------------------|
f|-------------------------------------------------------|
c|-7-7---7-7-7-7---7-7-7--10-10---10-10-10-10---10-10-10-|
g|-7-7---7-7-7-7---7-7-7--10-10---10-10-10-10---10-10-10-|
D|-5-5---5-5-5-5---5-5-5---8--8----8--8--8--8----8--8--8-|

[Guitar two]

d|-------------------------------------------------------|
a|-------------------------------------------------------|
f|-------------------------------------------------------|
c|-7-7---7-7-7-7---7-7-7--10-10---10-10-10-10---10-10-10-|
g|-7-7---7-7-7-7---7-7-7--10-10---10-10-10-10---10-10-10-|
D|-5-5---5-5-5-5---5-5-5---8--8----8--8--8--8----8--8--8-|

[Guitar one]

d|------------------------------------------------------------|
a|------------------------------------------------------------|
f|-10-10-10-10-------------------10-10-10-10------------------|
c|-10-10-10-10--10-10-10--10-10--10-10-10-10--12-12-12--12-12-|
g|--8--8--8--8--10-10-10--10-10---8--8--8--8--12-12-12--12-12-|
D|---------------8--8--8---8--8---------------10-10-10--10-10-|


[Guitar two]

d|---------------------------------------------------------------|
a|---------------------------------------------------------------|
f|-10-10-10-10-------------------10-10-10-10--7--5\7-5\7-7\9-7\9-|
c|-10-10-10-10--10-10-10--10-10--10-10-10-10--X--X\X-X\X-X\X-X\X-|
g|--8--8--8--8--10-10-10--10-10---8--8--8--8--5--3\5-3\5-5\7-5\7-|
D|---------------8--8--8---8--8----------------------------------|

[Guitar one]

d|-------------------------------------------------------|
a|-------------------------------------------------------|
f|-------------------------------------------------------|
c|-7-7---7-7-7-7---7-7-7--10-10---10-10-10-10---10-10-10-|
g|-7-7---7-7-7-7---7-7-7--10-10---10-10-10-10---10-10-10-|
D|-5-5---5-5-5-5---5-5-5---8--8----8--8--8--8----8--8--8-|

[Guitar Two]

d|-------------------------------------------------------|
a|-------------------------------------------------------|
f|-14-------------12----------------14-12-10-9-9-10-9----|
c|--X--------------X-----------------X--X--X-X-X--X-X----|
g|-12-------------10----------------12-10--8-7-7--8-7----|
D|-------------------------------------------------------|

[Guitar one]

d|------------------------------------------------------------|
a|------------------------------------------------------------|
f|-10-10-10-10-------------------10-10-10-10------------------|
c|-10-10-10-10--10-10-10--10-10--10-10-10-10--12-12-12--12-12-|
g|--8--8--8--8--10-10-10--10-10---8--8--8--8--12-12-12--12-12-|
D|---------------8--8--8---8--8---------------10-10-10--10-10-|

[Guitar Two]

d|----------------------------------------------|
a|----------------------------------------------|
f|-10-10--10-10--9--7--5----10-10---10--10---12-|
c|--X--X---X--X--X--X--X-----X--X----X---X----X-|
g|--8--8---8--8--7--5--3-----8--8----8---8---10-|
D|----------------------------------------------|

[interlude (Guitar one only)]

[Guitar one]

d|-------------------------------------------------|
a|---------------------10-10-10-10-----------------|
f|-------------------------------------------------|
c|---------11-11-11-11-------------11-11-11-11-----|
g|-9-9-9-9-------------------------------------9/8-|
D|-------------------------------------------------|

d|-------------------------------------------------|
a|-------------------------------------------------|
f|---------------------10-10-10-10-----------------|
c|---------11-11-11-11-------------11-11-11-11-----|
g|-8-8-8-8-------------------------------------8/5-|
D|-------------------------------------------------|

d|-----------------------------------------------------------------|
a|-----------------------------------------------------------------|
f|-----------------7-7-7-7-----------------------------------------|
c|---------6-6-6-6---------6-6-6-6---------7-7-6-6---------7-7-7-7-|
g|-5-5-5-5---------------------------------------------------------|
D|---------------------------------5-5-5-5---------4-4-4-4---------|

d|---------------------------------------------------------------------|
a|---------------------------------------------------------------------|
f|---------------------------------------------------------------------|
c|---------4-4-------------4-4-4-4-------------9-9-9-9---------9-9-9-9-|
g|-5-5-5-5-----7-7-5-5-5-5---------5\7-7-7-7-7---------7-7-7-7---------|
D|---------------------------------------------------------------------|

[Interlude Harmony]

[Guitar One]

d|-------------------------------------------------|
a|---------------------10-10-10-10-----------------|
f|-------------------------------------------------|
c|---------11-11-11-11-------------11-11-11-11-----|
g|-9-9-9-9-------------------------------------9/8-|
D|-------------------------------------------------|

[Guitar Two]

d|-------------------------------------------------|
a|----------9--9--9--9-11-11-11-11--9--9--9--9-----|
f|-------------------------------------------------|
c|-------------------------------------------------|
g|-9-9-9-9-------------------------------------9/8-|
D|-------------------------------------------------|

[Guitar One]

d|-------------------------------------------------|
a|-------------------------------------------------|
f|---------------------10-10-10-10-----------------|
c|---------11-11-11-11-------------11-11-11-11-----|
g|-8-8-8-8-------------------------------------8/5-|
D|-------------------------------------------------|

[Guitar two]

d|-------------------------------------------------|
a|-------------------------------------------------|
f|---------------------10-10-10-10-----------------|
c|---------11-11-11-11-------------11-11-11-11-----|
g|-8-8-8-8-------------------------------------8/5-|
D|-------------------------------------------------|

[Guitar one]

d|-----------------------------------------------------------------|
a|-----------------------------------------------------------------|
f|-----------------7-7-7-7-----------------------------------------|
c|---------6-6-6-6---------6-6-6-6---------7-7-6-6---------7-7-7-7-|
g|-5-5-5-5---------------------------------------------------------|
D|---------------------------------5-5-5-5---------4-4-4-4---------|

[Guitar two]

d|-----------------------------------------------------------------|
a|-----------------------------------------------------------------|
f|-----------------6-6-6-6-----------------6-6-------------6-6-----|
c|---------7-7-7-7---------7-7-7-7-----6-6-----6-6-----6-6-----6-6-|
d|-5-5-5-5---------------------------------------------------------|
D|---------------------------------5-5-------------4-4-------------|

[Guitar one]

d|---------------------------------------------------------------------|
a|---------------------------------------------------------------------|
f|---------------------------------------------------------------------|
c|---------4-4-------------4-4-4-4-------------9-9-9-9---------9-9-9-9-|
g|-5-5-5-5-----7-7-5-5-5-5---------5\7-7-7-7-7---------7-7-7-7---------|
D|---------------------------------------------------------------------|

[Guitar two]

d|---------------------------------------------------------------------|
a|---------------------------------------------------------------------|
f|---------------------------------------------------------------------|
c|---------7-7-6-6---------7-7-7-7-------------4-4-4-4---------4-4-4-4-|
g|-5-5-5-5---------5-5-5-5---------4\5-5-5-5-5---------5-5-5-5---------|
D|---------------------------------------------------------------------|

[pre-chorus]

[Guitar one]

d|----------------------------------------------------------------|
a|----------------------------------------------------------------|
f|--------------5---------9---------------9-9-9-9-9-9-9-9-9-9-9-9-|
c|-3------------5---------9---------------9-9-9-9-9-9-9-9-9-9-9-9-|
g|-3------------3---------7---------------7-7-7-7-7-7-7-7-7-7-7-7-|
D|-1--------------------------------------------------------------|

[Guitar two]

d|--------------------------------------------------------------|
a|--------------------------------------------------------------|
f|--------------------------------------------------------------|
c|-3-3\5-3-2-3-2-----------6---6---6---6---6-6-6-6-6-6-6-6-6-6--|
g|-3-------------5-3-5-5/7---7---7---7---7--7-7-7-7-7-7-7-7-7-7-|
D|-1------------------------------------------------------------|

[chorus 3]

[Guitar one]

d|-------------------------------------------------------|
a|-------------------------------------------------------|
f|-------------------------------------------------------|
c|-7-7---7-7-7-7---7-7-7--10-10---10-10-10-10---10-10-10-|
g|-7-7---7-7-7-7---7-7-7--10-10---10-10-10-10---10-10-10-|
D|-5-5---5-5-5-5---5-5-5---8--8----8--8--8--8----8--8--8-|

d|--------------------------------------------------|
a|--------------------------------------------------|
f|-10-10-10-10-------------------10-10-10-10--10--9-|
c|-10-10-10-10--10-10-10--10-10--10-10-10-10--10--9-|
g|--8--8--8--8--10-10-10--10-10---8--8--8--8---8--7-|
D|---------------8--8--8---8--8---------------------|

[Chorus 4]

[Guitar one]

d|-------------------------------------------------------|
a|-------------------------------------------------------|
f|-------------------------------------------------------|
c|-7-7---7-7-7-7---7-7-7--10-10---10-10-10-10---10-10-10-|
g|-7-7---7-7-7-7---7-7-7--10-10---10-10-10-10---10-10-10-|
D|-5-5---5-5-5-5---5-5-5---8--8----8--8--8--8----8--8--8-|

[Guitar Two]

d|-------------------------------------------------------|
a|-------------------------------------------------------|
f|-14-------------12----------------14-12-10-9-9-10-9----|
c|--X--------------X-----------------X--X--X-X-X--X-X----|
g|-12-------------10----------------12-10--8-7-7--8-7----|
D|-------------------------------------------------------|

[Guitar one]

d|------------------------------------------------------------|
a|------------------------------------------------------------|
f|-10-10-10-10-------------------10-10-10-10------------------|
c|-10-10-10-10--10-10-10--10-10--10-10-10-10--12-12-12--12-12-|
g|--8--8--8--8--10-10-10--10-10---8--8--8--8--12-12-12--12-12-|
D|---------------8--8--8---8--8---------------10-10-10--10-10-|

d|-------------------------------------|
a|-------------------------------------|
f|-------------------------------------|
c|-12-12-12-12-12-12-12-12-12-12-12-12-|
g|-12-12-12-12-12-12-12-12-12-12-12-12-|
D|-10-10-10-10-10-10-10-10-10-10-10-10-|

[outro Chorus]

[Guitar one]

d|-------------------------------------------------------|
a|-------------------------------------------------------|
f|-------------------------------------------------------|
c|-7-7---7-7-7-7---7-7-7--10-10---10-10-10-10---10-10-10-|
g|-7-7---7-7-7-7---7-7-7--10-10---10-10-10-10---10-10-10-|
D|-5-5---5-5-5-5---5-5-5---8--8----8--8--8--8----8--8--8-|

[Guitar 2]

d|-------------------------------------|
a|-------------------------------------|
f|---10-9-7----7-9------10-9-7----7-9--|
c|-7--------10-----7-10--------10------|
g|-------------------------------------|
D|-------------------------------------|

d|------------------------------------------------------------|
a|------------------------------------------------------------|
f|-10-10-10-10-------------------10-10-10-10------------------|
c|-10-10-10-10--10-10-10--10-10--10-10-10-10--12-12-12--12-12-|
g|--8--8--8--8--10-10-10--10-10---8--8--8--8--12-12-12--12-12-|
D|---------------8--8--8---8--8---------------10-10-10--10-10-|

[Guitar 2]

d|---------------------------------------------|
a|---------------------------------------------|
f|------10-9-7----7-9------10-9-7-10\12-10-9-7-|
c|-7-10--------10-----7-10---------------------|
g|---------------------------------------------|
D|---------------------------------------------|

[Guitar one]

d|-------------------------------------------------------|
a|-------------------------------------------------------|
f|-------------------------------------------------------|
c|-7-7---7-7-7-7---7-7-7--10-10---10-10-10-10---10-10-10-|
g|-7-7---7-7-7-7---7-7-7--10-10---10-10-10-10---10-10-10-|
D|-5-5---5-5-5-5---5-5-5---8--8----8--8--8--8----8--8--8-|

[Guitar 2]

d|-------------------------------------|
a|-------------------------------------|
f|---10-9-7----7-9------10-9-7----7-9--|
c|-7--------10-----7-10--------10------|
g|-------------------------------------|
D|-------------------------------------|

d|------------------------------------------------------------|
a|------------------------------------------------------------|
f|-10-10-10-10-------------------10-10-10-10------------------|
c|-10-10-10-10--10-10-10--10-10--10-10-10-10--12-12--5-6-7/---|
g|--8--8--8--8--10-10-10--10-10---8--8--8--8--12-12--5-6-7/---|
D|---------------8--8--8---8--8---------------10-10--3-4-5/---|

[Guitar 2]

d|-------------------------------------------------------|
a|-------------------------------------------------------|
f|------10-9-7----7-9------10-9-7-14--14-14--14---14/----|
c|-7-10--------10-----7-10---------X--X---X---X----X/----|
g|--------------------------------12-12--12--12---12/----|
D|-------------------------------------------------------|

Enjoi.
any questions? just comment.
comments
print report bad tab
1 comment total.
0 reply
shugo449 wrote on April 30 2007, 04:33 pm

amazing thnx its my favorite song of theirs

can you tab choice hops and bottled self esteem

I want to post or [tab]
guest
You may want to rate the tab now too:
select rating
Please do not post tabs as comments. Select "correction" instead!