Oops, an error
Loading. Please wait.

Heavenly Homes Tab

1,140 views 1 this week
1 commentread comment
1 2 3 4 5
excellent!
x 3
Autoscroll
+/-
esc
set tempo
stop
Contributor
Hey! There's an official Ultimate Guitar app which is ideal
for learning songs when you're away from computer. Get the app
WARNING: You are trying to view
                                    content from Ultimate-Guitar.com
                                    in an unauthorized application,
                                    which is prohibited.

                                    Please use an official Ultimate
                                    Guitar Tabs application for iPhone,
                                    iPad or Android to access legitimate
                                    chords, guitar, bass, and drum tabs
                                    from Ultimate-Guitar.com database.

                                    Type "ultimate guitar tabs" in Apple
                                    App Store's or Android Market's
                                    search to find the application.
-------------------------------------------------------------------------------
                Heavenly Homes - Be Bop Deluxe
-------------------------------------------------------------------------------

Tabbed by: axe victim
Email: See my  Ultimate Guitar  profile.

Tuning: EADGBe

| /  slide up
| \  slide down
| h  hammer-on
| p  pull-off
| ~  vibrato
| +  harmonic
| x  Mute note
|( xx0321 ) chord shape
| ^ quarter tone bend up
| b  bend up/down
| G/B chord/bass note


From the 'Sunburst Finish' album, an old favourite.
I hope I've done it justice, corrections welcome.



Intro: Lead guitar.

__G_( 320033 )_________________________Dm_( xx0231 )_______________________

e|---------------------------------|-------------10-h12-h15--12h15p12p10~~~|
B|---------------------------------|----8-h10-/12--------------------------|
G|--------------------------------7--h9------------------------------------|
D|-5~~~~~~~~~~~~~~~-------5-h7-/9--|---------------------------------------|
A|-------------------5-h7----------|---------------------------------------|
E|---------------------------------|---------------------------------------|


___C_( x32010 )______________________________G_( 320033 )___F_( 133211 )___

e|------------------------------------------|------------------------------|
B|-15b17~~~--15~~~~~~-----12---12h15p12p10h-|-12~~~~~~~--------------------|
G|------------------------------------------|------------------------------|
D|------------------------------------------|------------------------------|
A|------------------------------------------|------------------------------|
E|------------------------------------------|------------------------------|


___G_________________________________________

e|-17b19---17---15-17-12-15-10-12------------|
B|-------------------------------------------|
G|--------------------------------15-14-12\--|
D|-------------------------------------------|
A|-------------------------------------------|
E|-------------------------------------------|


__Dm_______________________________________________________

e|-----18b20~~~~-18^---15----------------------------------|
B|------------------------18p15----15----------------------|
G|------------------------------17----18p17p15----15-------|
D|---------------------------------------------17----17\---|
A|---------------------------------------------------------|
E|---------------------------------------------------------|


___C___________________________________________________________

e|------/20b22-20b22-20b22-20b22-20b22-20b22-20b22----20p18p15-|
B|-------------------------------------------------------------|
G|-------------------------------------------------------------|
D|-------------------------------------------------------------|
A|-------------------------------------------------------------|
E|-------------------------------------------------------------|


__G_____________________________

e|-20b22~~~~~~~~~~~~~~~~~~~~~~~-|
B|------------------------------|
G|------------------------------|
D|------------------------------|
A|------------------------------|
E|------------------------------|



Then, acoustic guitar:



___Cadd9_(x32033)___________________G_(320033)_______________________

e|---------------------------------|---------------------------------|
B|-3---------------------3----3----|---------------------3---3---3---|
G|-0------------0-2-0----0----0----|---------------0-----0---0---0---|
D|---------0-2--------------2----0-|-----------0-2-0-----------------|
A|-3-------------------------------|--------0-2------------0---2-----|
E|---------------------------------|-3-----------------3-------------|



___Cadd9_(x32033)___________________G_(320033)_______________________

e|---------------------------------|---------------------------3-----|
B|----3----------------3-----------|-------3-------------------3-----|
G|----0--------0-2-0---0-----------|-------0-----------0-------------|
D|--------0-2-------------2------0-|--------------0-2--0-------------|
A|-3-------------------------------|----------0-2--------------------|
E|---------------------------------|-3---------------------3---------|



___G_(320003)______________________

e|---------------------------------|
B|-0-------0-------0-------0-------|
G|-0---0---0---0---0---0---0---0---|
D|-----0-------0-------0-------0---|
A|---------------------------------|
E|---------------------------------|


Verse:


___G_______________C________________F________________D_______________
   " The stars are burning and the....moon is shining bright..."
e|-3---3-3-3---3-3-0---0-0-0---0-0-|-1---1-1-1---1-1-2---2-2-2---2-2-|
B|-0---0-0-0---0-0-1---1-1-1---1-1-|-1---1-1-1---1-1-3---3-3-3---3-3-|
G|-0---0-0-0---0-0-0---0-0-0---0-0-|-2---2-2-2---2-2-2---2-2-2---2-2-|
D|-0---0-0-0---0-0-2---2-2-2---2-2-|-3---3-3-3---3-3-0---0-0-0---0-0-|
A|-2---2-2-2---2-2-3---3-3-3---3-3-|-3---3-3-3---3-3-----------------|
E|-3---3-3-3---3-3-----------------|-1---1-1-1---1-1-----------------|



___G_______________C_________________F_______________D_______________
    " The world is turning underneath this canopy of night..."
e|-3---3-3-3---3-3-0---0-0-0---0-0-|-1---1-1-1---1-1-2---2-2-2---2-2-|
B|-0---0-0-0---0-0-1---1-1-1---1-1-|-1---1-1-1---1-1-3---3-3-3---3-3-|
G|-0---0-0-0---0-0-0---0-0-0---0-0-|-2---2-2-2---2-2-2---2-2-2---2-2-|
D|-0---0-0-0---0-0-2---2-2-2---2-2-|-3---3-3-3---3-3-0---0-0-0---0-0-|
A|-2---2-2-2---2-2-3---3-3-3---3-3-|-3---3-3-3---3-3-----------------|
E|-3---3-3-3---3-3-----------------|-1---1-1-1---1-1-----------------|


( lead guitar, after "...darkest blue...")

e|-19--15-------------------------------|
B|---------15--17------15---------------|
G|-----------------16-------------------|
D|-------------------------17~~~~~~~~~~-|
A|--------------------------------------|
E|--------------------------------------|

( lead guitar, after "...day comes creeping through...")

e|---------15--17b19-17b19---|
B|-----15--------------------|
G|-16------------------------|
D|---------------------------|
A|---------------------------|
E|---------------------------|


Then:


___Em_____________________Em/D#____________________
..............."Somewhere tomorrow warms ......the..
e|-------------0-----------------------0-----------|
B|-------0--------0-----0--------0--------0-----0--|
G|----0-----0--------0--------0-----0--------0-----|
D|-2-----------------------1-----------------------|
A|-------------------------------------------------|
E|-------------------------------------------------|



___Em/D___________________Em/C#____________________
..distance with the.......light of dawn.......you...
e|-------------0-----------------------0-----------|
B|-------0--------0-----0--------0--------0-----0--|
G|----0-----0--------0--------0-----0--------0-----|
D|-0-----------------------------------------------|
A|-------------------------4-----------------------|
E|-------------------------------------------------|



___C_________________________________Gmaj7___________________________
..yawn my love, your eyes are growing tired."
e|-0---0-0-0---0-0-0---0-0-0---0-0-|-2-2-2-2-2---2-2-2-2-2-2-2-2-2-2-|
B|-1---1-1-1---1-1-1---1-1-1---1-1-|-0-0-0-0-0---0-0-0-0-0-0-0-0-0-0-|
G|-0---0-0-0---0-0-0---0-0-0---0-0-|-0-0-0-0-0---0-0-0-0-0-0-0-0-0-0-|
D|-2---2-2-2---2-2-2---2-2-2---2-2-|-0-0-0-0-0---0-0-0-0-0-0-0-0-0-0-|
A|-3---3-3-3---3-3-3---3-3-3---3-3-|-x-x-x-x-x---x-x-x-x-x-x-x-x-x-x-|
E|---------------------------------|-3-3-3-3-3---3-3-3-3-3-3-3-3-3-3-|

( lead guitar, after "tired")
e|-----------------------------|
B|---------7-8-7---------------|
G|---------------7-4-----------|
D|-------------------5-4---4---|
A|-----------------------5-----|
E|-----------------------------|




___C________________________________G_(3x0033)______G/F#_(2x0033)____
"The dawn must come although we will deny............it......."
e|-0---0-0-0---0-0-0---0-0-0---0-0-|---------3---------------3-------|
B|-1---1-1-1---1-1-1---1-1-1---1-1-|--------------3--------------3---|
G|-0---0-0-0---0-0-0---0-0-0---0-0-|-----0---------------0-----------|
D|-2---2-2-2---2-2-2---2-2-2---2-2-|---------------------------------|
A|-3---3-3-3---3-3-3---3-3-3---3-3-|---------------------------------|
E|---------------------------------|-3---------------2---------------|



___G/F_(1x0033)_______________C_(x32010)____________G______Am__

e|--------------------------|----------------------------------|
B|--------------------------|---------1------1--1---0------1---|
G|--------------------------|---------0------0--0---0------2---|
D|--------------------------|---------2------2--2---0------2---|
A|-----------0--2--3--------|-3-------3------3--3---2------0---|
E|-1------------------------|---------------------------3------|



___G_________________________________________________
.........( Lead guitar... )
e|-3-------pb19-r17---15-17-12-15--------------------|
B|-0-------------------------------------------------|
G|-0-----------------------------14b15r14-12----12---|
D|-0-----------------------------------------14------|
A|-x-------------------------------------------------|
E|-3-------------------------------------------------|



Repeat verse until:


___Cmaj7_____________________________F_______________________________
"you know that in the end it all comes true..."
e|-0---0-0-0---0-0-0---0-0-0---0-0-|-1---1-1-1---1-1-1---1-1-1---1-1-|
B|-0---0-0-0---0-0-0---0-0-0---0-0-|-1---1-1-1---1-1-1---1-1-1---1-1-|
G|-0---0-0-0---0-0-0---0-0-0---0-0-|-2---2-2-2---2-2-2---2-2-2---2-2-|
D|-2---2-2-2---2-2-2---2-2-2---2-2-|-3---3-3-3---3-3-3---3-3-3---3-3-|
A|-3---3-3-3---3-3-3---3-3-3---3-3-|-3---3-3-3---3-3-3---3-3-3---3-3-|
E|---------------------------------|-1---1-1-1---1-1-1---1-1-1---1-1-|

(lead guitar, after "all comes true..")
e|------------------------8-10-13-10---|
B|-----------------6-8-10--------------|
G|------------5-7----------------------|
D|-----3-5-7---------------------------|
A|-------------------------------------|
E|-------------------------------------|



Repeat until:


___G________________________________Eb_( x65343 )____________________
........." Heavenly Homes.................are hard to  find."
e|-3---3---------------------------|----------3--------3-------------|
B|-0---0---------------------------|----------4--------4-------------|
G|-0---0------------------0--------|----------3--------3-------------|
D|-0---0---------------------4-3-2-|----------5--------5-------2-3-4-|
A|-x---x---------------------------|-6--------6--------6-----6-------|
E|-3---3---------------------------|---------------------------------|



___G_( 3x0003 )______________________Bm__( x24432 )___________________
"....and  heavenly thoughts..............in heavenly minds are...
e|--------3--------3---------------|--------2-------------------------|
B|--------0--------0---------------|--------3-------------------------|
G|-0------0--------0-----0-h1-h2-h3-h4------4-------------------------|
D|--------0--------0---------------|--------4-------------------------|
A|--------x--------x---------------|--------2-------------------------|
E|--------3--------3---------------|----------------------------------|



___C________________F_____________G______________________________
"..not................the worlds design."
e|-8----------------1-----------|-3------------------------------|
B|-8----------------1-----------|-3------------------------------|
G|-9----------------2-----------|-4------------------------------|
D|-10---------------3-----------|-5------------------------------|
A|-10---------------3-----------|-5------------------------------|
E|-8----------------1-----------|-3------------------------------|



Repeat last two bars for the guitar solo, then it changes key and continues:



___Ab_______________Db____________Eb_____________________________

e|------------------------------|--------------------------------|
B|-4----------------6-----------|-8------------------------------|
G|-5----------------6-----------|-8------------------------------|
D|-6----------------6-----------|-8------------------------------|
A|-6----------------4-----------|-6------------------------------|
E|-4----------------------------|--------------------------------|


___Ab_______________Db____________Eb_____________________________

e|------------------------------|--------------------------------|
B|-4----------------6-----------|-8------------------------------|
G|-5----------------6-----------|-8------------------------------|
D|-6----------------6-----------|-8------------------------------|
A|-6----------------4-----------|-6------------------------------|
E|-4----------------------------|--------------------------------|




Main Guitar Solo: I've stretched the bars to show detail. Each stave is 
one bar.


___C________________________F________________________________________

e|--------------------------------------------12-15-12--12-----------|
B|-----------------------13-12h13p12--12h13h15--------15--15-13-12---|
G|-----------------12-h14-----------14----------------------------14-|
D|-------10-h12-h14--------------------------------------------------|
A|-10-h12------------------------------------------------------------|
E|-------------------------------------------------------------------|


___G______________________________________________________________

e|----------------------------------------------------------------|
B|-13p12----12----------------------------------------------------|
G|-------14----14b16~~~~~~~~r14p12h14~~~~~~~~~~~~~~~~~~~~~~----12-|
D|----------------------------------------------------------------|
A|----------------------------------------------------------------|
E|----------------------------------------------------------------|


___C_______________________________F_________________________________

e|-------------------------------------------------------------------|
B|---------------------------------------------------------13-12--12-|
G|-14-12h14p12p10--------10----12--------------------12-14------14---|
D|-----------------14--------------10~~~~~~----12-/14----------------|
A|-------------------------------------------------------------------|
E|-------------------------------------------------------------------|




Next bar ends with either Legato ( hammer-on/pull-off ) style...

___G________________________________________________________________________
                                                      ( legato... )
e|------12-15-12--12--------------------------------------------------------|
B|-13h15--------13--15-13-12--13-12--12h13p12--12-------------------------8h9~~
G|--------------------------14-----14~~~~~---14--12h14p10h12p9h10p7h9~h10---|
D|--------------------------------------------------------------------------|
A|--------------------------------------------------------------------------|
E|--------------------------------------------------------------------------|


...or alternate picking style

___G________________________________________________________________________
                                                  ( alternate picking )
e|------12-15-12--12--------------------------------------------------------|
B|-13h15--------13--15-13-12--13-12--12h13p12--12---------------------------|
G|--------------------------14-----14~~~~~---14--12-14---12--------------12h13~~
D|-----------------------------------------------------15--14-15-12-14-15---|
A|--------------------------------------------------------------------------|
E|--------------------------------------------------------------------------|


Or maybe a bit of both!


Continues with second guitar and changes key:


___Ab______________________________Db______________________________
  ( Second guitar overlaps first guitar... )
e|--------------------------------------------------------8h9p8--8-|
B|-------------------------------------9---8h9p8h9--8h9h11-----11--|
G|-----------------------------8---10-------------10---------------|
D|-----------------6---8---10--------------------------------------|
A|-------------6---------------------------------------------------|
E|-4---6---8-------------------------------------------------------|


___Eb_____________________________________________________________

e|-9---11-/13------11--13----/15-----13--15--/16--/18----16----18-|
B|----------------------------------------------------------------|
G|----------------------------------------------------------------|
D|----------------------------------------------------------------|
A|----------------------------------------------------------------|
E|----------------------------------------------------------------|


___Ab______________________________Db_____________________________

e|-20/21---20----------------------21----20--------21----20-------|
B|-----------------21~~~----------------------21---------------21-|
G|----------------------------------------------------------------|
D|----------------------------------------------------------------|
A|----------------------------------------------------------------|
E|----------------------------------------------------------------|


___Eb_____________________________________________________________

e|-21--20~~--------20b21~~r20-p18---------------------------------|
B|---------------------------------21~~~-----------20----18-------|
G|------------------------------------------------------------20--|
D|----------------------------------------------------------------|
A|----------------------------------------------------------------|
E|----------------------------------------------------------------|


___F______________________________________________________________
   ( segues into Octaves... )
e|----------------------------------------------------------------|
B|-18~~~~~~-------------------------------------------------------|
G|----------------------------------------------------------------|
D|----------------------------------------------------------------|
A|----------------------------------------------------------------|
E|----------------------------------------------------------------|



Song continues...


___F______________________________
( octave )
e|-5~~~~~~~/17\~~~~~~~5-----------|
B|--------------------------------|
G|--------------------------------|
D|-7~~~~~~~/19\~~~~~~~7-----------|
A|--------------------------------|
E|--------------------------------|


___C________________________________F______________________________
(lead guitar)
e|--------------------------------|-5~~~~~~/17\~~~~~~5-------------|
B|-5~~~~~~/17\~~~~~~5~~~~~~/17\---|--------------------------------|
G|--------------------------------|--------------------------------|
D|--------------------------------|-7~~~~~~/19\~~~~~~7-------------|
A|-7~~~~~~/19\~~~~~~7~~~~~~/19\---|--------------------------------|
E|--------------------------------|--------------------------------|


___C______________________________

e|--------------------------------|
B|-5~~~~~~/17\~~~~~~5~~~~~~/17\---|
G|--------------------------------|
D|--------------------------------|
A|-7~~~~~~/19\~~~~~~7~~~~~~/19\---|
E|--------------------------------|


__Dm_____________________________Am___________________________

e|------------------------------|-----------------------------|
B|------------------------------|-----------------------------|
G|-------------------------10---|-9-10-9-10-9----9------------|
D|-----------------7------------|-------------10--------------|
A|-5-------8--------------------|-----------------------------|
E|------------------------------|-----------------------------|


___Dm____________________________Am___________________________

e|------------------------------|-----------------------------|
B|------------------------------|-----------------------------|
G|-------------------------10---|-9-10-9-10-9----9------------|
D|-----------------7------------|-------------10--------------|
A|-5-------8--------------------|-----------------------------|
E|------------------------------|-----------------------------|


___G________________________F_________________________

e|-------------------------|--------------------------|
B|-------------------------|--------------------------|
G|-7-9-7-9-7---7-----------|-5-7-5-7-5---5------------|
D|-----------9-------------|-----------5--------------|
A|-------------------------|--------------------------|
E|-------------------------|--------------------------|


___C__________Gsus4_______Am7_________G____________
( acoustic guitar, slowing down...)
e|-------------------------------------------------|
B|------1-----------1-----------1-----------0------|
G|---------0-----------0-----------0-----------0---|
D|---2-----------0-----------2-----------0---------|
A|-3----------2-----------0------------------------|
E|------------------------------------3------------|



Ending: segue into "Ships In The Night".



Lyrics:


The stars are burning
And the moon is shining bright
The world is turning
Underneath this canopy of night

Somewhere tomorrow warms
The distance with the light of dawn
You yawn my love, your eyes are growing tired
The dawn must come although we wil deny it

I'd like to hold you here
Beneath these clouds of darkest blue
Could be a million years
Before the day comes creeping through

But in the meantime
Let the moonshine shine
I'm fine my love but tell me, how are you?
You know that in the end it all comes true

Heavenly homes are hard to find
And heavenly thoughts
In heavenly minds
Are not the worlds design




| /  slide up
| \  slide down
| h  hammer-on
| p  pull-off
| ~  vibrato
| +  harmonic
| x  Mute note
===============================================================================
comments
We did not receive enough feedback on this tab! Please rate:
print report bad tab
1 2 3 4 5
1 comment total.
0 reply
russgies wrote on December 2 2008, 12:09 pm

-------------------------------------------------------------------------------
Heavenly Homes solo - Be Bop Deluxe
-------------------------------------------------------------------------------

Tabbed by: russgies

This is intended to complete the tab done by axe victim, to be inserted after "not the world's design".
Measures 13 and 14 are very muddy, so I interpolated based on the rest of the solo.
The measures were determined by the seat of my pants so don't be surprised if they're off but hopefully it's helpful.

|-------------5-8-|7h8-8-8-7h8-10-12|-15p12----12------------|-------------------------|
|---------5-8-----|-----------------|-------15----15p13------|-12h13p12----------------|
|-----5-7---------|-----------------|-------------------14-12|----------14-12-14b16----|
|-5-7-------------|-----------------|------------------------|-------------------------|
|-----------------|-----------------|------------------------|-------------------------|
|-----------------|-----------------|------------------------|-------------------------|

~~
|-----------------|-----------------------|-----------------|-------------------|
|-----------------|-----------------------|-----------------|----------------13-|
|-12-14-----------|-12-14-12h14p12--------|----------12-----|----------12h14----|
|-----------------|----------------15-14--|-12-14-15--------|----12h14----------|
|-----------------|-----------------------|-------------15--|-15----------------|
|-----------------|-----------------------|-----------------|-------------------|

|----------------12-|15p12----12--------------|---------------------|------------------|
|----------13-15----|------15-----15p13p12----|13p12----12h-13p12---|-13p12----12------|
|-14p12h14----------|----------------------14-|------14-----------14|-------14----14-12|
|-------------------|-------------------------|---------------------|------------------|
|-------------------|-------------------------|---------------------|------------------|
|-------------------|-------------------------|---------------------|------------------|

|------------------|-------------|-----------------|-------------6-|
|------------------|-------------|-----------------|-9p8h9-6-8-9---|
|-14-12----12------|----------12~|-------------5-8-|---------------|
|-------15----15-14|-12-14-15----|-------3-5/8-----|---------------|
|------------------|-------------|-0-3-5-----------|---------------|
|------------------|-------------|-----------------|---------------|

|9-8-6-8-9-11-|13-11-13-15-13-15-|16-18-16-18-20b21r20-|16---20b21r20-16-20b21r20-16|
|-------------|------------------|---------------------|----------------------------|
|-------------|------------------|---------------------|----------------------------|
|-------------|------------------|---------------------|----------------------------|
|-------------|------------------|---------------------|----------------------------|
|-------------|------------------|---------------------|----------------------------|

|-20b21r20-20b21r20-18-|16-15-13-11-13-|
|----------------------|---------------|
|----------------------|---------------|
|----------------------|---------------|
|----------------------|---------------|
|----------------------|---------------|

I want to post or [tab]
guest
You may want to rate the tab now too:
select rating
Please do not post tabs as comments. Select "correction" instead!