Oops, an error
Loading. Please wait.

Piece Of Mine Tab

159 views 1 this week
no commentswrite comment
1 2 3 4 5
please rate
Autoscroll
+/-
esc
set tempo
stop
Contributor
Hey! There's an official Ultimate Guitar app which is ideal
for learning songs when you're away from computer. Get the app
WARNING: You are trying to view
                                    content from Ultimate-Guitar.com
                                    in an unauthorized application,
                                    which is prohibited.

                                    Please use an official Ultimate
                                    Guitar Tabs application for iPhone,
                                    iPad or Android to access legitimate
                                    chords, guitar, bass, and drum tabs
                                    from Ultimate-Guitar.com database.

                                    Type "ultimate guitar tabs" in Apple
                                    App Store's or Android Market's
                                    search to find the application.
-------------------------------------------------------------------------------
Piece Of Mine - Be Bop Deluxe
-------------------------------------------------------------------------------

Tabbed by: axe victim

Email: ax3v1ct1m@gmail.com

Leave a message on my  ‘Ultimate Guitar’  profile or comment
here and I’ll get back to you.

Tuning: EADGBe

| /  slide up
| \  slide down
| s  slur ( very quick slide with emphasis on the last note )
| h  hammer-on
| p  pull-off
| b  bend
| r  relax bend
| pb pre-bend note to pitch
| ~  vibrato
| +  harmonic
| x  Mute note
|(0) optional note



And I thought this one would be easy!  Bill does blues with
a twist with this classic from the  Live! In The Air Age  Album.



Intro

___________________________________________________

e|-------------------------2~~~~~~/4~~\2~~~~~~~~~--|
B|-------------------------2~~~~~~/4~~\2~~~~~~~~~--|
G|-4~~~~~~/6~~\4~~~~~~~----------------------------|
D|-4~~~~~~/6~~\4~~~~~~~----------------------------|
A|-------------------------------------------------|
E|-------------------------------------------------|

 | 1 - 2 - 3 - 1 - 2 - 3 - 1 - 2 - 3 - 1 - 2 - 3 - |


Main Riff:

 x = mute strings.
(4) = optional note.
~~~ = sustain
 s = slur, very rapid slide


___B_______________________________________________

e|-------------------------------------x-----------|
B|-------------------------4-----------x-----------|
G|-------------------------4-----------x-------4---|
D|-4~~~~~~~~~~~~~~~~~~~~~~~4-----------x-------4---|
A|-2~~~~~~~~~~~~~~~~~~~~~~~------------x-----------|
E|-------------------------------------x-----------|

 | 1 - 2 - 3 - 1 - 2 - 3 - 1 - 2 - 3 - 1 - 2 - 3 - |


___B_______________________E_______________________

e|-------------------------------------0~~~~~~-----|
B|-------------------------------------------------|
G|-------------4-----------------------------------|
D|-------------4----------4s6~~~~~~~~~~~~~~~~~-----|
A|---------2----------2----------------------------|
E|--------------------------------------------0~~~-|


___B_______________________________________________
00:05
e|-------------------------------------x-----------|
B|-------------------------4-----------x-----------|
G|-------------------------4-----------x-------4---|
D|-4~~~~~~~~~~~~~~~~~~~~~~~4-----------x-----------|
A|-2~~~~~~~~~~~~~~~~~~~~~~~------------x-----------|
E|-------------------------------------x-----------|


___B_______________________E_______________________

e|-------------------------------------0~~~~~~-----|
B|-------------------------------------0~~~~~~-----|
G|-------------4-----------------------------------|
D|------------------------4s6~~~~~~~~~~~~~~~~~-----|
A|---------2---------------------------------------|
E|--------------------------------------------0~~~-|


___B_______________________________________________
00:09
e|-------------------------------------x-----------|
B|-------------------------4-----------x-----3/4---|
G|-------------------------4-----------x-----3/4---|
D|-------------------------4-----------x-----------|
A|-2~~~~~~~~~~~~~~~~~~~~~~~------------x-----------|
E|-------------------------------------x-----------|


___B_______________________E_______________________

e|-------------------------------------------------|
B|-------------------------------------0~~~~~~-----|
G|-------------4-----------------------------------|
D|------------------------4s6~~~~~~~~~~~~~~~~~-----|
A|---------2---------------------------------------|
E|--------------------------------------------0~~~-|


___B_______________________________________________

e|-------------------------------------------------|
B|-------------------------4-----------------------|
G|-------------------------4-----------------------|
D|-------------------------4-----------------------|
A|-2~~~~~~~~~~~~~~~~~~~~~~~------------------------|
E|-------------------------------------------------|


 \ = slide down

___________________________________________________
00:15
e|/2~~~~~\1~~~~~p0~~~-----2~~~~~~~\1~~~~~~p0~~~----|
B|/2~~~~~\1~~~~~p0~~~-----2~~~~~~~\1~~~~~~p0~~~----|
G|-------------------------------------------------|
D|-------------------------------------------------|
A|-------------------------------------------------|
E|-------------------------------------------------|




Verse:


___B_______________________________________________
             " Came    to  me      one rai   -  ny..."
e|-------------------------------------------------|
B|-------------------------4-----------------------|
G|-------------------------4-----------------------|
D|-------------------------4-----------------------|
A|-2~~~~~~~~~~~~~~~~~~~~~~~------------------------|
E|-------------------------------------------------|


___________________________E_______________________
 " evening... "
e|-------------------------------------------------|
B|-------------------------------------------------|
G|-------------------------------------------------|
D|-----------------------4s6~~~~~~p4~~~------------|
A|-------------------------------------------------|
E|-------------------------------------0~~~~~~~----|


___B_______________________________________________
             " Warmer      than    the setting sun..."
e|-------------------------------------------------|
B|-------------------------4-----------------------|
G|-------------------------4-----------------------|
D|-------------------------4-------------------4---|
A|-2~~~~~~~~~~~~~~~~~~~~~~~--------------------2---|
E|-------------------------------------------------|


___B_______________________________________________

e|-------------------------------------0~~~~~~-----|
B|-------------------------------------0~~~~~~-----|
G|---------4---------------------------------------|
D|---------4-----------4--4s6~~~~~~~~~~~~~~~~~-----|
A|-------------------------------------------------|
E|--------------------------------------------0~~~-|


___B_______________________________________________
             " Took    my love     by  the..."
e|-------------------------------------------------|
B|-------------------------4-----------------------|
G|-------------------------4-------------------4---|
D|-------------------------4-------------------4---|
A|-2~~~~~~~~~~~~~~~~~~~~~~~------------------------|
E|-------------------------------------------------|


__B_______________________E________________________
 " trigger..."
e|-------------------------------------------------|
B|-------------------------------------------------|
G|---------4---------------------------------------|
D|---------4-----------4~~/6~~~~~~p4~~~------------|
A|-------------------------------------------------|
E|-------------------------------------0~~~~~~~~~~-|

 | 1 - 2 - 3 - 1 - 2 - 3 - 1 - 2 - 3 - 1 - 2 - 3 - |


___B_______________________________________________
                         " shot    me  like    a   ..."
e|-------------------------------------------------|
B|-------------------------4-----------------------|
G|-------------------------4-----------------------|
D|-------------------------4-----------------------|
A|-2~~~~~~~~~~~~~~~~~~~~~~~------------------------|
E|-------------------------------------------------|


__B_______________________E________________________
 " gun..."
e|-------------------------------------------------|
B|-------------------------------------------------|
G|---------4---------------------------------------|
D|---------4-----------4~~/6~~~~~~p4~~~------------|
A|-------------------------------------------------|
E|-------------------------------------0~~~~~~~~~~-|


___B_______________________________________________
                         " Held    me     like a ..."
e|-------------------------------------------------|
B|-------------------------4-----------------------|
G|-------------------------4-----------------------|
D|-------------------------4-----------------------|
A|-2~~~~~~~~~~~~~~~~~~~~~~~------------------------|
E|-------------------------------------------------|


__B_______________________E________________________
 " baby..."
e|-------------------------------------------------|
B|-------------------------------------------------|
G|---------4-------4-------------------------------|
D|-------------------------4s6~~~~~4~~~------------|
A|-------------------------------------------------|
E|-------------------------------------0~~~~~~~~~~-|


___B_______________________________________________
                     " She laughed at  my       fears..."
e|-------------------------------------------------|
B|-------------------------4-----------------------|
G|-------------------------4-----------------------|
D|-------------------------4-----------------------|
A|-2~~~~~~~~~~~~~~~~~~~~~~~------------------------|
E|-------------------------------------------------|


__B_______________________E________________________

e|-------------------------------------0~~~~~~-----|
B|-------------------------------------0~~~~~~-----|
G|---------4---------------------------------------|
D|---------4-----------4--4s6~~~~~~~~~~~~~~~~~-----|
A|-------------------------------------------------|
E|--------------------------------------------0~~~-|


___B_______________________________________________
        " Said now        love    don't you   worry..."
e|-------------------------------------------------|
B|-------------------------4-----------------------|
G|-------------------------4-----------------------|
D|-------------------------4-----------------------|
A|-2~~~~~~~~~~~~~~~~~~~~~~~------------------------|
E|-------------------------------------------------|


__B_______________________E________________________

e|---------2---------------------------------------|
B|-----4---4---------------------------------------|
G|-4-------4---------------------------------------|
D|---------------------4~~/6~~~~~~p4~~~------------|
A|-------------------------------------------------|
E|-------------------------------------0~~~~~~~~~~-|


___B_______________________________________________
         " make every  -   thing   so        clear..."
e|-------------------------------------------------|
B|-------------------------4-----------------------|
G|-------------------------4-----------------------|
D|-4~~~~~~~~~~~~~~~~~~~~~~~4-----------------------|
A|-2~~~~~~~~~~~~~~~~~~~~~~~------------------------|
E|-------------------------------------------------|


___Bsus4___________________________________________
                                             " She's... "
e|---------0~~~~~~~--------------------------------|
B|---------0~~~~~~~--------------------------------|
G|-----------------4---------------4\--------------|
D|---------------------4-----------4\--------------|
A|-2~~~~~~~~~~~~~~---------2~~~~~~~----------------|
E|-------------------------------------------------|

 | 1 - 2 - 3 - 1 - 2 - 3 - 1 - 2 - 3 - 1 - 2 - 3 - |





Chorus: 00:46


___F#sus4__________________________________________
     " al      -       right   she's   al   -   right..."
e|-------------------------------------------------|
B|-------------------------------------------------|
G|-------------------------4-----------------------|
D|-------------------------4-----------------------|
A|-4~~~~~~~~~~~~~~~~~~~~~~~------------------------|
E|-2~~~~~~~~~~~~~~~~~~~~~~~------------------------|


___F#______________________B_______________________

e|-------------------------------------------------|
B|-------------------------------------0~~~~~~~~~~-|
G|---------------------------------4~~~~~~~~~~~~~~-|
D|-------------------------4~~/6~~~~~~~~~~~~~~~~~~-|
A|---------------------4---------------------------|
E|-------------------------------------------------|


___F#7_____________________________________________
                   " she's alright,            she's..."
e|---------------------------------------------------|
B|---------------------------------------------------|
G|-------------------------3~~~~~~~~~~~~~~~~~~~~~~~~-|
D|-------------------------2~~~~~~~~~~~~~~~~~~~2~~~~-|
A|---------------------------------------------------|
E|-2~~~~~~~~~~~~~~~~~~~~~~~~~~~~~~~~~~~~~~~~~~~~~~-|


___F#7sus4_________________________________________
 " alright,          she's got   piece of      mine... "
e|-------------------------------------------------|
B|---------0~~~~~~~~~~~~~~~~~~~~~~~----------------|
G|~4~~~~~~~~~~~~~~~~~~~~~~~~~~~~~~~3~~~~~~~~~~~----|
D|~~~~~~~~~~~~~~~~~~~~~~~~~~~~~~~~~2~~~~~~~~~~~----|
A|-------------------------------------------------|
E|-------------------------------------------------|


___B_______________________________________________
00:54
e|-------------------------------------------------|
B|-------------------------4-----------------3/4---|
G|-------------------------4-----------------3/4---|
D|-4~~~~~~~~~~~~~~~~~~~~~~~4-----------------------|
A|-2~~~~~~~~~~~~~~~~~~~~~~~------------------------|
E|-------------------------------------------------|


___B_______________________E_______________________

e|-------------2~~~2~~~------------0~~~------------|
B|-------------0~~~0~~~------------0~~~------------|
G|-------------4~~~4~~~----------------------------|
D|-------------------------4~~/6-------------------|
A|-------------------------------------------------|
E|-------------------------------------0~~~~~~~~~~-|


___B_______________________________________________

e|---------------------------------------------0~~~~-|
B|-------------------------3/4-----------------0~~~~-|
G|-------------------------3/4-----------------------|
D|-4~~~~~~~~~~~~~~~~~~~~~~~3/4-----------------------|
A|-2~~~~~~~~~~~~~~~~~~~~~~~--------------------------|
E|---------------------------------------------------|


___Bsus4___________________________________________
                                             " She's... "
e|~~~~~~~~~----------------------------------------|
B|~~~~~~~~~----------------------------------------|
G|---------4~~~--------------------4~~~~~~~~~~~\---|
D|-------------4~~~~~~~----2-------4~~~~~~~~~~~\---|
A|---------------------2---------------------------|
E|-------------------------------------------------|


___F#7_____________________________________________
         " al - right,             she's     alright... "
e|-------------------------------------------------|
B|-------------------------------------------------|
G|-------------------------3-------------------3---|
D|-------------------------2-------------------2---|
A|-4~~~~~~~~~~~~~~~~~~~~~~~------------------------|
E|-2~~~~~~~~~~~~~~~~~~~~~~~------------------------|


___F#7_____________________E_______________________

e|-------------------------------------------------|
B|-------------------------------------------------|
G|---------3-----------------------4~~~------------|
D|---------2---------------4~~/6~~~~~~~------------|
A|---------------------4---------------------------|
E|-------------------------------------0-----------|


___F#7_____________________________________________
                         " she's   al - "
e|-------------------------------------------------|
B|-------------------------------------------------|
G|-------------------------3-------3---------------|
D|-------------------------2-------2---------------|
A|-4~~~~~~~~~~~~~~~~~~~----x-------x---------------|
E|-2~~~~~~~~~~~~~~~~~~~----2-------2---------------|


___E5______________________D5______________________
 " right         she's got       piece of      mine... "
e|-------------------------------------------------|
B|-------------------------3~~~~~~~~~~~~~~~~~~~~~--|
G|-------------------------2~~~~~~~~~~~~~~~~~~~~~--|
D|-2-----------------------0~~~~~~~~~~~~~~~~~~~~~--|
A|-2-----------------------------------------------|
E|-0-----------------------------------------------|



___B_______________________________________________

e|-------------------------------------------------|
B|-------------------------4-----------------------|
G|-------------------------4-----------------------|
D|-------------------------4-----------------------|
A|-2~~~~~~~~~~~~~~~~~~~~~~~------------------------|
E|-------------------------------------------------|



__B_______________________E________________________

e|-------------------------------------------------|
B|-------------------------------------------------|
G|---------4---------------------------------------|
D|---------4-----------4~~/6~~~~~~p4~~~------------|
A|-2~~~~~~~----------------------------------------|
E|-------------------------------------0~~~~~~~~~~-|


___B___________________________________Bsus4_______

e|---------------------------------------------0~~~~
B|-------------------------4-------------------0~~~~
G|-------------------------4-----------------------|
D|-4~~~~~~~~~~~~~~~~~~~~~~~4-----------------------|
A|-2~~~~~~~~~~~~~~~~~~~~~~~--------2~~~~~~~~~~-----|
E|-------------------------------------------------|


___Bsus4___________________________________________

e|-0~~~~~~~~~~~0~~~~~~~~~~~0~~~~~~~~~~~~~~~~~~~----|
B|-0~~~~~~~~~~~0~~~~~~~~~~~0~~~~~~~~~~~~~~~~~~~----|
G|---------4-------4-------------------------------|
D|---------4-----------4---------------------------|
A|-------------------------------------------------|
E|-------------------------------------------------|




Riff 2:


___B_______________________________________________

e|-------------------------------------------------|
B|-------------------------------------------------|
G|-------------------------4~~~--------------------|
D|---------------------4-----------7~~~~~~~~~~~\---|
A|-2-------5~~/6-----------------------------------|
E|-------------------------------------------------|

 | 1 - 2 - 3 - 1 - 2 - 3 - 1 - 2 - 3 - 1 - 2 - 3 - |


___E_______________________D_______________________

e|-------------------------------------------------|
B|-------------------------------------------------|
G|-------------4~~~~~~~----------------4~~~~~~~----|
D|---------6-----------------------4~~~~~~~~~~~~---|
A|/7-----------------------5-----------------------|
E|-------------------------------------------------|


___B_______________________________________________

e|-------------------------------------------------|
B|-------------------------------------------------|
G|-------------------------4~~~--------------------|
D|---------------------4-----------7~~~~~~~~~~\----|
A|-2-------5---6-----------------------------------|
E|-------------------------------------------------|


___E5______________________E5______________________

e|-------------------------------------------------|
B|-------------------------------------------------|
G|-------------------------------------------------|
D|-------------------------------------------------|
A|/7~~~~~~~~~~~~~~~~~~~----5~~~~~~~~~~~~~~~~~~~----|
E|-------------------------------------------------|


___B_______________________________________________
01:16
e|-------------------------------------------------|
B|-------------------------------------------------|
G|-------------------------4~~~--------------------|
D|---------------------4-----------7~~~~~~~~~~~\---|
A|-2-------5~~/6-----------------------------------|
E|-------------------------------------------------|


___E_______________________D_______________________

e|-------------------------------------------------|
B|-------------------------------------------------|
G|-------------4~~~~~~~----------------4~~~~~~~----|
D|---------6-----------------------4~~~~~~~~~~~~---|
A|/7-----------------------5-----------------------|
E|-------------------------------------------------|


___B_______________________________________________

e|-------------------------------------------------|
B|-------------------------------------------------|
G|-------------------------4~~~--------------------|
D|---------------------4-----------7~~~~~~~~~~\----|
A|-2-------5---6-----------------------------------|
E|-------------------------------------------------|


___E5______________________E5______________________

e|-------------------------------------------------|
B|-------------------------------------------------|
G|-------------------------------------------------|
D|-------------------------------------------------|
A|/7~~~~~~~~~~~~~~~~~~~----5~~~~~~~~~~~~~~~~~~~----|
E|-------------------------------------------------|


___C#______________________________________________
01:31
e|-------------------------------------------------|
B|-------------------------------------------------|
G|-------------------------------------------------|
D|-------------------------------------------------|
A|-4~~~~~~~~~~~~~~~~~~~~~~~~~~~~~~~~~~~~~~~~~~~~~~~~
E|-------------------------------------------------|


___C#______________________________________________
     ( feedback... )
e|-------------------------------------------------|
B|-------------------------------------------------|
G|-------------------------------------------------|
D|-------------------------------------------------|
A|~~~~~~~~~~~~~~~~~~~~~~~~~~~~~~~~~~~~\------------|
E|-------------------------------------------------|


___F#______________________________________________
                  ( ^ = quarter tone bend )
e|-------------------------------------------------|
B|-------------------------------------------------|
G|---------------------------------4^~~~~~~r~~p2---|
D|-------------------------------------------------|
A|-------------------------------------------------|
E|-2~~~~~~~2~~~~~~~~~~~----------------------------|


___F#______________________________________________

e|-------------------------------------------------|
B|-------------------------------------------------|
G|-4-------2---------------------------------------|
D|-------------4-----------------------------------|
A|---------------------3---4~~~~~~-3---4~~~~~~~----|
E|-------------------------------------------------|




Middle Section:


___A_______________________________________________
01:38
e|-------------------------------------------------|
B|-------------2-------3---5~~~~~~/7~~\5~~~~-------|
G|-------------2-------2---4~~~~~~/6~~\4~~~~~------|
D|---------------------------------------------2---|
A|-0~~~~~~~------------------------------------0---|
E|-------------------------------------------------|

 | 1 - 2 - 3 - 1 - 2 - 3 - 1 - 2 - 3 - 1 - 2 - 3 - |


___A_______________________________________________

e|-------------------------------------------------|
B|-------------------------------------------------|
G|------------4b5^~~---4---2-----------------------|
D|-----------------------------4---------------2~~~~
A|-0~~~~~~~0~~---------------------3~~/4-----------|
E|-------------------------------------------------|


___A___________D/A_________________A___D/A_________

e|-------------------------------------------------|
B|-------------3~~~~~~~~~~~~~~~~~~-2---3~~~~~~~~~~-|
G|-------------2~~~~~~~~~~~~~~~~~~-2---2~~~~~~~~~~-|
D|-------------4~~~~~~~~~~~~~~~~~~-2---4~~~~~~~~~~-|
A|-0~~~~~~~~~~~~~~~~~~~~~~~~~~~~~~~~~~~~~~~~~~~~~~-|
E|-------------------------------------------------|


___A_______________________________________________
                       ( drum fill... )
e|-------------------------------------------------|
B|-2-----------------------------------------------|
G|-2-----------------------------------------------|
D|-2-----------------------------------------------|
A|-0-----------------------------------------------|
E|-------------------------------------------------|


___A_______________________________________________
01:46
e|-------------2-------------------0---------------|
B|-------------2-------------------0-----------2~~~~
G|---------------------------------------------2~~~~
D|-------------------------------------------------|
A|-0~~~~~~~~~~-------------0~~~~~~-----0-----------|
E|-------------------------------------------------|


___A_______________________________________________
     ( bend is slightly more than a half-tone )
e|-------------------------------------------------|
B|-------------------------------------------------|
G|------------4b5^~~---4---2-----------------------|
D|-----------------------------4---------------2~~~|
A|---------------------------------3~~/4-----------|
E|-------------------------------------------------|


___A___________D/A_________________________________

e|-------------------------------------------------|
B|-------------3~~~~~~~~~~~~~~~~~~~~~~~~~~~~~~~~~~-|
G|-------------2~~~~~~~~~~~~~~~~~~~~~~~~~~~~~~~~~~-|
D|-------------4~~~~~~~~~~~~~~~~~~~~~~~~~~~~~~~~~~-|
A|-0~~~~~~~~~~~~~~~~~~~~~~~~~~~~~~~~~~~~~~~~~~~~~~-|
E|-------------------------------------------------|


___A_______________________________________________

e|-------------------------------------------------|
B|-------------------------------------------------|
G|-2-----------------------------------------------|
D|-2-----------------------------------------------|
A|-0-----------------------------------------------|
E|-------------------------------------------------|


___G_______________________________________________
           ( let ring for two bars... )
e|-------------------------------------------------|
B|-------------------------------------------------|
G|-------------------------------------------------|
D|-------------------------------------------------|
A|-5~~~~~~~~~~~~~~~~~~~~~~~~~~~~~~~~~~~~~~~~~~~~~~~~~
E|-3~~~~~~~~~~~~~~~~~~~~~~~~~~~~~~~~~~~~~~~~~~~~~~~~~



Continues...


___B_______________________________________________

e|-------------------------------------------------|
B|-------------------------------------------------|
G|-------------------------------------------------|
D|-------------------------9~~~-----------------11-|
A|-----------9s11----------------------11----------|
E|/7-----------------------------------------------|


___B_______________________E_______________________

e|-------------------------------------------------|
B|-------------------------12~~~~~~~~~-------------|
G|---------11-h13----------------------13~~~-------|
D|/13----------------------------------------------|
A|-------------------------------------------------|
E|-------------------------------------------------|


___B_______________________________________________

e|---------------------------------16--------------|
B|---------19b21~~~~~~~~~~-19--------------19------|
G|-------------------------------------------------|
D|-------------------------------------------------|
A|-------------------------------------------------|
E|-------------------------------------------------|


___________________________________________________

e|-------------------------------------------------|
B|-------------------------------------------------|
G|-18^-----18------16------------------------------|
D|-------------------------18~~~---16--------------|
A|-----------------------------------------18\16~~-|
E|-------------------------------------------------|


___B_______________________________________________

e|-------------------------------------------------|
B|-------------------------------------------------|
G|-------------------------------------------------|
D|-------------------------------------------------|
A|-14~~~~~~~~~~~~~~~~~~\---------------------------|
E|-------------------------------------------------|


Repeat verse.

Repeat riff 2.

Repeat middle part.

Then: ( PM = palm mute; use heel of right hand to mute strings
slightly so they don't ring too much )


___A_______________________________________________
03:40
e|-------------0-----5-----------0-----------------|
B|----------2--------5-----------2-----------------|
G|-------2-----------------------2-----------------|
D|-------------------------------------------------|
A|-0-----------------------------------------------|
E|-------------------------------------------------|
   PM==============================================

 | 1  -  &  -  2  -  &  -  3  -  &  -  4  -  &  -  |


___A_______________________________________________

e|-------------0-----5-----------------------------|
B|----------2--------5-----------------------------|
G|-------2-----------------------2~----------2~----|
D|-------------------------2-h4--------2-h4--------|
A|-0-----------------------------------------------|
E|-------------------------------------------------|
   PM=====================

___A_______________________________________________

e|-------------0-----5-----------0-----------2-----|
B|----------2--------5-----------2-----------2-----|
G|-------2-----------------------2-----------------|
D|-------------------------------------------------|
A|-0-----------------------------------------------|
E|-------------------------------------------------|
   PM=============================

___A_______________________________________________

e|-------------------------------------------------|
B|-4^~~~~~~~~~~~~~~~~------4~~p2-------------------|
G|-4^~~~~~~~~~~~~~~~~------4~~p2--------2----------|
D|-------------------------------4-----------4-----|
A|-------------------------------------------------|
E|-------------------------------------------------|


___A_______________________________________________
03:48
e|-------------------------------------------------|
B|-------------2-------3---5~~~~~~/7\~5~~~~--------|
G|-------------2-----------4~~~~~~/6\~4~~~~----2---|
D|---------------------------------------------2---|
A|-0~~~~~~~------------------------------------0---|
E|-------------------------------------------------|


___A_______________________________________________
     ( bend is slightly more than a half-tone )
e|-------------------------------------------------|
B|-------------------------------------------------|
G|------------4b5^~~---4---2-----------------------|
D|-----------------------------4---------------2~~~|
A|---------------------------------3~~/4-----------|
E|-------------------------------------------------|


___A___________D/A_________________________________

e|-------------------------------------------------|
B|-------------3~~~~~~~~~~~~~~~~~~~~~~~~~~~~~~~~~~~|
G|-------------2~~~~~~~~~~~~~~~~~~~~~~~~~~~~~~~~~~~|
D|-------------4~~~~~~~~~~~~~~~~~~~~~~~~~~~~~~~~~~~|
A|-0~~~~~~~~~~~~~~~~~~~~~~~~~~~~~~~~~~~~~~~~~~~~~~-|
E|-------------------------------------------------|


___________________________________________________
( lick... )
e|/14----14----14\12~~~~---12----12----12/14~~~~---|
B|/14----14----14\12~~~~---12----12----12/14~~~~---|
G|/14----14----14\12~~~~---12----12----12/14~~~~---|
D|-------------------------------------------------|
A|-------------------------------------------------|
E|-------------------------------------------------|


___A_______________________________________________
03:55
e|-------------------------------------------------|
B|---------------------------------------------5---|
G|---------------------2~~~~~~~~~~~----4/6~~~------|
D|-------------2/4---------------------------------|
A|-0~~~~~~~~~~~--------------------0---------------|
E|-------------------------------------------------|


___A_______________________________________________

e|-5~~~~~~~----------------------------------------|
B|-5h7~~~~~----5~~~~~~~5~~~------------------------|
G|-------------6~~~~~~~6~~~6s4~~~--2---4-----------|
D|-------------------------------------------------|
A|-------------------------------------------------|
E|-------------------------------------------------|


___A_______________________________________________

e|-------------------------------------------------|
B|-5^----------7-------5^--------------------------|
G|-5^----------7-------5^-h6-------5---------------|
D|---------7-------------------7---5---------------|
A|-------------------------------------7-----------|
E|-------------------------------------------------|


___A_______________________________________________
         (  bass, arranged for guitar... )
e|-------------------------------------------------|
B|-------------------------------------------------|
G|-------------------------------------------------|
D|------(11----11-11-9-----------9-----9--9-/10)---|
A|\4~~~-(10----10-10-8-----------8-----8--8-/10)---|
E|-------------------------------------------------|


___A_______________________________________________
03:48
e|-------------------------------------------------|
B|-------------2-------3---5~~~~~~/7\~5~~~~--------|
G|-------------2-----------4~~~~~~/6\~4~~~~----2---|
D|---------------------------------------------2---|
A|-0~~~~~~~------------------------------------0---|
E|-------------------------------------------------|


___A_______________________________________________
     ( bend is slightly more than a half-tone )
e|-------------------------------------------------|
B|-------------------------------------------------|
G|------------4b5^~~---4---2-----------------------|
D|-----------------------------4---------------2~~~|
A|---------------------------------3~~/4-----------|
E|-------------------------------------------------|


___A___________D/A_________________________________

e|-------------------------------------------------|
B|-------------3~~~~~~~~~~~~~~~~~~~~~~~~~~~~~~~~~~~|
G|-------------2~~~~~~~~~~~~~~~~~~~~~~~~~~~~~~~~~~~|
D|-------------4~~~~~~~~~~~~~~~~~~~~~~~~~~~~~~~~~~~|
A|-0~~~~~~~~~~~~~~~~~~~~~~~~~~~~~~~~~~~~~~~~~~~~~~-|
E|-------------------------------------------------|


___A_______________________________________________
       (      bass, arranged for guitar...      )
e|-------------------------------------------------|
B|-------------------------------------------------|
G|-2-----------------------------------------------|
D|-2-------------------------------------------0---|
A|-0---16------15------14------13----------0-------|
E|---------14------13------12------11~~\-----------|

 | 1 - 2 - 3 - 1 - 2 - 3 - 1 - 2 - 3 - 1 - 2 - 3 - |


___A_______________________________________________
04:10      ( ^ = quarter-tone or slight bend )
e|-------------------------------------5-----------|
B|-------------2-----------5^------7---5-----------|
G|-------------2-----------5^------7-----------7b9~~
D|-------------2-----------------------------------|
A|-0-----------------------------------------------|
E|-------------------------------------------------|


___________________________________________________

e|---------5~~~---------5--------------------------|
B|---------5~~~---------5--7~~~^~~r7~~~7~~~~~~~----|
G|~~~~~~~~~~---7b9~~~~~~---7~~~^~~r7~~~7~~~~~~~----|
D|-------------------------------------------------|
A|-------------------------------------------------|
E|-------------------------------------------------|


___A_______________________________________________

e|-------------------------------------------------|
B|-5^----------7-------5^--------------------------|
G|-5^----------7-------5^-h6-------5~~\4~~~--------|
D|---------7-----------------------5~~\4~~~--------|
A|-----------------------------------------7---5---|
E|-------------------------------------------------|


___A_______________________________________________
                    ( piano fill... )
e|-------------------------------------------------|
B|-------------------------------------------------|
G|-------------------------------------------------|
D|-------------------------------------------------|
A|-4-----------------------------------------------|
E|-------------------------------------------------|


___A_______________________________________________
04:18
e|-------------------------------------------------|
B|-------------------------------------------------|
G|-------------------------------------------------|
D|-9b11----9b11r9~p7-------7~~~----7~~~------------|
A|---------------------9-----------------9---7---9-|
E|-------------------------------------------------|



Repeat last bar twice more...


___A_______________________________________________
                   ( piano fill )
e|-------------------------------------------------|
B|-------------------------------------------------|
G|-------------------------------------------------|
D|-7\----------------------------------------------|
A|-------------------------------------------------|
E|-------------------------------------------------|


___A_______________________________________________
04:25
e|-------------------------------------------------|
B|-------------------------------------------------|
G|-7b9-----7b9r7~~p5-------5~~~----5~~~------------|
D|---------------------7-----------------7---5---7-|
A|-------------------------------------------------|
E|-------------------------------------------------|



Repeat last bar twice more...


___________________________________________________

e|-------------------------------------------------|
B|-------------------------------------------------|
G|-5~~~~~~~~~~\0~~~~~~~~~~~~~~~~~~~~~~~~~~~~~~~~~~~|
D|-------------0~~~~~~~~~~~~~~~~~~~~~~~~~~~~~~~~~~-|
A|-------------------------------------------------|
E|-------------------------3-----------------------|


___B_______________________________________________
04:36
e|-------------------------------------------------|
B|-------------------------12~~~-------12~~~~~~~---|
G|---------------------11--------------------------|
D|-------------------------------------------------|
A|-------------------------------------------------|
E|-------------------------------------------------|


___B___________________E___________________________

e|-10^---------12------10~/11----------------------|
B|----------12-----------------12------------------|
G|---------------------------------11~~~~~~~~~~~\--|
D|-------------------------------------------------|
A|-------------------------------------------------|
E|-------------------------------------------------|


___B________________________________________________

e|-------------------------7-----------------------|
B|---------10b12~~~~~~~~-------10p7----------------|
G|-----------------------------------9~h11p7~h8----|
D|-----------------------------------------------9-|
A|-------------------------------------------------|
E|-------------------------------------------------|


___B_______________________E_______________________
04:41
e|-------------------------------------------------|
B|-------------------------------------------------|
G|-------7p6---------------------------------------|
D|-7p6---------9p7p6-------------------9~~\--------|
A|---------------------9-9\8p7p6-------------------|
E|-------------------------------------------------|


___B_______________________________________________
04:43
e|-------------------------------------------------|
B|---------------------------------------------12--|
G|------------------11b13~~~~~---------11----------|
D|-------------9-----------------------------------|
A|/11----------------------------------------------|
E|-------------------------------------------------|


___B______________________E________________________

e|-------------------14b16~~~~~~~~~~~~~~~~~~~~~----|
B|-11h12p11----------------------------------------|
G|----------13p11----------------------------------|
D|-------------------------------------------------|
A|-------------------------------------------------|
E|-------------------------------------------------|


___B_______________________________________________

e|-14------12------11h12p11------------------------|
B|-------------------------12----------------------|
G|-------------------------------11----------9-----|
D|-------------------------------------------------|
A|-------------------------------------------------|
E|-------------------------------------------------|


___B_______________________________________________
                  ( tempo slows... )
e|-------------------------------------------------|
B|-------------------------------------------------|
G|-8h9~----8~--------------------------------------|
D|-----------------9~------------------------------|
A|-------------------------11s9----7~------6~------|
E|-------------------------------------------------|


___B_______________________________________________
                  ( free time... )
e|-------------------------7-----------7-----------|
B|-------------------7-----7---7h10----------------|
G|-------------7h8---7--------------9----7h8-------|
D|-7/8/9~~~----------------------------------9p7\6-|
A|-------------------------------------------------|
E|-------------------------------------------------|


___B_______________________________________________
                  ( free time... )
e|-------------------------------------------------|
B|-------------------------------------------------|
G|-7p6---------------------------------------------|
D|-----9p7~~p6~~-----------------------------------|
A|--------------9\8p7p6~~~~~feedback~~~~~/17\------|
E|-------------------------------------------------|



Lyrics:


Came to me one rainy evening
Warmer then the setting sun
Took my love by the trigger
Shot me like a gun
Hold me like a baby
She laughed at my fears
Said now love don't you worry
Make everything so clear
She's all right she's all right
She's all right she's all right
She's got piece of mine
She's all right she's all right
She's all right
She's got piece of mine

Smiles like the Mona Lisa
Laughs like the sun
Kisses like the greatest lover
The world has ever known
Dance like Ginger Rogers
Sing like a nightingale
Makes love like an angel
Cause my soul to wail
She's all right she's all right
She's all right she's all right
She's got piece of mine

She's all right she's all right
She's all right
She's got piece of mine



Words & music by Bill Nelson.
comments
We did not receive enough feedback on this tab! Please rate:
print report bad tab
1 2 3 4 5
I want to post or [tab]
guest
You may want to rate the tab now too:
select rating
Please do not post tabs as comments. Select "correction" instead!