Oops, an error
Loading. Please wait.

Beach Fossils Bass Tab

298 views 3 this week
no commentswrite comment
1 2 3 4 5
please rate
add to favorites launch autoscroll
font size
0
reset
Autoscroll
+/-
esc
set tempo
stop
Contributor
Difficulty
novice
WARNING: You are trying to view
                                    content from Ultimate-Guitar.com
                                    in an unauthorized application,
                                    which is prohibited.

                                    Please use an official Ultimate
                                    Guitar Tabs application for iPhone,
                                    iPad or Android to access legitimate
                                    chords, guitar, bass, and drum tabs
                                    from Ultimate-Guitar.com database.

                                    Type "ultimate guitar tabs" in Apple
                                    App Store's or Android Market's
                                    search to find the application.
-----------------------------------------------------------------
Beach Fossils - Beach Fossils
-----------------------------------------------------------------
Tabbed By: Madrone6
e-mail: je.mathnerd15@gmail.com
Tuning: Standard



1. Sometimes

Repeat throughout the whole song:

G|----------------------|10--------------------|
D|11---11-11------------|---13---11---13-11----|
A|-----------11---11-11-|-------------------13-|
E|----------------------|----------------------|

G|----------------------|10--------------------|
D|11---11-11------------|---13---11---13-11----|
A|-----------13---13-13-|-------------------13-|
E|----------------------|----------------------|



2. Youth

Intro: (x3)

G|----------------|----------------|----------------|----------------|
D|----------------|----------------|7-7-7-6-6-6-----|----------------|
A|7---7-7-7-9-9-9-|----------------|------------9-9-|7---7-7-7-7-7---|
E|----------------|9---9-9-9-9-9-9-|----------------|--------------9-|

Verse: (x4)

G|----------------|----------------|----------------|----------------|
D|----------------|----------------|7-7-7-6-6-6-----|----------------|
A|7---7-7-7-9-9-9-|----------------|------------9-9-|7---7-7-7-7-7---|
E|----------------|9---9-9-9-9-9-9-|----------------|--------------9-|

Bridge - Part 1: (x3)

G|----------------|----------------|----------------|----------------|
D|----------------|7-7-7-6-6-6-----|----------------|9---9-6---------|
A|----------------|------------9-9-|7---7-7-7-7-7-7-|------------9---|
E|5---5-5-5-5-5-5-|----------------|----------------|----------------|

Bridge - Part 2: (x1)

G|----------------|----------------|----------------|------6---6-6-6-|
D|----------------|7-7-7-6-6-6-----|----------------|9---9-----------|
A|----------------|------------9-9-|7---7-7-7-7-7-7-|----------------|
E|5---5-5-5-5-5-5-|----------------|----------------|----------------|

Verse: (x4)

Bridge - Part 1: (x3)

Bridge - Part 2: (x1)

Outro: (x4)

G|----------------|----------------|----------------|----------------|
D|----------------|----------------|7-7-7-6-6-6-----|----------------|
A|7---7-7-7-9-9-9-|----------------|------------9-9-|7---7-7-7-7-7---|
E|----------------|9---9-9-9-9-9-9-|----------------|--------------9-|



3. Vacation

Repeat throughout the whole song: 

G|-----------------------|----------------|----------------|
D|10---10-10-10-10-10-10-|8---8-8-8-8-8-8-|----------------|
A|-----------------------|----------------|8---8-8-8-8-8-8-|
E|-----------------------|----------------|----------------|

G|-----------------------|
D|10---10-10-10-10-10-10-|
A|-----------------------|
E|-----------------------|



4. Lazy Day

Intro: (x2)

G|---------------------|---------------------|---------------------|
D|13---13---13-13-13---|11---11---11-11-11---|---------------------|
A|---------------------|---------------------|14---14---14-14-14---|
E|---------------------|---------------------|---------------------|

G|---------------------|
D|---------------------|
A|14---14---14-14-14---|
E|---------------------|

Verse: (x2)

G|---------------------|---------------------|---------------------|
D|---------------------|---------------------|---------------------|
A|14---14---14-14-14---|14---14---14-14-14---|14---14---14-14-14---|
E|---------------------|---------------------|---------------------|

G|---------------------|---------------------|---------------------|
D|---------------------|13---13---13-13-13---|11---11---11-11-11---|
A|14---14---14-14-14---|---------------------|---------------------|
E|---------------------|---------------------|---------------------|

G|---------------------|---------------------|
D|---------------------|---------------------|
A|14---14---14-14-14---|14---14---14-14-14---|
E|---------------------|---------------------|

Break: (x2)

G|----------------------|----------------------|----------------------|
D|----------------------|----------------------|----------------------|
A|----------------------|----------------------|14---14---14-14-14-14-|
E|14---14---14-14-14-14-|14---14---14-14-14-14-|----------------------|

G|----------------------|----------------------|----------------------|
D|----------------------|13---13---13-13-13-13-|13---13---13-13-13-13-|
A|14---14---14-14-14-14-|----------------------|----------------------|
E|----------------------|----------------------|----------------------|

G|----------------------|----------------------|
D|----------------------|----------------------|
A|14---14---14-14-14-14-|14---14---14-14-14-14-|
E|----------------------|----------------------| 

Intro: (x2)

Verse: (x2)

Intro: (x1)

Outro: (x2)

G|----------------------|----------------------|----------------------|
D|----------------------|----------------------|----------------------|
A|----------------------|----------------------|14---14---14-14-14-14-|
E|14---14---14-14-14-14-|14---14---14-14-14-14-|----------------------|

G|----------------------|----------------------|----------------------|
D|----------------------|----------------------|----------------------|
A|14---14---14-14-14-14-|----------------------|----------------------|
E|----------------------|14---14---14-14-14-14-|14---14---14-14-14-14-|

G|----------------------|----------------------|----------------------|
D|----------------------|----------------------|13---13---13-13-13-13-|
A|14---14---14-14-14-14-|14---14---14-14-14-14-|----------------------|
E|----------------------|----------------------|----------------------|

G|----------------------|----------------------|----------------------|
D|13---13---13-13-13-13-|----------------------|----------------------|
A|----------------------|14---14---14-14-14-14-|14---14---14-14-14-14-|
E|----------------------|----------------------|----------------------| 



5. Twelve Roses

Intro: (x4)

G|-----------------------|11---11-11-11-11-11-11-|-----------------------|
D|14---14-14-14-14-14-14-|-----------------------|11---11-11-11-11-11-11-|
A|-----------------------|-----------------------|-----------------------|
E|-----------------------|-----------------------|-----------------------|

G|-----------------------|
D|11---11-11-11-11-11-11-|
A|-----------------------|
E|-----------------------|

Verse: (x4)

G|-----------------------|11---11-11-11-11-11-11-|-----------------------|
D|14---14-14-14-14-14-14-|-----------------------|11---11-11-11-11-11-11-|
A|-----------------------|-----------------------|-----------------------|
E|-----------------------|-----------------------|-----------------------|

G|-----------------------|
D|11---11-11-11-11-11-11-|
A|-----------------------|
E|-----------------------|

Break: (x4)

G|-----------------11---|13---11--------11---|-----------------------|
D|14---14-14-14-14------|----------14--------|11---11-11-11-11-11-11-|
A|----------------------|--------------------|-----------------------|
E|----------------------|--------------------|-----------------------|

G|-----------------------|
D|14---14-14-14-14-14-14-|
A|-----------------------|
E|-----------------------|

Verse: (x4)

Break: (x4)

Bridge: (x6)

G|----------------------|-----------------11---|
D|14---14-14-14-14-11---|----------------------|
A|----------------------|11---11-11-11-11------|
E|----------------------|----------------------|

Outro: (x1)

G|-----------------11---|13---11--------11---|13---13-13-13-13-11---|
D|14---14-14-14-14------|----------14--------|----------------------|
A|----------------------|--------------------|----------------------|
E|----------------------|--------------------|----------------------|

G|-----------11---11-11-|
D|14---14-14------------|
A|----------------------|
E|----------------------|



6. Daydream

Intro: (x4)

Main bassline:

G|----------------------|----------------------|----------------|
D|12---12---12-12-12----|----------------------|9---9---9-9---9-|
A|-------------------10-|--10-10-10---10-10-10-|----------------|
E|----------------------|----------------------|----------------|

G|----------------|
D|--9-9-9---9-9-9-|
A|----------------|
E|----------------|

Intro Variations:

Variation 1:

G|-------------11------|----------------------|----------------|
D|12---12---12---------|----------------------|9---9---9-9---9-|
A|------------------10-|--10-10-10---10-10-10-|----------------|
E|---------------------|----------------------|----------------|

G|----------------|
D|--9-9-9---9-9-9-|
A|----------------|
E|----------------|

Variation 2:

G|----------------------|----------------------|----------------|
D|12---12---12-12-12----|----------------------|9---9---9-9---9-|
A|-------------------10-|--10-10-10---10-10-10-|----------------|
E|----------------------|----------------------|----------------|

G|----------------|
D|--9-9-9---9-9-9-|
A|----------------|
E|----------------| 

Verse: (x4)

Main bassline:

G|----------------------|----------------------|----------------|
D|12---12---12-12-12----|----------------------|9---9---9-9---9-|
A|-------------------10-|--10-10-10---10-10-10-|----------------|
E|----------------------|----------------------|----------------|

G|----------------|
D|--9-9-9---9-9-9-|
A|----------------|
E|----------------|

Verse Variations:

Variation 1:

G|-------------11------|----------------------|----------------|
D|12---12---12---------|----------------------|9---9---9-9---9-|
A|------------------10-|--10-10-10---10-10-10-|----------------|
E|---------------------|----------------------|----------------|

G|----------------|
D|--9-9-9---9-9-9-|
A|----------------|
E|----------------|

Variation 2:

G|-------------11------|-------12---11-11---|----------------|
D|12---12---12---------|--------------------|9---9---9-9---9-|
A|------------------10-|--10----------------|----------------|
E|---------------------|--------------------|----------------|

G|----------------|
D|--9-9-9---9-9-9-|
A|----------------|
E|----------------| 

Variation 3:

G|----------------------|----------------------|----------------|
D|12---12---12-12-12----|----------------------|9---9---9-9---9-|
A|-------------------10-|--10-10-10---10-10-10-|----------------|
E|----------------------|----------------------|----------------|

G|----------------|
D|--9-9-9---9-9-9-|
A|----------------|
E|----------------| 

Verse: (x4)

Break: (x4)

Main bassline: 

G|----------------------|----------------------|----------------|
D|12---12---12-12-12----|----------------------|9---9---9-9---9-|
A|-------------------10-|--10-10-10---10-10-10-|----------------|
E|----------------------|----------------------|----------------|

G|----------------|
D|--9-9-9---9-9-9-|
A|----------------|
E|----------------|

Break Variations:

Variation 1:

G|-------------11------|----------------------|----------------|
D|12---12---12---------|----------------------|9---9---9-9---9-|
A|------------------10-|--10-10-10---10-10-10-|----------------|
E|---------------------|----------------------|----------------|

G|----------------|
D|--9-9-9---9-9-9-|
A|----------------|
E|----------------|

Variation 2:

G|----------------------|----------------------|----------------|
D|12---12---12-12-12----|----------------------|9---9---9-9---9-|
A|-------------------10-|--10-10-10---10-10-10-|----------------|
E|----------------------|----------------------|----------------|

G|----------------|
D|--9-9-9---9-9-9-|
A|----------------|
E|----------------| 

Verse: (x4)

Bridge - Part 1: (x3) 

G|------------------------|------------------------|
D|------------------------|---------------14-14----|
A|12-12-12-12-12-12-12-12-|12-12-12-12-12-------10-|
E|------------------------|------------------------|
                                                      
G|------------------------|------------------------|
D|------------------------|---------------12-12----|
A|10-10-10-10-10-10-10-10-|10-10-10-10-10-------12-|
E|------------------------|------------------------|

Bridge - Part 2: (x1)

G|------------------------|------------------------|
D|------------------------|------------------------|
A|12-12-12-12-12-12-12-12-|12-12-12-12-12-------10-|
E|------------------------|---------------12-12----|
                                                       
G|------------------------|------------------------|
D|------------------------|------------------------|
A|10-10-10-10-10-10-10-10-|10-10-10-10-10-10-10-10-|
E|------------------------|------------------------|

Outro: (x6)

Main bassline:

G|----------------------|----------------------|----------------|
D|12---12---12-12-12----|----------------------|9---9---9-9---9-|
A|-------------------10-|--10-10-10---10-10-10-|----------------|
E|----------------------|----------------------|----------------|

G|----------------|
D|--9-9-9---9-9-9-|
A|----------------|
E|----------------|

Outro Variations:

Variation 1:

G|-------------11------|----------------------|----------------|
D|12---12---12---------|----------------------|9---9---9-9---9-|
A|------------------10-|--10-10-10---10-10-10-|----------------|
E|---------------------|----------------------|----------------|

G|----------------|
D|--9-9-9---9-9-9-|
A|----------------|
E|----------------|

Variation 2:

G|----------------------|----------------------|----------------|
D|12---12---12-12-12----|----------------------|9---9---9-9---9-|
A|-------------------10-|--10-10-10---10-10-10-|----------------|
E|----------------------|----------------------|----------------|

G|----------------|
D|--9-9-9---9-9-9-|
A|----------------|
E|----------------| 

Variation 3:

G|----------------------|----------------------|----------------|
D|12---12---12-12-12----|----------------------|9---9---9-9---9-|
A|-------------------10-|--10-10-10---10-10-10-|----------------|
E|----------------------|----------------------|----------------|

G|----------------|
D|--9-9-9---9-9-9-|
A|----------------|
E|----------------|

Variation 4:

G|-------------11------|----------------------|----------------|
D|12---12---12---------|----------------------|9-9-9-9-9-9-9---|
A|------------------10-|--10-10-10---10-10-10-|----------------|
E|---------------------|----------------------|----------------|



7. Golden Age

Intro: (x4)

G|----6-----6-----|------------6---|------9---9-6---|------------6---|
D|7-----9-----9---|7---7-9---9-----|----------------|------9---9-----|
A|----------------|----------------|9---9-----------|9---9-----------|
E|----------------|----------------|----------------|----------------|

Verse: (x4)

G|----6-----6-----|------------6---|------9---9-6---|------------6---|
D|7-----9-----9---|7---7-9---9-----|----------------|------9---9-----|
A|----------------|----------------|9---9-----------|9---9-----------|
E|----------------|----------------|----------------|----------------|

Bridge: (x4)

G|9-9-9---------9-11-|--11-11-9---9------|----------------|----------------|
D|------11---11------|--------------11---|9-9-9---------7-|--7-9-----------|
A|-------------------|-------------------|------9---9-9---|------9---9-9---|
E|-------------------|-------------------|----------------|----------------|

Break: (x2)

G|----6-----6-----|------------6---|------9---9-6---|------------6---|
D|7-----9-----9---|7---7-9---9-----|----------------|------9---9-----|
A|----------------|----------------|9---9-----------|9---9-----------|
E|----------------|----------------|----------------|----------------|

Verse (x4)

Bridge (x4)

Break: (x2)

Verse (x4)

Bridge (x8)

Outro: (x2)

G|----6-----6-----|------------6---|------9---9-6---|------------6---|
D|7-----9-----9---|7---7-9---9-----|----------------|------9---9-----|
A|----------------|----------------|9---9-----------|9---9-----------|
E|----------------|----------------|----------------|----------------|

End on:

G|----------------|
D|7---------------|
A|----------------|
E|----------------|



8. Window View

Intro & Verse: no bass

Break 1: (x1)

G|---------------------|-----------------11------|----------------------|
D|---------------------|---11----11/13--------13-|--11------------------|
A|--11-14---14---14-11-|14----14-----------------|-----14-11-14---14-11-|
E|---------------------|-------------------------|----------------------|

G|----------------11------|--11-13---13---11---|---11----------------|
D|---11---11/13--------13-|--------------------|13------13---11---13-|
A|14----------------------|--------------------|---------------------|
E|------------------------|--------------------|---------------------|

G|----------------------|---------------------|----------------------|
D|11--------------------|---------------------|----------------------|
A|---14-11-14---14---14-|14---14---14---14-11-|14-11-14---14---14-11-|
E|----------------------|---------------------|----------------------|

G|-----------------11------|----------------------|----------------11------|
D|---11----11/13--------13-|--11------------------|---11---11/13--------13-|
A|14----14-----------------|-----14-11-14---14-11-|14----------------------|
E|-------------------------|----------------------|------------------------|

G|--11-13---13---11---|---11----------------|----------------------|
D|--------------------|13------13---11---13-|11--------------------|
A|--------------------|---------------------|---14-11-14---14---14-|
E|--------------------|---------------------|----------------------|

G|---------------------|---------------------|
D|---------------------|---------------------|
A|14---14---14---14-11-|14-11---14---14---14-|
E|---------------------|---------------------|

Verse - Part 1: (x6)

G|--------------------|
D|--------------------|
A|14-----14---14---14-|
E|--------------------|

Verse - Part 2: (x1)

G|----------------------|
D|----------14-14-14-14-|
A|14-----14-------------|
E|----------------------|

Verse - Part 1: (x8)

Break 2: (x2)

G|---------------------|-----------------11------|----------------------|
D|---------------------|---11----11/13--------13-|--11------------------|
A|--11-14---14---14-11-|14----14-----------------|-----14-11-14---14-11-|
E|---------------------|-------------------------|----------------------|

G|----------------11------|--11-13---13---11---|---11----------------|
D|---11---11/13--------13-|--------------------|13------13---11---13-|
A|14----------------------|--------------------|---------------------|
E|------------------------|--------------------|---------------------|

G|----------------------|---------------------|----------------------|
D|11--------------------|---------------------|----------------------|
A|---14-11-14---14---14-|14---14---14---14-11-|14-11-14---14---14-11-|
E|----------------------|---------------------|----------------------|

G|-----------------11------|----------------------|----------------11------|
D|---11----11/13--------13-|--11------------------|---11---11/13--------13-|
A|14----14-----------------|-----14-11-14---14-11-|14----------------------|
E|-------------------------|----------------------|------------------------|

G|--11-13---13---11---|---11----------------|----------------------|
D|--------------------|13------13---11---13-|11--------------------|
A|--------------------|---------------------|---14-11-14---14---14-|
E|--------------------|---------------------|----------------------|

G|---------------------|
D|---------------------|
A|14---14---14---14-11-|
E|---------------------|



9. The Horse

Repeat throughout the song:

Main bassline:

G|-----------------------|-----------------------|-----------------------|
D|-----------------------|12---12-12-12-12-12-12-|10---10-10-10-10-10-10-|
A|10---10-10-10-10-10-10-|-----------------------|-----------------------|
E|-----------------------|-----------------------|-----------------------|

G|-----------------------|
D|10---10-10-10-10-10-10-|
A|-----------------------|
E|-----------------------|

Variations:

Variation 1:

G|-----------------------|-----------------------|-----------------------|
D|-----------------------|12---12-12-12-12-12-12-|10---10-10-10-10-10-10-|
A|10---10-10-10-10-10-10-|-----------------------|-----------------------|
E|-----------------------|-----------------------|-----------------------|

G|-----------9--------|
D|10---10-10-----10---|
A|--------------------|
E|--------------------|

Variation 2:

G|-----------------------|-----------------9---|-----------------------|
D|-----------------------|12---12-12-12-12-----|10---10-10-10-10-10-10-|
A|10---10-10-10-10-10-10-|---------------------|-----------------------|
E|-----------------------|---------------------|-----------------------|

G|--------------------|
D|10---10-10-9--------|
A|---------------12---|
E|--------------------|



10. Wide Awake

Verse: (x6)

G|14/16--14----------14/16-|--14-----------------|-------------------------|
D|------------14-13--------|-------14---13-13-14-|14/16---16-16-16-14------|
A|-------------------------|---------------------|----------------------16-|
E|-------------------------|---------------------|-------------------------|

G|----------------------|
D|----------------------|
A|--16-16-16---14-14-14-|
E|----------------------|

Break 1: (x6)

G|13---13-13-13-13-13----|----------------------|-----------------------|
D|--------------------14-|--14-14-14---14-14-14-|-----------------------|
A|-----------------------|----------------------|14---14-14-14-14-14-16-|
E|-----------------------|----------------------|-----------------------|

G|----------------------|
D|----------------------|
A|--16-16-16---16-16-16-|
E|----------------------| 

Break 2: (x2)

G|14/16--14----------14/16-|--14-----------------|-------------------------|
D|------------14-13--------|-------14---13-13-14-|14/16---16-16-16-14------|
A|-------------------------|---------------------|----------------------16-|
E|-------------------------|---------------------|-------------------------|

G|----------------------|
D|----------------------|
A|--16-16-16---14-14-14-|
E|----------------------|

Verse: (x4)

Break 2: (x2)

Outro: (x1)

G|13---13-13-13-13-13----|----------------------|-----------------------|
D|--------------------14-|--14-14-14---14-14-14-|-----------------------|
A|-----------------------|----------------------|14---14-14-14-14-14-16-|
E|-----------------------|----------------------|-----------------------|

G|----------------------|
D|----------------------|
A|--16-16-16---16-16-16-|
E|----------------------| 



11. Gathering 

G|---------------------|---------------------|----------------------|
D|10---10---10-12------|---------------10----|10---10---10-12---/14-|
A|------------------10-|----10-10---------12-|----------------------|
E|---------------------|---------------------|----------------------|

G|--------------12-12-|12-----------12------|---------------------|
D|--12---10-----------|-----14---14------14-|--12---14---12-10-12-|
A|--------------------|---------------------|---------------------|
E|--------------------|---------------------|---------------------|

G|----------------------|---------------------|-----------------|
D|/14---12---10-12---10-|--10-10-10-----10-10-|--------10-12-10-|
A|----------------------|---------------------|-----------------|
E|----------------------|---------------------|-----------------|

G|------12--------------|-----------------------|---------------------|
D|/14------14---12-10---|10---12-10-/14-12---10-|----10---10----------|
A|----------------------|-----------------------|------------12-10-12-|
E|----------------------|-----------------------|---------------------|

G|----------------------|---------------------|-----------------------|
D|-----10----10---12-10-|---------------------|-----10----10-12---/14-|
A|12------12------------|--12---10---10-12-10-|12------12-------------|
E|----------------------|---------------------|-----------------------|

G|--12--------12-----|14-------14-12-----|------------12------|
D|-------14----------|-------------------|14-------14----14---|
A|-------------------|-------------------|--------------------|
E|-------------------|-------------------|--------------------|

G|--------------------|-----------12------12-|----14-----14-12-14-|
D|----/14---10-12-----|10-/14----------14----|--------------------|
A|--------------------|----------------------|--------------------|
E|--------------------|----------------------|--------------------|

G|12--------12---------|-------------------|----------------12----|
D|-----14------14---12-|--10-----12-10-----|12-10-/14----------14-|
A|---------------------|-------------------|----------------------|
E|---------------------|-------------------|----------------------|

G|---------------------|-----------------------|-----------------|
D|12-14----------------|10----------10---------|-----------------|
A|---------------10-12-|-----10-h12----12-10---|-----------------|
E|---------------------|-----------------------|12-------8---8---|

G|------------------|--------------------|------------------------|
D|------------------|---------------10---|-----10-/14-12-10-12-15-|
A|------------------|---------10-12------|--12--------------------|
E|--8-----12---12---|--12----------------|------------------------|

G|12----------------|
D|-----14-----------|
A|------------------|
E|------------------|





| /  slide up
| \  slide down
| h  hammer-on
| p  pull-off
| ~  vibrato
| +  harmonic
| x  Mute note
comments
We did not receive enough feedback on this tab! Please rate:
print report bad tab
1 2 3 4 5
I want to post or [tab]
guest
You may want to rate the tab now too:
select rating
Please do not post tabs as comments. Select "correction" instead!