Oops, an error
Loading. Please wait.

Hey Now What Now Tab

68 views 5 this week
no commentswrite comment
1 2 3 4 5
please rate
add to favorites launch autoscroll
font size
0
reset
Autoscroll
+/-
esc
set tempo
stop
Contributor
Difficulty
WARNING: You are trying to view
                                    content from Ultimate-Guitar.com
                                    in an unauthorized application,
                                    which is prohibited.

                                    Please use an official Ultimate
                                    Guitar Tabs application for iPhone,
                                    iPad or Android to access legitimate
                                    chords, guitar, bass, and drum tabs
                                    from Ultimate-Guitar.com database.

                                    Type "ultimate guitar tabs" in Apple
                                    App Store's or Android Market's
                                    search to find the application.
Song: Hey Now What Now
Band: Beans
Albm: Sundown

Intro:
|  B    G    D    A
|----------------------|
|----------------------|
|--4---------7---------|
|--4----5----7----7----|
|--2----5----5----7----|
|-------3---------5----|

Verse:
|  Bm              D       E
|--x-2-x-2-x-2-x-2-x-5-x-5-x-7-x-7-x--|
|--x-3-x-3-x-3-x-3-x-7-x-7-x-9-x-9-x--|
|--x-4-x-4-x-4-x-4-x-7-x-7-x-9-x-9-x--|
|--x-4-x-4-x-4-x-4-x-7-x-7-x-9-x-9-x--| x3 
|--x-2-x-2-x-2-x-2-x-5-x-5-x-7-x-7-x--|
|-------------------------------------|
|  G       D       A       D
|--x-3-x-3-x-5-x-5-x-5-x-5-x-5-x-5--|
|--x-3-x-3-x-7-x-7-x-5-x-5-x-7-x-7--|
|--x-4-x-4-x-7-x-7-x-6-x-6-x-7-x-7--|
|--x-5-x-5-x-7-x-7-x-7-x-7-x-7-x-7--|
|--x-5-x-5-x-5-x-5-x-7-x-7-x-5-x-5--|
|--x-3-x-3---------x-5-x-5----------|

Chorus:
|  Bm              A       D
|--x-2-x-2-x-2-x-2-x-5-x-5-x-5-x-5--|
|--x-3-x-3-x-3-x-3-x-5-x-5-x-7-x-7--|
|--x-4-x-4-x-4-x-4-x-6-x-6-x-7-x-7--|
|--x-4-x-4-x-4-x-4-x-7-x-7-x-7-x-7--|
|--x-2-x-2-x-2-x-2-x-7-x-7-x-5-x-5--|
|------------------x-5-x-5----------|

Solo:
|--7-7---------------------|-----77---------------------|
|--7-7---------------------|-----77---------------------|
|------9-7---7--9-9-9-9b-7-|--------9-7---7--9-9-9-9b-7-|
|----------9---------------|------------9---------------|
|--------------------------|----------------------------|
|--------------------------|----------------------------|
|
|--------7-7-------------|-----------------------------|
|----7-7-7-7-------------|-----------7---7---7---------|
|----7-7------9-9-9-9b-7-|--------7--9b--9b--9b--9-7---|
|--9---------------------|--5-7-9--------------------9-|
|------------------------|-----------------------------|
|------------------------|-----------------------------|

Interlude:
|  Bm                        D    E
|--x-2-x-2-x-2-x-2-x-2-x-2-------------|
|--x-3-x-3-x-3-x-3-x-3-x-3-------------|
|--x-4-x-4-x-4-x-4-x-4-x-4---7---------|
|--x-4-x-4-x-4-x-4-x-4-x-4---7----2----| x4
|--x-2-x-2-x-2-x-2-x-2-x-2---5----2----|
|---------------------------------0----|
|  G        A
|--------------------|
|--------------------|
|--------------------|
|--5--------7--------|
|--5--------7--------|
|--3--------5--------|

Order:
Intro         x1
Verse         x2
Chorus        x4
Verse w/ solo x1
Verse         x2
Chorus        x4
Breakdown     x1
Chorus        x8

Verse 1
Woke up to the roll call that hailed the dawn of a new age
Had a lot of hopes and dreams as a crazy mob took centre stage
Anything that's thrown up must come down again some day
And when it does it might just crush everything in its wake

A wicked plan rolls across the land and gets stopped in its tracks
When it hits the wall of the unwilling and unruly until it cracks
Can't believe when deceieved no relief
When they leave for another b.a.double t.l.e.
Peace always came from heaven but never this violently

Chorus
So hey now what now, what's it all about
I'll buy another round so we can find the common sound
So what now hey now, what should i care about
Its that common sound coming from the underground

Verse 2
Pick a goal, assume your role, what more is there to lose
Nothing to lose but a game or two with a whole lot more to prove
No direction for your hatred, no direction for your soul
All players in the game no shame when heads are gonna roll

So here we are to experience the remainder of our days
Sometimes we all would just like to vanish without a trace
Pedal to the metal gotta get where we're gonna go
Nothing to reap when nothing's sowed, gotta go with an unknown flow

Chorus
So hey now what now, what's it all about
I'll buy another round so we can find the common sound
So what now hey now, what should i care about
Its that common sound coming from the underground

Interlude
Go with an unknown flow
'til this blind fucking ride hits the wall of no hope
So just let it all go, so it goes, its a tight rope
Its a steep slope there must be a way to cope
Hey now, so what now, the world's gone fucking broke
Hey now, so what now...

Chorus
So hey now what now, what's it all about
I'll buy another round so we can find the common sound
So what now hey now, what should i care about
Its that common sound coming from the underground

email me on owen_b123@hotmail.com

http://www.beanspunk.nl/
comments
We did not receive enough feedback on this tab! Please rate:
print report bad tab
1 2 3 4 5
I want to post or [tab]
guest
You may want to rate the tab now too:
select rating
Please do not post tabs as comments. Select "correction" instead!