Oops, an error
Loading. Please wait.

1967-1970 Disc 1 Tab

242,967 views 102 this week
2 commentsread comments
1 2 3 4 5
excellent!
x 11
Autoscroll
+/-
esc
set tempo
stop
Contributor
Hey! There's an official Ultimate Guitar app which is ideal
for learning songs when you're away from computer. Get the app
WARNING: You are trying to view
                                    content from Ultimate-Guitar.com
                                    in an unauthorized application,
                                    which is prohibited.

                                    Please use an official Ultimate
                                    Guitar Tabs application for iPhone,
                                    iPad or Android to access legitimate
                                    chords, guitar, bass, and drum tabs
                                    from Ultimate-Guitar.com database.

                                    Type "ultimate guitar tabs" in Apple
                                    App Store's or Android Market's
                                    search to find the application.
These are tabs from the Capitol Records 1967-1970 (Blue) album. I have collected them 
previously written tabs by other members. THIS IS NOT MY WORK. if the tab is innacurate 
their fault not mine. most of these tabs were tabbed by PJVillanueva so most of the credit should go to him.


-------------------------
Strawberry Fields Forever
-------------------------

There are two other versions of this in the archives, but none are in the
right key. I thought a great song such as this deserved a proper tab in the
archives.

Because the recording of this song involved a lot of playing around with
tape speeds, you need to tune down your guitar by a whole step.

So instead of tuning your bottom string to E, tune to D, then tune the other
strings to this by playing at the 5th/4th fret (you know the routine ...)

You should end up tuned to DGCFAD.

This means that the song is based on the C chord for the guitar, but it
ends up being in the key of Bb.

I've tried to give a guitar part that does justice to all the things that are
going on in the song. For the first bit it's fairly straight forward since the
song has a guitar playing here - but later on I've tried to tab out a guitar
version of what the cellos and trumpets are doing.

Of course you can't play all of the song on just one guitar - but you can do
a pretty good job. I've written the chords above each line of tab if you just
want to strum along, and the words are underneath the line of tab.


Intro :
---------

This is played on the mellotron, but you can do it fairly easily on guitar.


    G    Gmaj7  G7           Am        G       F     C

D--------------------------------------------------------------|
A---3--3--3--3--3--3--1--0--------1--------0-------------------|
F---4--4--4--4--4--4--2--1------2--------0------2----0---------|
C---5-----4-----3--3----------2--------0--------3----2---------|
G--------------------------------------------------3-----------|
D--------------------------------------------------------------|

Chorus :
----------


    C                                   Gm7

D-------------------------------------------------------------------------|
A----------------------------------------3------------------------3--3----|
F---0------------------------------------3-------------------3--3---------|
C---2------------------------------------3----------------3---------------|
G---3------------------------------------5------------3h5-----------------|
D----------------------------------------3--------------------------------|

    Let me take you down cos' I'm going to  Strawberry fields


    A7

D----------------0----------0--0---------------------------------|
A------2--2----2------------------2--2---------------------------|
F---0--------0-----------0---------------------------------------|
C--------------------0h2-----------------------------------------|
G--------------------0-------------------------------------------|
D----------------------------------------------------------------|

    Nothing is real


     F               A7

D-------1---------------------0-----------------------------------|
A----1--1-----------------------2----2----------------------------|
F----2--------------------0-------0-------------------------------|
C----3---------------0h2------------------------------------------|
G----3---------------0--------------------------------------------|
D----1------------------------------------------------------------|

  And nothing to get hung about


    F                 C

D---------------------------------------------------------------|
A---1-----------1------1----------------------------------------|
F---2-----------2------0----------------------------------------|
C---3-----------3------2----------------------------------------|
G---3-----------3------3----------------------------------------|
D---1-----------1-----------------------------------------------|

    Strawberry fields forever

Verse 1:
---------

    G         Gmaj7     G7

D--------------------------------------------------------------------|
A---3--3------3--3-----3--3---1---0----------------------------------|
F---4--4------4--4-----4--4---2---1----------------------------------|
C---5---------4--------3---------------------------------------------|
G--------------------------------------------------------------------|
D--------------------------------------------------------------------|

   Living is easy with eyes closed


    Am      Am/G             F

D-------0---------0---------------1------1-----------------------------|
A-------1---------1---------------1---1------1-------------------------|
F-------2---------2-------------2------------2-------------------------|
C-----2---------2---------------3--------------------------------------|
G---0------0--------------------3--------------------------------------|
D-------------3-------------0h1----------------------------------------|

     Misunderstanding all you see

    F            G               C         G/B      Am    Am/G

D---------1----------3----------------------------------0------------|
A---------1----------3----------------------------------1------------|
F---------2-------4----------------0---------0----------2------------|
C------3----------5----------------2---------0----------2------------|
G------3-------------------------3---------2---------0---------------|
D--0h1--------1/3-------------------------------------------3--------|

    It's getting hard to be someone but it all works out


    F          G               F           C

D--------1-----------3---------------1--------------------------------|
A------1-------------3---3-----------1--1--0h1------------------------|
F------2-------------4---4-----------2--2--0--------------------------|
C------3-----------------5--------------3-----------------------------|
G---------------------------------------------------------------------|
D--0h1----------1/3-------------0h1-----------------------------------|

      It doesn't matter much to me


Chorus :
---------

   C                                   Gm               (no chord )

D--------------------------------------3-------------------------|
A--------------------------------------3-------------------------|
F--------------------------------------3-------------------------|
C--2-----------------------------------5------0------------------|
G--3-----------------------------------5---1-----1-----1------1--|
D--------------------------------------3------------3------1-----|

   Let me take you down cos' I'm going to  Strawberry fields

  (no chord)

D--------------------------------------------------------------|
A--------------------------------------------------------------|
F--------------------------------------------------------------|
C--------------------------------------------------------------|
G---7--------------7-------------------------------------------|
D---0--------------0-------------------------------------------|

       Nothing is real


      F          G     A7

D-----1----------3-----0----------------------------------------|
A-----1----------3-----2----------------------------------------|
F-----2----------4-----0----------------------------------------|
C-----3----------5-----2----------------------------------------|
G-----3----------5-----0----------------------------------------|
D-----1----------3----------------------------------------------|

  And nothing to get hung about

    F                 C

D---------------------------------------------------------------|
A---1---------1-------1-----------------------------------------|
F---2---------2-------0-----------------------------------------|
C---3---------3-------2-----------------------------------------|
G---3---------3-------3-----------------------------------------|
D---1---------1-------------------------------------------------|

   Strawberry fields forever


Linking phrase :
-----------------

This is the little downwards scale played on a harp-like instrument.
Leave all strings to sustain as much as possible.


D----1p0----------------------------------------------------------|
A---------1-------------------------------------------------------|
F-----------3p0---------------------------------------------------|
C---------------3p2-----------------------------------------------|
G--------------------3--------------------------------------------|
D-----------------------------------------------------------------|


Verse 2:
---------

    G       Gmaj7     G7

D-------------------------------------------------------------------|
A---3--------3---------3-----1---0----------------------------------|
F---4--------4---------4-----2---1----------------------------------|
C---5--------4---------3-----3---3----------------------------------|
G-------------------------------------------------------------------|
D-------------------------------------------------------------------|

   Noone I think is in my tree


    Am         Am7             F

D-----------------------------------------------------------------|
A---1-----------1--------------1----------------------------------|
F---2-----------0--------------2----------------------------------|
C---2-----------2--------------3----------------------------------|
G-------------------------------------0---------------------------|
D-----------------------------------------3-----------------------|

    I mean it must be high or low

    F              G                  C                 Am  Am/G

D--------------------------------------------------------------------|
A---1--------------3------------------1----------------1-------------|
F---2--------------4------------------0----------------2-------------|
C---3--------------5------------------2----------------2-------------|
G---3--------------5------------------3----------------0-------------|
D---1--------------3---------------------------------------3---------|

      That is you can't you know tune in but it's alright


    F               G                 F                C

D------------------------------------------------------0------0-------------------|
A---1---1---1---1---3---3---3---3------1-------1-------1------1-------------------|
F---2---2---2---2---4---4---4---4------2-------2-------0------0-------------------|
C---3---3---3---3---5---5---5---5------3-------3-------2---2-----2----------------|
G---3---3---3---3---5---5---5---5------3---0---3---0---3--------------------------|
D---1---1---1---1---3---3---3---3------1------------------------------------------|

       That is I  think it's not too bad

Chorus :
---------

   C                                   Gm

D---------------------------------------------6-6---------------|
A---------------------------------------------3-3---------------|
F---------------------------------------3-----3-3---------------|
C--2------------------------------------5-----------------------|
G--3------------------------------------5-----------------------|
D---------------------------------------3-----------------------|

     Let me take you down cos I'm going to

                                   Gm/E

D-------------------------------6-6-----------3--3--3--3--3-------|
A-------------------------------8-8-------------------------------|
F--------------3------------------------------0--0--0--0--0-------|
C--------------5--------------------------------------------------|
G--------------5-------1------------------------------------------|
D--------------3-------1-----0-------------0----------------------|

  Strawberry fields             Nothing is real

         F         G        A

D--------1---------3--------5-----------------------------------|
A--------1---------3--------5-----------------------------------|
F--------2---------4--------6-----------------------------------|
C--------3---------5--------7-----------------------------------|
G--------3---------5--------7-----------------------------------|
D--------1---------3--------5-----------------------------------|

   And nothing to get hung about

   F                   C

D---------------------------------------------------------------|
A--1-----------1-------1----------------------------------------|
F--2-----------2-------0----------------------------------------|
C--3-----------3-------2----------------------------------------|
G--3-----------3-------3----------------------------------------|
D--1-----------1------------------------------------------------|

   Strawberry fields forever

Linking phrase :
-----------------


D----1p0----------------------------------------------------------|
A---------1-------------------------------------------------------|
F-----------3p0---------------------------------------------------|
C---------------3p2-----------------------------------------------|
G--------------------3--------------------------------------------|
D-----------------------------------------------------------------|

Verse 3:
---------

    G       Gmaj7     G7

D--------------------------------------------------------------------|
A---3--3----3---3-----3---3--------1--0------------------------------|
F---4--4----4---4-----4---4--------2--1------------------------------|
C---5--5----4---4-----3---3--------3--3------------------------------|
G--------------------------------------------------------------------|
D--------------------------------------------------------------------|

   Always, no, sometimes think it's me

    Am                Am7             F

D-------------------------------------------------------------|
A---1--------1--------1-------1-------1-----------------------|
F---2--------2--------0-------0-------2-----------------------|
C---2--------2--------2-------2-------3-----------------------|
G-----------------------------------------------0-------------|
D----------------------------------------------------3--------|

     But you know I know when it's a dream

   F           G           C              Am    Am/G

D-------------------------------------------------------------|
A-------------------------------------------------------------|
F-------------------------------------------------------------|
C-------------------------------------------------------------|
G----------0-------0---2---3---------------0------------------|
D--1---3-------3----------------3----0----------3-------------|

    I think a no I mean a yes but it's all wrong

   F            G7          F            C

D--------------------------------------------------------------------------|
A--1--1--1--1---3--3--3--3-------------------------------------------------|
F--2--2--2--2---4--4--4--4-------------------0-----------------------------|
C--3--3--3--3---3--3--3--3---3-------------2----3p2p0----------------------|
G--3--3--3--3---5--5--5--5---3--0--3--0--3--------------3------------------|
D--1--1--1--1---3--3--3--3---1---------------------------------------------|

    That is I think I disagree

Chorus :
---------

   C                                   Gm                   Gm7

D--------------------------------------3--------------------------------|
A--1-----------------------------------3------------------3------3------|
F--0-----------------------------------3----------------3------3------3-|
C--2-----------------------------------5--------------5------3------3---|
G--3-----------------------------------5--------------------------------|
D--------------------------------------3--------------------------------|

   Let me take you down cos' I'm going to  Strawberry fields

   A7/E

D---0--------------0--0--0--0--0-----------------------------------|
A---2--------------2--2--2--2--2-----------------------------------|
F---0--------------0--0--0--0--0-----------------------------------|
C---2--------------------------------------------------------------|
G---0--------------------------------------------------------------|
D---0--------------------------------------------------------------|

       Nothing is real


      F          G     A7

D-----1----------3-----0----------------------------------------|
A-----1----------3-----2----------------------------------------|
F-----2----------4-----0----------------------------------------|
C-----3----------5-----2----------------------------------------|
G-----3----------5-----0----------------------------------------|
D-----1----------3----------------------------------------------|

  And nothing to get hung about

    F                 C       Am7      F                 C

D------------------------------------------------------------------|
A---1---------1-------1--------1-------1---------1-------1---------|
F---2---------2-------0--------0-------2---------2-------0---------|
C---3---------3-------2--------2-------3---------3-------2---------|
G---3---------3-------3--------0-------3---------3-------3---------|
D---1---------1------------------------1---------1-----------------|

   Strawberry fields forever         Strawberry fields forever

    F           G      F

D---1-----------3------1-----------5r3---1--0h1p0h1p0--------|
A---1-----------3------1--------------------------------3-3--|
F---2-----------4------2-------------------------------------|
C---3-----------5------3-------------------------------------|
G---3-----------5------3-------------------------------------|
D---1-----------3------1-------------------------------------|

    Strawberry fields forever

Fade out over a chord of C
----------------------------

 (cellos)                     (elec. gtr)

D-----------------------------------------1--0h1p0h1p0h1p0h1p0------|
A-------------------------------------------------------------------|
F-----------5------2------------------------------------------------|
C--------------3-5---3----2-3-5-------------------------------------|
G--3/1---3--------------5-------3-------3---------------------------|
D-------------------------------------------------------------------|

(harp-thing)

D-------------------------------12--------------13--12--12---------15--13---|
A-----------13--11-----11-----------13--11------------------11--------------|
F---10--12-----------------12---------------12------------------12----------|
C---------------------------------------------------------------------------|
G---------------------------------------------------------------------------|
D---------------------------------------------------------------------------|


----------
Penny Lane
----------

Tabbed by:PJVillanueva


1
             A      A/Ab   F#m7 A/E     D6         E7sus4
In Penny Lane there is a barber showing photographs
   E7        A      A/Ab   F#m7     A/E    Am
Of every head he's had the pleasure to know.
            Am6                    Fmaj7
And all the people that come and go
             E7sus4  E7 E7sus4 E7
Stop and say hello.

2
         A    A/Ab    F#m7 A/E     D6      E7sus4
On the corner is a banker with a motorcar,
    E7        A     A/Ab       F#m7 A/E     Am
The little children laugh at him behind his back.
        Am6                    Fmaj7
And the banker never wears a mack
         E7sus4   E7 D
In the pouring rain, very strange.


Middle Eight

          G5           G             Csus2  Cadd9
Penny Lane is in my ears and in my eyes.
G5                   G             Csus2
There beneath the blue suburban skies
           E
I sit, and meanwhile back


3
            A       A/AB    F#m7  A/E     D6       E7sus4
In Penny Lane there is a fireman with an hourglass
    E7          A    A/Ab  F#m7   A/E       Am
And in his pocket is a portrait of the Queen.
            Am6                     Fmaj7
He likes to keep his fire engine clean,
         E7sus4    E7  E7sus4  E7
It's a clean machine.


Solo       A     A/Ab    F#m7  A/E    D6        E7sus4 E7
           A     A/Ab    F#m7  A/E    Am        Am6   Fmaj7
           E7sus4 E7     D


Middle Eight

         G5            G             Csus2  Cadd9  G5
Penny Lane is in my ears and in my eyes.
             G               Csus2
A four of fish and finger pies
           E
In summer, meanwhile back


4
           A       A/Ab   F#m7   A/E   D6       E7sus4
Behind the shelter in the middle of a roundabout
    E7        A     A/Ab    F#m7    A/E       Am
The pretty nurse is selling poppies from a tray
             Am6                      Fmaj7
And tho' she feels as if she's in a play
        E7sus4  E7  E7sus4 E7
She is anyway.

5
            A     A/Ab    F#m7    A/E   D6       E7sus4
In Penny Lane the barber shaves another customer,
   E7        A     A/Ab    F#m7   A/E      Am
We see the banker sitting waiting for a trim.
             Am6              Fmaj7
And then the fireman rushes in
            E7sus4    E7  D
>From the pouring rain,   very strange.


Middle Eight

         G5            G             Csus2  Cadd9
Penny lane is in my ears and in my eyes.
G5                   G          Csus2
There beneath the blue suburban skies
           E
I sit, and meanwhile back.

Coda

A                                    D
Penny lane is in my ears and in my eyes.
A                                   D
There beneath the blue suburban skies,
          A
Penny Lane.


You can see the chords in the tab below.
It is based on the piano work + a walking bass in which I've
tryed to stick to the original as much as possible.

(Use a capo on the second fret)

 Verse1


  A       A/Ab    F#m7    A/E     D6(no3)         E7sus4  E7
e|------- ------- ------- -------|------- ------- ------- -------|
B|2-------2-------2-------2------|0-------0-------0-------0------|
G|2-------2-------2-------2------|2-------2-------2-------1------|
D|2-------2-------2-------2------|0-------0-------0-------0------|
A|0------------------------------|--------2----------------------|
E|--------4-------2-------0------|----------------0-------0----4-|


  A       A/Ab    F#m7    A/E     Am
e|------- ------- ------- -------|0------ 0------ 0------ 0------|
B|2-------2-------2-------2------|1-------1-------1-------1------|
G|2-------2-------2-------2------|2-------2-------2-------2------|
D|2-------2-------2-------2------|2-------2-------2-------2------|
A|0------------------------------|0------------------------------|
E|--------4-------2-------0------|-------------------------------|


  Am6                             Fmaj7
e|0------ 0------ 0------ 0------|0------ 0------ 0------ 0------|
B|1-------1-------1-------1------|1-------1-------1-------1------|
G|2-------2-------2-------2------|2-------2-------2-------2------|
D|2-------2-------2-------2------|2-------2-------2-------2------|
A|-------------------------------|-------------------------------|
E|2------------------------------|1------------------------------|


  E7sus4          E7              E7sus4          E7
e|0------ 0------ 0------ 0------|0------ 0------ 0------ 0------|
B|0-------0-------0-------0------|0-------0-------0-------0------|
G|2-------2-------1-------1------|2-------2-------1-------1------|
D|0-------0-------0-------0------|0-------0-------0-------0------|
A|-------------------------------|-------------------------------|
E|0-------0-------0-------0------|0-------0-------0-------0------|


 Verse2

  A       A/Ab    F#m7    A/E     D6              E7sus4  E7
e|------- ------- ------- -------|------- ------- ------- -------|
B|2-------2-------2-------2------|0-------0-------0-------0------|
G|2-------2-------2-------2------|2-------2-------2-------1------|
D|2-------2-------2-------2------|0-------0-------0-------0------|
A|0------------------------------|--------2----------------------|
E|--------4-------2-------0------|----------------0-------0------|


  A       A/Ab    F#m7    A/E     Am
e|------- ------- ------- -------|0------ 0------ 0------ 0------|
B|2-------2-------2-------2------|1-------1-------1-------1------|
G|2-------2-------2-------2------|2-------2-------2-------2------|
D|2-------2-------2-------2------|2-------2-------2-------2------|
A|0------------------------------|0------------------------------|
E|--------4-------2-------0------|-------------------------------|


  Am6                             Fmaj7
e|0------ 0------ 0------ 0------|0------ 0------ 0------ 0------|
B|1-------1-------1-------1------|1-------1-------1-------1------|
G|2-------2-------2-------2------|2-------2-------2-------2------|
D|2-------2-------2-------2------|2-------2-------2-------2------|
A|-------------------------------|-------------------------------|
E|2------------------------------|1------------------------------|


  E7sus4          E7              D
e|0------ 0------ 0------ 0------|2------ 2------ 2------ -------|
B|0-------0-------0-------0------|3-------3-------3--------------|
G|2-------2-------1-------1------|2-------2-------1--------------|
D|0-------0-------0-------0------|0----4-------4--0--------------|
A|-------------------------------|--------0----------------------|
E|0-------0-------0-------0------|-------------------------------|


 Middle eight

  G5                              G
e|------- ------- ------- -------|------- ------- ------- -------|
B|3-------3-------3-------3------|3-------3-------3-------3------|
G|0-------0-------0-------0------|0-------0-------0-------0------|
D|0-------0-------0-------0------|0-------0-------0-------0------|
A|-------------------------------|2----------- 2----------0----2-|
E|3------------3-------3---------|---------------------3---------|


  Csus2                           Cadd9
e|------- ------- ------- -------|------- ------- ------- -------|
B|3-------3-------3--------------|3-------3-------3-------3------|
G|0-------0-------0--------------|0-------0-------0-------0------|
D|---------------------0--2----3-|2-------2-------2-------2------|
A|3------------3-----------------|3-----------------------3------|
E|-------------------------------|------------3-------3----------|

  G5                              G
e|------- ------- ------- -------|------- ------- ------- -------|
B|3-------3-------3-------3------|3-------3-------3-------3------|
G|0-------0-------0-------0------|0-------0-------0-------0------|
D|0-------0-------0-------0------|0-------0-------0-------0------|
A|---------------------0--2------|2----------- 2--2----3-------2-|
E|3------------3--3--------------|-------------------------------|


  Csus2                           E
e|------- ------- ------- -------|------- ------- ------- -------|
B|3-------3-------3-------3------|0-------0-------0--------------|
G|0-------0-------0-------0------|1-------1-------1--------------|
D|2-------2-------2-------2------|2-------2-------2--------------|
A|3------------3----------3------|2------------------------------|
E|---------------------3---------|--------4-------0--------------|

 Verse3


  A       A/Ab    F#m7    A/E     D6              E7sus4  E7
e|------- ------- ------- -------|------- ------- ------- -------|
B|2-------2-------2-------2------|0-------0-------0-------0------|
G|2-------2-------2-------2------|2-------2-------2-------1------|
D|2-------2-------2-------2------|0-------0-------0-------0------|
A|0------------------------------|--------2----------------------|
E|--------4-------2-------0------|----------------0-------0------|


  A       A/Ab    F#m7    A/E     Am
e|------- ------- ------- -------|0------ 0------ 0------ 0------|
B|2-------2-------2-------2------|1-------1-------1-------1------|
G|2-------2-------2-------2------|2-------2-------2-------2------|
D|2-------2-------2-------2------|2-------2-------2-------2------|
A|0------------------------------|0------------------------------|
E|--------4-------2-------0------|-------------------------------|


  Am6                             Fmaj7
e|0------ 0------ 0------ 0------|0------ 0------ 0------ 0------|
B|1-------1-------1-------1------|1-------1-------1-------1------|
G|2-------2-------2-------2------|2-------2-------2-------2------|
D|2-------2-------2-------2------|2-------2-------2-------2------|
A|-------------------------------|-------------------------------|
E|2------------------------------|1------------------------------|


  E7sus4          E7              E7sus4          E7
e|0------ 0------ 0------ 0------|0------ 0------ 0------ 0------|
B|0-------0-------0-------0------|0-------0-------0-------0------|
G|2-------2-------1-------1------|2-------2-------1-------1------|
D|0-------0-------0-------0------|0-------0-------0-------0------|
A|-------------------------------|-------------------------------|
E|0-------0-------0-------0------|0-------0-------0-------0------|

Solo

  A       A/Ab    F#m7    A/E     D6              E7sus4  E7
e|------- ------- ------- -------|------- ------- ------- -------|
B|2-------2-------2-------2------|0-------0-------0-------0------|
G|2-------2-------2-------2------|2-------2-------2-------1------|
D|2-------2-------2-------2------|0-------0-------0-------0------|
A|0------------------------------|--------2----------------------|
E|--------4-------2-------0------|----------------0-------0------|


  A       A/Ab    F#m7    A/E     Am
e|------- ------- ------- -------|0------ 0------ 0------ 0------|
B|2-------2-------2-------2------|1-------1-------1-------1------|
G|2-------2-------2-------2------|2-------2-------2-------2------|
D|2-------2-------2-------2------|2-------2-------2-------2------|
A|0------------------------------|0------------------------------|
E|--------4-------2-------0------|-------------------------------|


  Am6                             Fmaj7
e|0------ 0------ 0------ 0------|0------ 0------ 0------ 0------|
B|1-------1-------1-------1------|1-------1-------1-------1------|
G|2-------2-------2-------2------|2-------2-------2-------2------|
D|2-------2-------2-------2------|2-------2-------2-------2------|
A|-------------------------------|-------------------------------|
E|2------------------------------|1------------------------------|


  E7sus4          E7              D
e|0------ 0------ 0------ 0------|------- ------- ------- -------|
B|0-------0-------0-------0------|3----0-------------------------|
G|2-------2-------1-------1------|2-------2----------------------|
D|0-------0-------0-------0------|0-------0----4--0--------------|
A|-------------------------------|----------------0--------------|
E|0------------0--------0--------|-------------------------------|


 Middle eight

  G5                              G
e|------- ------- ------- -------|------- ------- ------- -------|
B|3-------3-------3-------3------|3-------3-------3-------3------|
G|0-------0-------0-------0------|0-------0-------0-------0------|
D|0-------0-------0-------0------|0-------0-------0-------0------|
A|-------------------------------|2----------- 2----------0----2-|
E|3------------3-------3---------|---------------------3---------|


  Csus2                           Cadd9
e|------- ------- ------- -------|------- ------- ------- -------|
B|3-------3-------3--------------|3------------3----------3------|
G|0-------0-------0--------------|0------------0----------0------|
D|---------------------0--2----3-|2------------2-------2--0------|
A|3------------3-----------------|3-------3-------3-------3----3-|
E|-------------------------------|-------------------------------|

  G5                              G
e|------- ------- ------- -------|------- ------- ------- -------|
B|3-------3-------3-------3------|3-------3-------3--------------|
G|0-------0-------0-------0------|0-------0----0--0--------------|
D|0-------0-------0-------0------|0----0--0-------0--------------|
A|-----2-------------------------|2-------2--- ---2-------2------|
E|3------------3-----------------|-------------------------------|


  C                                 E
e|------- ------- ------- -------|------- ------- ------- -------|
B|1-------3-------3--------------|0-------0-------0--------------|
G|0-------0----0--0--------------|1-------1-------1--------------|
D|2----2--2-------2--------------|2-------2-------2--------------|
A|3-------3-------3--------------|2------------------------------|
E|---------------------3---------|--------4-------0--------------|




 Verse4


  A       A/Ab    F#m7    A/E     D6              E7sus4  E7
e|------- ------- ------- -------|------- ------- ------- -------|
B|2-------2-------2-------2------|0-------0-------0-------0------|
G|2-------2-------2-------2------|2-------2-------2-------1------|
D|2-------2-------2-------2------|0-------0-------0-------0------|
A|0------------------------------|--------2----------------------|
E|--------4-------2-------0------|----------------0-------0------|


  A       A/Ab    F#m7    A/E     Am
e|------- ------- ------- -------|0------ 0------ 0------ 0------|
B|2-------2-------2-------2------|1-------1-------1-------1------|
G|2-------2-------2-------2------|2-------2-------2-------2------|
D|2-------2-------2-------2------|2-------2-------2-------2------|
A|0------------------------------|0------------------------------|
E|--------4-------2-------0------|-------------------------------|


  Am6                             Fmaj7
e|0------ 0------ 0------ 0------|0------ 0------ 0------ 0------|
B|1-------1-------1-------1------|1-------1-------1-------1------|
G|2-------2-------2-------2------|2-------2-------2-------2------|
D|2-------2-------2-------2------|2-------2-------2-------2------|
A|-------------------------------|-------------------------------|
E|2------------------------------|1------------------------------|


  E7sus4          E7              E7sus4          E7
e|0------ 0------ 0------ 0------|0------ 0------ 0------ 0------|
B|0-------0-------0-------0------|0-------0-------0-------0------|
G|2-------2-------1-------1------|2-------2-------1-------1------|
D|0-------0-------0-------0------|0-------0-------0-------0------|
A|-------------------------------|-------------------------------|
E|0------------0-------0---------|0------------0-----------------|


 Verse5

  A       A/Ab    F#m7    A/E     D6              E
e|------- ------- ------- -------|------- ------- ------- -------|
B|2-------2-------2-------2------|0-------0----------------------|
G|2-------2-------2-------2------|2-------2-------1-------1------|
D|2-------2-------2-------2------|0-------0-------2-------2------|
A|0------------------------------|--------2-----------2--------2-|
E|--------4-------2-------0------|----------------0-------0------|


  A       A/Ab    F#m7    A/E     Am
e|------- ------- ------- -------|0------ 0------ 0------ 0------|
B|2-------2-------2-------2------|1-------1-------1-------1------|
G|2-------2-------2-------2------|2-------2-------2-------2------|
D|2-------2-------2-------2------|2-------2-------2-------2------|
A|0------------------------------|0------------------------------|
E|--------4-------2-------0------|-------------------------------|


  Am6                             Fmaj7
e|0------ 0------ 0------ 0------|0------ 0------ 0------ 0------|
B|1-------1-------1-------1------|1-------1-------1-------1------|
G|2-------2-------2-------2------|2-------2-------2-------2------|
D|2-------2-------2-------2------|2-------2-------2-------2------|
A|-------------------------------|-------------------------------|
E|2------------------------------|1-------1-------1-------1------|


  Esus4           E               D
e|------- ------- ------- -------|------- ------- ------- -------|
B|0-------0-------0-------0------|3----0-------------------------|
G|2-------2-------1-------1------|2-------2----------------------|
D|2-------2-------2-------2------|0-------0----4--0--------------|
A|--------------2----------------|----------------0--------------|
E|0-------0-------0-------0------|-------------------------------|




 Middle eight

  G5                              G
e|------- ------- ------- -------|------- ------- ------- -------|
B|3-------3-------3-------3------|3-------3-------3-------3------|
G|0-------0-------0-------0------|0-------0-------0-------0------|
D|0-------0-------0-------0------|0-------0-------0-------0------|
A|-------------------------------|2----------- 2--2-------0----2-|
E|3------------3--3----3--3----3-|---------------------3---------|


  Cadd9
e|------- ------- ------- -------|------- ------- ------- -------|
B|3-------3-------3--------------|3-------3-------3-------3------|
G|0-------0-------0--------------|0-------0-------0-------0------|
D|2-------2-------2--------------|2-------2-------2-------2------|
A|3------------3----------0----2-|3-------3-------3-------3------|
E|---------------------3---------|-----3-------3-------3-------2-|

  G5                              G
e|------- ------- ------- -------|------- ------- ------- -------|
B|3-------3-------3-------3------|3-------3-------3--------------|
G|0-------0-------0-------0------|0-------0----0--0--------------|
D|0-------0-------0-------0------|0----0--0-------0--------------|
A|-----2-------------------------|2-------2--- ---2-------2------|
E|3------------3-----------------|-------------------------------|


  C                               E
e|------- ------- ------- -------|------- ------- ------- -------|
B|1-------3-------3--------------|0-------0-------0--------------|
G|0-------0----0--0--------------|1-------1-------1--------------|
D|2----2--2----------------------|2-------2-------2--------------|
A|3-------3-------3-------3------|-----2-------2-----------------|
E|-------------------------------|--------4-------0--------------|

Coda

  A
e|------- ------- ------- -------|------- ------- ------- -------|
B|2-------2-------2-------2------|5-------5-------5-------5------|
G|2-------2-------2-------2------|2-------2-------2-------2------|
D|2-------2-------2-------2------|2-------2-------2-------2------|
A|0------------0--0-------0------|4------------4--4----0--4------|
E|---------------------0---------|-------------------------------|


  D
e|2------ 2------ 2------ 2------|2------ 2------ 2------ 2------|
B|3-------3-------3-------3------|3-------3-------3-------3------|
G|2-------2-------2-------2------|2-------2----0--2-------2------|
D|0-------0-------0-------0------|0----2--4------------4--0------|
A|-------------0---------------0-|-------------------------------|
E|-------------------------------|-------------------------------|


  A
e|------- ------- ------- -------|------- ------- ------- -------|
B|2-------2-------2-------2------|5-------5-------5-------5------|
G|2-------2-------2-------2------|2-------2-------2-------2------|
D|2-------2-------2-------2------|2-------2-------2-------2------|
A|0------------0--0-------0----0-|4------------4--4----0--4----0-|
E|---------------------0---------|-------------------------------|


  D
e|2------ 2------ 2------ 2------|2------ 2------ 2------ 2------|
B|3-------3-------3-------3------|3-------3-------3-------3------|
G|2-------2-------2-------2----0-|2-------2-------2-------2------|
D|0------------0--0----2--4------|------------------------4------|
A|-------------------------------|0-------0-------0-----0--------|
E|-------------------------------|------------------------2------|


  A  ¨¨¨¨¨¨¨¨¨¨¨¨¨¨¨¨¨¨¨¨¨¨¨¨¨¨¨¨¨¨¨¨¨¨¨¨¨¨¨¨¨¨¨¨¨¨¨¨¨¨¨¨¨¨¨¨¨¨¨¨
e|------- ------- ------- -------|------- ------- ------- -------|
B|2------------------------------|-------------------------------|
G|2------------------------------|-------------------------------|
D|2------------------------------|-------------------------------|
A|0------------------------------|-------------------------------|
E|-------------------------------|-------------------------------|


        B  Bend
        R  Release
        /  slide up
        \  slide down
        H  hammer-on
        P  pull-off
        ~  vibrato
        +  harmonic
        x  Mute note
        . - play note like a dot in standard notation
        ^ - ties two notes together


----------------------------------------
Sargent Pepper's Lonely Hearts Club Band
----------------------------------------

Tabbed by:PJVillanueva


It was twenty years ago today,
Sgt. Pepper told the band to play
They've been going in and out of style
But they're guaranteed to raise a smile.
So may I introduce to you
The act you've known for all these years,
Sgt. Pepper's Lonely Hearts Club Band.
We're Sgt. Pepper's Lonely Hearts Club Band,
We hope you will enjoy the show,
Sgt. Pepper's Lonely Hearts Club Band,
Sit back and let the evening go.
Sgt. Pepper's lonely, Sgt. Pepper's lonely,
Sgt. Pepper's Lonely Hearts Club Band.
It's wonderful to be here,
It's certainly a thrill.
You're such a lovely audience,
We'd like to take you home with us,
We'd love to take you home.
I don't really want to stop the show,
But I thought that you might like to know,
That the singer's going to sing a song,
And he wants you all to sing along.
So let me introduce to you
The one and only Billy Shears
And Sgt. Pepper's Lonely Hearts Club Band.


  A7                                A7-9
E|----------------|----------------|--------8-------|----------------|
B|----------------|--------5-------|--5-----------8-|--------8-------|
G|--------6-----6-|----------------|6---------------|----------------|
D|5---------------|----------------|5---------------|----------------|
A|----7-----------|----------------|----------------|----------------|
E|5---------------|----------------|5---------------|----------------|

E|----------------|----------------|----------------|----------------|
B|----------------|--8-1010--------|----------------|--8-10----------|
G|----------------|9---------------|----------------|9---------------|
D|----------------|----------------|----------------|----------------|
A|----------------|----------------|----------------|----------------|
E|----------------|----------------|----------------|----------------|


  C7                           G7                 X  X   X X   X X
E|----------------|----------------|----------------|----------------|
B|----------------|3B5R3---1---0---|----------------|----------------|
G|---3------------|------------0---|----------------|----------------|
D|----------------|------------3---|----------------|----------------|
A|3---------------|----------------|----------------|----------------|
E|----------------|------------3---|----------------|----------------|
                                                                 It was
E|--------------8-|----10----------|----------------|----------------|
B|----------8-10--|--------8\6-8---|----------------|----------------|
G|--------9-------|----------------|7---------------|----------------|
D|----------------|----------------|----------------|----------------|
A|----------------|----------------|----------------|----------------|
E|----------------|----------------|----------------|----------------|

  G7            A7                  C7            G7
E|----------------|----------------|----------------|----------------|
B|--------3-------|----------------|--------1-------|--3-3---3-------|
G|--------4-------|--------6-------|--------3-------|--4-4---3-------|
D|--------3-------|--------5-------|--------2-------|--3-3---3-------|
A|----------------|--------7-------|3---3-----------|----------------|
E|3-------------5-|--5-5-----------|--------------3-|----------------|
twenty years ago today,    Sgt.Pepper told the band to play They've been

                A7                  C7               G7
E|----------------|----------------|----------------|------------------|
B|----------------|----------------|------------1---|--------3---------|
G|--------4-------|----------------|--3---------3---|--4---------------|
D|--------3-------|----------------|--2---------2---|--3---------------|
A|5---5---------7-|--7-7-----------|3---------------|------------------|
E|3---3---------5-|--5-5-----------|----------------|3-------------3---|
going in and out of style    But they're guaranteed to raise a smile So

  A7                                C7
E|----------------|--------5-------|----------------|----------------|
B|--------5-------|--------5-------|--------1-----1-|--------1-------|
G|--------6-------|--------6-------|--------3-----3-|--------3-------|
D|5-5-5---5-----5-|--5-5---5-------|--------2-----2-|--------2-------|
A|7-7-7---------7-|--7-7---7-------|3---------------|3---------------|
E|5-5-5-----------|--5-5---5-------|----------------|----------------|
may I introduce to you      the act you've known for all these years

  G7               C7               G7
E|----------------|----------------|----------------|----------------|
B|----------------|--------1-------|----------------|--------3-------|
G|--------4-------|--------3-------|--------4-------|4-------4-------|
D|3-------3-------|--------2-------|--------3-------|3-------3-------|
A|5---------------|3---------------|--------5-------|5---------------|
E|3---------------|----------------|3---------------|----------------|
  Sgt. Pepper's   Lonely Hearts Club Band

  C       C7  C6   C           C7   F          Fsus4 F
E|3-------6---5---|3-----------3---|1-------1-------|1---------------|
B|5---------------|----5-------5---|1---1-----------|1---------------|
G|5---------------|--------5---3---|2-------2---3---|----2-------2---|
D|----------------|----------------|----------------|--------3-------|
A|----------------|----------------|----------------|----------------|
E|----------------|----------------|----------------|----------------|


  C           C7   C6  C Csus4 C    D
E|3-------8---6---|5---------------|------------5---|8-------------5-|
B|5-------5---5---|5---8---6---5---|----5---7-------|7-----5-7---7---|
G|5-------5---5---|5---------------|7---------------|7P6H7---7-7-----|
D|----------------|----------------|----------------|----------------|
A|----------------|----------------|----------------|----------------|
E|----------------|----------------|----------------|----------------|

E|--------------5-|10--------------|
B|7-----5-7---7---|10--------------|
G|7P6H7---7-7-----|----------------|
D|----------------|----------------|
A|----------------|----------------|
E|----------------|----------------|
                              We're

  G5               Bb5              C7               G5
E|----------------|----------------|----------------|----------------|
B|----------------|----------------|----------------|----------------|
G|----------------|3---3-----------|3---3-----------|----------------|
D|5---5-----------|3---3-----------|2---2-----------|5---5-----------|
A|5---5-----------|1---1-----------|3---3-----------|5---5-----------|
E|3---3-----------|----------------|----------------|3---3-----------|
  Sgt.Pepper's     Lonely     Hearts   Club      Band             We
E|----------------|----------------|----------------|----------------|
B|----------------|---------6------|--------6-------|--------6-------|
G|--5B7R5B7R5-----|---------5------|----------------|----------------|
D|----------------|----------------|----------------|----------------|
A|----------------|----------------|----------------|----------------|
E|----------------|----------------|----------------|----------------|

  C7                             F# G             F# G           F#
E|----------------|----------------|----------------|----------------|
B|----------------|----------------|----------------|----------------|
G|3---3-----------|3---3-----------|----------------|----------------|
D|2---2-----------|2---2---------4-|5---5---5---5\4-|5---5---5---4---|
A|3---3-----------|3---3---------4-|5---5---5---5\4-|5---5---5---4---|
E|----------------|--------------2-|3---3---3---3\2-|3---3---3---2---|
  hope you will enjoy      the show
E|----------------|----------------|----------------|----------------|
B|1-------1-------|1-------1-------|----------------|----------------|
G|3-------3-------|3-------3-------|4-------4-----4-|--4-4---4---4-3-|
D|2-------2-------|2-------2-------|3-------3-----3-|--3-3---3---3-2-|
A|3-------3-------|3-------3-------|5-------5-----5-|--5-5---5---5-4-|
E|----------------|----------------|3-------3-----3-|--3-3---3---3-2-|

  G5               Bb5              C7               G5
E|----------------|----------------|----------------|----------------|
B|----------------|----------------|----------------|----------------|
G|----------------|3---3-----------|3---3-----------|----------------|
D|5---5-----------|3---3-----------|2---2-----------|5---5-----5-5---|
A|5---5-----------|1---1-----------|3---3-----------|5---5-----5-5---|
E|3---3-----------|----------------|----------------|3---3-----3-3---|
  Sgt.Pepper's     Lonely     Hearts   Club      Band              Sit
E|----------------|----------------|----------------|----------------|
B|--------6-------|----------------|----------------|----6-----------|
G|----------------|-----5B7R5B7R5B7|------------5B7R|5-------5-------|
D|----------------|----------------|----------------|----------------|
A|----------------|----------------|----------------|----------------|
E|----------------|----------------|----------------|----------------|

  A5                                D7
E|----------------|----------------|----------------|----------------|
B|----------------|----------------|1---1-----------|----------------|
G|----------------|----------------|2-------2-------|----------------|
D|7---7---7-----7-|7-----7-7-------|0-----------4---|0---------------|
A|7---7---7-----7-|7-----7-7-------|----------------|----------------|
E|5---5---5-----5-|5-----5-5-------|----------------|----------------|
  back and let the evening       go
E|----------------|----------------|----------------|----------------|
B|----------------|----------------|3---------------|----------------|
G|6-------6-----6-|--------6-------|5---------------|----------------|
D|5-------5-----5-|----5---5-------|4---------------|----------------|
A|7-------7-----7-|----7---7-------|5---------------|----------------|
E|5-------5-----5-|----5---5-------|----------------|----------------|

  C7                                G7
E|----------------|----------------|----------------|----------------|
B|1-------1---1---|1-------1-------|----------------|--------5-------|
G|3-------3---3---|3-------3-------|--------4-------|----4-----------|
D|2-------2---2---|2-------2-------|3-------3-----3-|----------------|
A|3-------3---3---|3-------3-------|5---------------|----------------|
E|----------------|----------------|3---------------|3---------------|
  Sgt.Pepper's     Lonely         Sgt.      Pepper's Lonely         Sgt.

  A7                           C7               G7
E|----------------|----------------|----------------|----------------|
B|----------------|------------1---|----1-------3---|----3---3-------|
G|-------6--------|6-----------3---|----3-------4---|----4---4-------|
D|---5---5--------|5-----------2---|----2-------3---|----3---3-------|
A|---7------------|------------3---|----3-----------|----------------|
E|5---------------|----------------|------------3---|----3---3-------|
         Pepper's  Lonely       Hearts    Club   Band              It's

  C7                                F7
E|----------------|----------------|----------------|----------------|
B|--------1-----1-|--------1-------|--------------1-|----------------|
G|--------3-----3-|--------3-------|---------2----2-|----------------|
D|--------2-----2-|--------2-------|---------1------|----------------|
A|--------3-----3-|--------3-------|---------3------|----------------|
E|----------------|----------------|---------1------|----------------|
  wonderful   to   be here     It's certainly   a    thrill     You're
E|8---------------|----------------|----------------|----------------|
B|5---------------|----------------|6---------------|----------------|
G|5---------------|----------------|5---------------|----------------|
D|----------------|----------------|7---------------|----------------|
A|----------------|----------------|----------------|----------------|
E|----------------|----------------|----------------|----------------|


  C                                 D
E|8---------------|----------------|10------10------|----------------|
B|5---------------|----------------|----10------10--|----10------10--|
G|5---------------|----------------|-7-------7------|-7------11------|
D|----------------|----------------|-----7-------7--|-----7-------7--|
A|----------------|----------------|----------------|-5-------9------|
E|----------------|----------------|----------------|----------------|
  such a  lovely   audience    We'd like to take you home with us, We'd


E|----------------|10--------------|
B|------------10--|----------------|
G|7---9---11------|-7--------------|
D|-------------7--|----------------|
A|5---7----9------|----------------|
E|----------------|----------------|
  love to take you home       I don't

  G7               A7               C7               G7
E|----------------|----------------|----------------|----------------|
B|---------3------|----------------|---------1------|--------3-------|
G|---------4------|--------6-------|---------3------|--4-------------|
D|---------3------|--5-------------|---------2------|--3-------------|
A|---------5------|--7-------------|3---------------|----------------|
E|3---------------|5---------------|----------------|3---------------|
really want to stop the show, But I thought you might like to know that the
E|----------------|----5-----------|----------------|----3-----------|
B|----------------|----------------|----------------|----------------|
G|---------------/|6---------------|----------------|----------------|
D|----------------|----------------|----------------|----------------|
A|----------------|----------------|----------------|----------------|
E|----------------|----------------|----------------|----------------|

                   A7               C7               G7
E|----------------|----------------|----------------|----------------|
B|----------------|--------5-------|----------------|----------------|
G|--------4-------|--6-------------|----3-----------|--------4-------|
D|--------3-----3-|--5-------------|----------0-----|--3-------------|
A|--------5-------|----------------|3---------------|--5-------------|
E|3---3----------/|5---5-----------|----------------|3---------------|
singer's going to sing a song and he wants you all to sing along  So
E|----------------|----5-----------|----------------|----3-----------|
B|----------------|----------------|----------------|----------------|
G|---------------/|6---------------|----------------|----------------|
D|----------------|----------------|----------------|----------------|
A|----------------|----------------|----------------|----------------|
E|----------------|----------------|----------------|----------------|

  A7                                C7
E|----------------|----------------|----------------|----------------|
B|----------------|----------------|--------1-----1-|--------1-------|
G|----------------|----------------|--------3-----3-|--------3-------|
D|--------5-----5-|---------5------|--------2-----2-|--------2-------|
A|--------7-----7-|---------7------|3---------------|3-------3-------|
E|5-----5-5---5-5-|---------5------|----------------|----------------|
let me introduce to you         the one and only Billy Shears     and
E|--------5-------|----5---5-------|----------------|----8---8---10--|
B|----------------|--5-------------|----------------|----------------|
G|----------------|----------------|----------------|----------------|
D|----------------|----------------|----------------|----------------|
A|----------------|----------------|----------------|----------------|
E|----------------|----------------|----------------|----------------|

  G7               C7               G7
E|----------------|----------------|----------------|----------------|
B|----------------|----------------|----------------|----------------|
G|4-------4-------|3-----3---3-----|4-------4-------|4---------------|
D|3-------3-------|2-----2---2-----|3-------3-------|3---------------|
A|5-------5-------|3-----3---3-----|5-------5-------|5---------------|
E|3-------3-------|----------------|3-------3-------|3---------------|
  Sgt.   Pepper's  Lonely Hearts Club Band
E|10--------------|----------------|----------------|----------------|
B|----------------|----------------|----------------|----------------|
G|----------------|----------------|----------------|----------------|
D|----------------|----------------|----------------|----------------|
A|----------------|----------------|----------------|----------------|
E|----------------|----------------|----------------|----------------|

  (.
  C
E|3---------------|----------------|----------------|----------------|
B|5---------------|----------------|----------------|----------------|
G|5---------------|----------------|----------------|----------------|
D|5---------------|----------------|----------------|----------------|
A|3---------------|----------------|3---------------|----------------|
E|--------6-------|5-------3-------|--------6-------|5-------3-------|...


As you all know, this ending is linked to "With a little help from my
friends" by a small passage. You can find it in the other tab.


        B  Bend
        R  Release
        /  slide up
        \  slide down
        H  hammer-on
        P  pull-off
        ~  vibrato
        +  harmonic
        x  Mute note
        . - play note like a dot in standard notation
        ^ - ties two notes together


----------------------------------
With a Little Help From My Friends
----------------------------------

What would you think if I sang out of tune,
Would you stand up and walk out on me.
Lend me your ears and I'll sing you a song,
And I'll try not to sing out of key.

I get by with a little help from my friends,
I get high with a little help from my friends,
Going to try with a little help from my friends.

What do I do when my love is away.
(Does it worry you to be alone)
How do I feel by the end of the day
(Are you sad because you're on your own)
No I get by with a little help from my friends,
Do you need anybody,
I need somebody to love.
Could it be anybody
I want somebody to love.
Would you believe in a love at first sight,
Yes I'm certain that it happens all the time.
What do you see when you turn out the light,
I can't tell you, but I know it's mine.
Oh I get by with a little help from my friends,
Do you need anybody,
I just need somebody to love,
Could it be anybody,
I want somebody to love.
I get by with a little help from my friends,
Yes I get by with a little help from my friends,
With a little help from my friends.


  C                           D
e|0----- 0----- 0----- 0-----|2----- 2----- 2----- 2-----|
B|1------1------1------1-----|3------3------3------3-----|
G|0------0------0------0-----|2------2------2------2-----|
D|---------------------------|0------0------0------0-----|
A|3------3------3------3-----|---------------------------|
E|---------------------------|---------------------------|
  Bi..........................lly........................

  E
e|4----- ------ 0-0--- ----0-|--0--- ----0- --0--- ------|
B|5-------------0------0---0-|-------0------4------4-----|
G|4------4------8----------8\|6------6------4------4-----|
D|---------------------------|---------------------------|
A|---------------------------|---------------------------|
E|0--------------------------|---------------------------|
  Shears............................

  E             B             F#m
e|4----- 4----- ------ ------|2----- 2----- 2----- 2-----|
B|5------5------4------4-----|2------2------2------2-----|
G|4------4------4------4-----|2------2------2------2-----|
D|6-------------4------4-----|---------------------------|
A|7-------------6------------|4--------------------------|
E|--------------7------------|--------------2------------|
 What would you think If I sang out of tune? Would you stand

                B             E
e|2----- 2----- 2----- 2-----|4----- 4----- 4----- 4-----|
B|2------2------4------4-----|5------5------5------5-----|
G|2------2------4------4-----|4------4------4------4-----|
D|4--------------------------|-----------4---------------|
A|--------------2------------|------------------7--4-----|
E|---------------------------|0------------------------7-|
     up  and walk  out  on me?

                B             F#m
e|4----- 4----- 2----- 2-----|2----- 2----- 2----- 2-----|
B|5------5------4------4-----|2------2------2------2-----|
G|4------4------4------4-----|2------2------2------2-----|
D|---------------------------|------------------2--------|
A|--------------2------------|------------2H4------------|
E|0--------------------------|2--------------------------|
  Lend me your ears and I'll sing you a song,  and I'll try

                B             E
e|2----- 2----- 2----- 2-----|4----- 4----- 4----- 4-----|
B|2------2------4------4-----|5------5------5------5-----|
G|2------2------4------4-----|4------4------4------4-----|
D|---------------------------|-------2------2------2-----|
A|--------------2------------|---------------------------|
E|2--------------------------|0--------------------------|
     not to sing   out  of key           Oh     I  get  by

  D             A             E
e|2----- 2----- 0----- 0-----|4----- 4----- 4----- 4-----|
B|3------3------2------2-----|5------5------5------5-----|
G|2------2------2------2-----|4------4------4------4-----|
D|0------0-------------------|---------------------------|
A|--------------0------0-----|---------------------------|
E|---------------------------|0------0------0------0-----|
  with a little help from my friends            I  get  high

  D             A             E
e|2----- 2----- 0----- 0-----|4----- 4----- 4----- 4-----|
B|3------3------2------2-----|5------5------5------5-----|
G|2------2------2------2-----|4------4------4------4-----|
D|0------0-------------------|2------0-------------------|
A|--------------0------0-----|--------------4------2-----|
E|---------------------------|---------------------------|
  with a little help from my friends               going to
  A                           E
e|0----- 0----- 0----- 0-----|4----- 4----- 4----- 4-----|
B|2------2------2------2-----|5------5------5------5-----|
G|2------2------2------2-----|4------4------4------4-----|
D|--------------2------------|----2--0-------------------|
A|0------4-------------4---2-|--------------4------2---0-|
E|---------------------------|0--------------------------|
  try with a little help from my friends
e|------ ------ ------ ------|----7\ 5----- 4----- ------|
B|---------------------------|----9\-7------5------7-P-5-|
G|---------------------------|---------------------4-----|
D|---------------------------|---------------------------|
A|---------------------------|---------------------------|
E|---------------------------|---------------------------|

  (.
  B
e|2----- ------ ------ ------|------ ------ ------ ------|
B|4--------------------------|---------------------------|
G|4--------------------------|---------------------------|
D|---------------------------|---------------------------|
A|2--------------------------|---------------------------|
E|---------------------------|---------------------------|

e|------ ------ ------ ------|------ ------ ------ ------|
B|7--------------------------|---------------------------|
G|4--------------------------|---------------------------|
D|---------------------------|---------------------------|
A|---------------------------|---------------------------|
E|---------------------------|---------------------------|

  E             B             F#m
e|4----- 4----- 2----- 2-----|2----- 2----- 2----- 2-----|
B|5------5------4------4-----|2------2------2------2-----|
G|4------4------4------4-----|2------2------2------2-----|
D|---------------------------|-----------6------4--2-----|
A|--------------2------------|-------------------------4-|
E|0--------------------------|2--------------------------|
  What do I do    when my love is away?      (Does it worry

                B             E
e|2----- 2----- 2----- 2-----|4----- 4----- 4----- 4-----|
B|2------2------4------4-----|5------5------5------5-----|
G|2------2------4------4-----|4------4------4------4-----|
D|---------------------------|-----------4--2------------|
A|--------------2------------|------------------4--2-----|
E|2--------------------------|0--------------------------|
     you to be alone?)

                B             F#m
e|4----- 4----- 2----- 2-----|2----- 2----- 2----- 2-----|
B|5------5------4------4-----|2------2------2------2-----|
G|4------4------4------4-----|2------2------2------2-----|
D|---------------------------|-----------6------4--2-----|
A|--------------2------------|-------------------------4-|
E|0--------------------------|2--------------------------|
  How do I feel    by  the end of the day      (are you sad

                B             E
e|2----- 2----- 2----- 2-----|4----- 4----- 4----- 4-----|
B|2------2------4------4-----|5------5------5------5-----|
G|2------2------4------4-----|4------4------4------4-----|
D|---------------------------|-------2------2------2-----|
A|--------------2------------|---------------------------|
E|2--------------------------|0--------------------------|
   beacause you're on your own?)        No     I   get  by

  D             A             E
e|2----- 2----- 0----- 0-----|4----- 4----- 4----- 4-----|
B|3------3------2------2-----|5------5------5------5-----|
G|2------2------2------2-----|4------4------4------4-----|
D|0------0-------------------|---------------------------|
A|--------------0------0-----|---------------------------|
E|---------------------------|0------0------0------0-----|
   with a little help from my friends          I   get  high

  D             A             E
e|2----- 2----- 0----- 0-----|4----- 4----- 4----- 4-----|
B|3------3------2------2-----|5------5------5------5-----|
G|2------2------2------2-----|4------4------4------4-----|
D|0------0-------------------|---------------------------|
A|--------------0------0-----|---------------------------|
E|---------------------------|0------0------0------0-----|
   with a little help from my friends    hmmmm     gonna try

  A                           E
e|0----- 0----- 0----- 0-----|4----- 4----- 4----- 4-----|
B|2------2------2------2-----|5------5------5------5-----|
G|2------2------2------2-----|4------4------4------4-----|
D|--------------2------------|---------------------------|
A|0------4-------------4---0-|---------------------------|
E|---------------------------|0------0------0------0-----|
   with a little help from my friends      (Do you     need

  C#m7                        F#
e|4----- 4----- 4----- 4-----|2----- 2----- 2----- 2-----|
B|5------5------5------5-----|2------2------2------2-----|
G|4------4------4------4-----|3------3------3------3-----|
D|---------------------------|4------4---2---------------|
A|4----------4---------------|------------------6--4-----|
E|------------------7------4-|---------------------------|
                anybody)                                I
  E             D             A
e|4----- 4----- 2----- 2-----|0----- 0----- 0----- 0-----|
B|5------5------3------3-----|2------2------2------2-----|
G|4------4------2------2-----|2------2------2------2-----|
D|2------2------0------0-----|---------------------------|
A|---------------------------|0------0------0------0-----|
E|---------------------------|---------------------------|
  need   somebody      to love              (Could it  be

  C#m7                        F#
e|4----- 4----- 4----- 4-----|2----- 2----- 2----- 2-----|
B|5------5------5------5-----|2------2------2------2-----|
G|4------4------4------4-----|3------3------3------3-----|
D|---------------------------|4------4---2---------------|
A|4----------4---------------|------------------6--4-----|
E|------------------7------4-|---------------------------|
                anybody)                               I

  E             D             A
e|4----- 4----- 2----- 2-----|0----- 0----- 0----- 0-----|
B|5------5------3------3-----|2------2------2------2-----|
G|4------4------2------2-----|2------2------2------2-----|
D|2------2------0------0-----|---------------------------|
A|---------------------------|0------0------0------0-----|
E|---------------------------|-----0------0------0-----0-|
  want   somebody      to  love

  E             B             F#m
e|4----- 4----- 2----- 2-----|2----- 2----- 2----- 2-----|
B|5------5------4------4-----|2------2------2------2-----|
G|4------4------4------4-----|2------2------2------2-----|
D|---------------------------|------------------2--------|
A|--------------2------------|------------2H4------------|
E|0--------------------------|2--------------------------|
 ( Would you believe in a love at first sight) Yes I'm cer..

                B             E
e|2----- 2----- 2----- 2-----|4----- 4----- 4----- 4-----|
B|2------2------4------4-----|5------5------5------5-----|
G|2------2------4------4-----|4------4------4------4-----|
D|---------------------------|-----------4---------------|
A|--------------2------------|--------------7---4--------|
E|2--------------------------|0--------------------7-----|
 ..tain that it happens all the time

                B             F#m
e|4----- 4----- 2----- 2-----|2----- 2----- 2----- 2-----|
B|5------5------4------4-----|2------2------2------2-----|
G|4------4------4------4-----|2------2------2------2-----|
D|---------------------------|------------------2--------|
A|--------------2------------|------------2H4------------|
E|0--------------------------|2--------------------------|
  (What do you see when you turn out the light?) I can't tell

                B             E
e|2----- 2----- 2----- 2-----|4----- 4----- 4----- 4-----|
B|2------2------4------4-----|5------5------5------5-----|
G|2------2------4------4-----|4------4------4------4-----|
D|---------------------------|-------2------2------2-----|
A|--------------2------------|---------------------------|
E|2--------------------------|0--------------------------|
     you but I know   it's mine         Ohhh   I   get  by

  D             A             E
e|2----- 2----- 0----- 0-----|4----- 4----- 4----- 4-----|
B|3------3------2------2-----|5------5------5------5-----|
G|2------2------2------2-----|4------4------4------4-----|
D|0------0-------------------|---------------------------|
A|--------------0------0-----|---------------------------|
E|---------------------------|0------0------0------0-----|
   with a little help from my friends    Hmmm      get  high

  D             A             E
e|2----- 2----- 0----- 0-----|4----- 4----- 4----- 4-----|
B|3------3------2------2-----|5------5------5------5-----|
G|2------2------2------2-----|4------4------4------4-----|
D|0------0-------------------|2------0-------------------|
A|--------------0------0-----|--------------4------2-----|
E|---------------------------|---------------------------|
   with a little help from my friends    Ohhh  I'm gonna try

  A                           E
e|0----- 0----- 0----- 0-----|4----- 4----- 4----- 4-----|
B|2------2------2------2-----|5------5------5------5-----|
G|2------2------2------2-----|4------4------4------4-----|
D|--------------2------------|---------------------------|
A|0------4-------------4---0-|---------------------------|
E|---------------------------|0------0------0------0-----|
   with a little help from my friends      (Do you     need

  C#m7                        F#
e|4----- 4----- 4----- 4-----|2----- 2----- 2----- 2-----|
B|5------5------5------5-----|2------2------2------2-----|
G|4------4------4------4-----|3------3------3------3-----|
D|---------------------------|4------4---2---------------|
A|4----------4---------------|------------------6--4-----|
E|------------------7------4-|---------------------------|
                anybody?)                              I

  E             D             A
e|4----- 4----- 2----- 2-----|0----- 0----- 0----- 0-----|
B|5------5------3------3-----|2------2------2------2-----|
G|4------4------2------2-----|2------2------2------2-----|
D|2------2------0------0-----|---------------------------|
A|---------------------------|0------0------0------0-----|
E|---------------------------|---------------------------|
  just   need   someone to  love            (Could it   be

  C#m7                        F#
e|4----- 4----- 4----- 4-----|2----- 2----- 2----- 2-----|
B|5------5------5------5-----|2------2------2------2-----|
G|4------4------4------4-----|3------3------3------3-----|
D|---------------------------|4------4---2---------------|
A|4----------4---------------|------------------6--4-----|
E|------------------7------4-|---------------------------|
                anybody?)                              I

  E             D             A
e|4----- 4----- 2----- 2-----|0----- 0----- 0----- 0-----|
B|5------5------3------3-----|2------2------2------2-----|
G|4------4------2------2-----|2------2------2------2-----|
D|2------2------0------0-----|---------------------------|
A|---------------------------|0------0------0------0-----|
E|---------------------------|---------------------------|
  want   somebody      to  love        Ohhh    I   get  by

  D             A             E
e|2----- 2----- 0----- 0-----|4----- 4----- 4----- 4-----|
B|3------3------2------2-----|5------5------5------5-----|
G|2------2------2------2-----|4------4------4------4-----|
D|0------0-------------------|---------------------------|
A|--------------0------0-----|-------2------2------2-----|
E|---------------------------|0--------------------------|
  with a little help from my friends   Hmmm     gonna  try

  D             A             E
e|2----- 2----- 0----- 0-----|4----- 4----- 4----- 4-----|
B|3------3------2------2-----|5------5------5------5-----|
G|2------2------2------2-----|4------4------4------4-----|
D|0------0-------------------|-------2------2------2-----|
A|--------------0------0-----|---------------------------|
E|---------------------------|0--------------------------|
  with a little help from my friends    Oh    I    get high

  A                           E
e|------ ------ ------ ------|4----- 4----- 4----- 4-----|
B|2------2------2------2-----|5------5------5------5-----|
G|2------2------2------2-----|4------4------4------4-----|
D|2------2------2------2-----|---------------------------|
A|0------4-------------4---0-|---------------------------|
E|---------------------------|0------0------0------0-----|
   with a little help from my friends    Yes    I  get  by

  D                           A
e|2----- ------ ------ ------|0----- ------ ------ ------|
B|3--------------------------|2--------------------------|
G|2--------------------------|2--------------------------|
D|0--------------------------|2--------------------------|
A|---------------------------|0--------------------------|
E|---------------------------|---------------------------|
with a little help from my friends with a little help from my friends

  C                           D
e|0----- 0----- 0----- 0-----|2----- 2----- 2----- 2-----|
B|1------1------1------1-----|3------3------3------3-----|
G|0------0------0------0-----|2------2------2------2-----|
D|2------2------2------2-----|0------0------0------0-----|
A|---------------------------|0------0------0------0-----|
E|3------3------3------3-----|---------------------------|

e|------ ------ ------ ------|------ ------ ------ ------|
B|1------1------1------1-----|3------3------3------3-----|
G|0------0------0------0-----|2------2------2------2-----|
D|2------2------2------2-----|0------0------0------0-----|
A|3------2------0------------|---------------------------|
E|---------------------3-----|2------2------2------2-----|

  (.
  E
e|0----- ------ ------ ------|------ ------ ------ ------|
B|0--------------------------|---------------------------|
G|1--------------------------|---------------------------|
D|2--------------------------|---------------------------|
A|2--------------------------|---------------------------|
E|0--------------------------|---------------------------|


e|------ ------ ------ ------|------ ------ ------ ------|
B|---------------------------|---------------------------|
G|---------------------------|---------------------------|
D|2--------------------------|---------------------------|
A|2--------------------------|---------------------------|
E|0--------------------------|---------------------------|


        B  Bend
        R  Release
        /  slide up
        \  slide down
        H  hammer-on
        P  pull-off
        ~  vibrato
        +  harmonic
        x  Mute note
        . - play note like a dot in standard notation
        ^ - ties two notes together


-----------------------------
Lucy in the Sky with Diamonds
-----------------------------

Tabbed by:PJVillanueva


Picture yourself in a boat on a river,
With tangerine trees and marmalade skies
Somebody calls you, you answer quite slowly,
A girl with kaleidoscope eyes.

Cellophane flowers of yellow and green,
Towering over your head.
Look for the girl with the sun in her eyes,
And she's gone.

REFRAIN
Lucy in the sky with diamonds.
Lucy in the sky with diamonds.
Lucy in the sky with diamonds.
Ah... Ah...


Follow her down to a bridge by a fountain
Where rocking horse people eat marshmallow pies,
Everyone smiles as you drift past the flowers,
That grow so incredibly high.
Newspaper taxis appear on the shore,
Waiting to take you away.
Climb in the back with your head in the clouds,
And you're gone.

{REFRAIN}

Picture yourself on a train in a station,
With plasticine porters with looking glass ties,
Suddenly someone is there at the turnstyle,
The girl with the kaleidoscope eyes.

{REFRAIN}...

  A                    A7                   A6
e|------ ------ 12----|------ 12---- ------|------ ------ 12----|
B|-------10-----------|--------------10----|-------10-----------|
G|-9------------------|12------------------|11------------------|
D|--------------------|--------------------|--------------------|
A|--------------------|--------------------|--------------------|
E|--------------------|--------------------|--------------------|


  Aaug5sus4 Aaug5
e|------ 10-9-- ------|
B|--------------10----|
G|10------------------|
D|--------------------|
A|--------------------|
E|--------------------|


  A                    A7                   A6
e|------ ------ 12----|------ 12---- ------|------ ------ 12----|
B|-------10-----------|--------------10----|-------10-----------|
G|-9------------------|12------------------|11------------------|
D|--------------------|--------------------|--------------------|
A|--------------------|--------------------|--------------------|
E|--------------------|--------------------|--------------------|
  Pic....ture   your...self   in     a      boat   on     a


  Aaug5sus4 Aaug5      A                    A7
e|------ 10-9-- ------|------ ------ 12----|------ 12---- ------|
B|--------------10----|-------10-----------|--------------10----|
G|10------------------|-9------------------|12------------------|
D|--------------------|--------------------|--------------------|
A|--------------------|--------------------|--------------------|
E|--------------------|--------------------|--------------------|
  river         with   tan....ge.....rine   trees         and

  A6                   F5
e|------ ------ 12----|------ ------ ------|------ ------ ------|
B|-------10-----------|13-----10-----13----|10------------------|
G|11------------------|10------------------|10------------------|
D|--------------------|--------------------|--------------------|
A|--------------------|--------------------|--------------------|
E|--------------------|--------------------|--------------------|
  mar....malade        skies

  A                    A7                   A6
e|------ ------ 12----|------ 12---- ------|------ ------ 12----|
B|-------10-----------|--------------10----|-------10-----------|
G|-9------------------|12------------------|11------------------|
D|--------------------|--------------------|--------------------|
A|--------------------|--------------------|--------------------|
E|--------------------|--------------------|--------------------|
  Some...body      calls      you,   you    answer    quite

  Aaug5sus4 Aaug5      A                    A7
e|------ 10-9-- ------|------ ------ 12----|------ 12---- ------|
B|--------------10----|-------10-----------|--------------10----|
G|10------------------|-9------------------|12------------------|
D|--------------------|--------------------|--------------------|
A|--------------------|--------------------|--------------------|
E|--------------------|--------------------|--------------------|
  slowly           a   girl   with   ka....lei.....dos....cope

  A                                                Dm
e|-9---- 12---- -9----|12---- -9---- 12----|------ 13---- 10----|
B|10------------------|10------------------|-------10-----------|
G|--------------------|--------------------|--------------------|
D|--------------------|--------------------|--------------------|
A|--------------------|--------------------|--------------------|
E|--------------------|--------------------|--------------------|
  eyes

                       Bb
e|13---- ------ ------|1----- 1----- 1-----|1----- 1----- 1-----|
B|--------------------|3------3------3-----|3------3------3-----|
G|--------------------|3------3------3-----|3------3------3-----|
D|--------------------|3------3------3-----|3------3------3-----|
A|--------------------|1------1------1-----|1------1------1-----|
E|--------------------|--------------------|--------------------|
                       Cellophane           flowers       of
e|------ ------ ------|------ ------ ------|------ ------ ------|
B|--------------------|--------------------|--------------------|
G|--------------------|5B7----7------7-----|7------7------7-----|
D|--------------------|--------------------|--------------------|
A|--------------------|--------------------|--------------------|
E|--------------------|--------------------|--------------------|

  C                                         F
e|0----- 0----- 0-----|0----- 0----- 0-----|1----- 1----- 1-----|
B|1------1------1-----|1------1------1-----|1------1------1-----|
G|0------0------0-----|0------0------0-----|2------2------2-----|
D|2------2------2-----|2------2------2-----|3------3------3-----|
A|3------3------3-----|3------3------3-----|3------3------3-----|
E|--------------------|--------------------|1------1------1-----|
  yellow        and    green                towering
e|------ ------ ------|------ ------ ------|------ ------ ------|
B|--------------------|--------------------|--------------------|
G|5----B-7------7-----|7-------------------|5B7----7------7-----|
D|--------------------|--------------------|--------------------|
A|--------------------|--------------------|--------------------|
E|--------------------|--------------------|--------------------|


  Bb
e|1----- 1----- 1-----|1----- 1----- 1-----|1----- 1----- 1-----|
B|1------1------1-----|3------3------3-----|3------3------3-----|
G|2------2------2-----|3------3------3-----|3------3------3-----|
D|3------3------3-----|3------3------3-----|3------3------3-----|
A|3------3------3-----|1------1------1-----|1------1------1-----|
E|1------1------1-----|--------------------|--------------------|
  over          your   head.
e|------ ------ ------|------ ------ ------|------ ------ ------|
B|--------------------|--------------------|--------------------|
G|5B7----7------7-----|7-----R---5---3-----|--------------------|
D|--------------------|--------------------|--------------------|
A|--------------------|--------------------|--------------------|
E|--------------------|--------------------|--------------------|


  C                                         G
e|0----- 0----- 0-----|0----- 0----- 0-----|3----- 3----- 3-----|
B|1------1------1-----|1------1------1-----|3------3------3-----|
G|0------0------0-----|0------0------0-----|0------0------0-----|
D|2------2------2-----|2------2------2-----|0------0------0-----|
A|3------3------3-----|3------3------3-----|2------2------2-----|
E|--------------------|--------------------|3------3------3-----|
  Look   for    the  girl     with   the    sun    in     her
e|------ ------ ------|------ ------ ------|------ ------ ------|
B|--------------------|--------------------|--------------------|
G|5B7----7------7-----|7------7------7-----|5B7----7------7-----|
D|--------------------|--------------------|--------------------|
A|--------------------|--------------------|--------------------|
E|--------------------|--------------------|--------------------|

                       D       X       X       X
e|3----- 3----- 3-----|2------ ------- ------- -------|
B|3------3------3-----|3------------------------------|
G|0------0------0-----|2------------------------------|
D|0------0------0-----|0------------------------------|
A|2------2------2-----|0------------------------------|
E|3------3------3-----|-------------------------------|
  eyes   and    she's  gone
e|------ ------ ------|------- ------- ------- -------|
B|--------------------|-------------------------------|
G|7---R--5------4-----|-------------------------------|
D|--------------------|7------------------------------|
A|--------------------|-------------------------------|
E|--------------------|-------------------------------|


  G               C               D
e|3---3-- 3---3-- 0---0-- 0---0--|2---2-- 2---2-- 2---2-- 2---2--|
B|3---3---3---3---1---1---1---1--|3---3---3---3---3---3---3---3--|
G|0---0---0---0---0---0---0---0--|2---2---2---2---2---2---2---2--|
D|0---0---0---0---2---2---2---2--|0---0---0---0---0---0---0---0--|
A|2---2---2---2---3---3---3---3--|-------------------------------|
E|3---3---3---3------------------|-------------------------------|
  Lucy    in the  sky     with    diamonds
e|------- ------- ------- -------|------- ------- ------- -------|
B|-------------------------------|-------------------------------|
G|-------------------------------|-------------------------------|
D|------------------------2------|-------------------------------|
A|------------2---3---5-------5--|------5-5-----5-5-----5-5------|
E|3---3---5----------------------|-------------------------------|

e|------- 7------ ------- 8------|------- 10----- ------- 10-----|
B|--------8---------------8------|--------10--------------10-----|
G|--------7---------------9------|--------11--------------11-----|
D|-------------------------------|-------------------------------|
A|-------------------------------|-------------------------------|
E|-------------------------------|-------------------------------|

  G               C               D
e|3---3-- 3---3-- 0---0-- 0---0--|2---2-2 2---2-2 2---2-2 2---2--|
B|3---3---3---3---1---1---1---1--|3---3-3-3---3-3-3---3-3-3---3--|
G|0---0---0---0---0---0---0---0--|2---2-2-2---2-2-2---2-2-2---2--|
D|0---0---0---0---2---2---2---2--|0---0-0-0---0-0-0---0-0-0---0--|
A|2---2---2---2---3---3---3---3--|-------------------------------|
E|3---3---3---3------------------|-------------------------------|
  Lucy    in the  sky     with    diamonds
e|------- ------- ------- -------|------- ------- ------- -------|
B|-------------------------------|-------------------------------|
G|-------------------------------|-------------------------------|
D|------------------------2------|-------------------------------|
A|------------2---3---5-------5--|------5-5-----5-5-----5-5---5--|
E|3---3---5----------------------|-------------------------------|

e|------- 7------ ------- 8------|------- 10----- ------- 10-----|
B|--------8---------------8------|--------10--------------10-----|
G|--------7---------------9------|--------11--------------11-----|
D|-------------------------------|-------------------------------|
A|-------------------------------|-------------------------------|
E|-------------------------------|-------------------------------|

  G               C               D
e|3---3-- 3---3-- 0---0-- 0---0--|2---2-- 2---2-- 2---2-- 2---2--|
B|3---3---3---3---1---1---1---1--|3---3---3---3---3---3---3---3--|
G|0---0---0---0---0---0---0---0--|2---2---2---2---2---2---2---2--|
D|0---0---0---0---2---2---2---2--|0---0---0---0---0---0---0---0--|
A|2---2---2---2---3---3---3---3--|-------------------------------|
E|3---3---3---3------------------|-------------------------------|
  Lucy    in the  sky     with    diamonds
e|------- ------- ------- -------|------- ------- ------- -------|
B|-------------------------------|-------------------------------|
G|-------------------------------|-------------------------------|
D|------------------------2------|-------------------------------|
A|------------2---3---5-------5--|------5-5-----5-5-----5-5------|
E|3---3---5----------------------|-------------------------------|

e|------- 7------ ------- 8------|------- 10----- ------- 10-----|
B|--------8---------------8------|--------10--------------10-----|
G|--------7---------------9------|--------11--------------11-----|
D|-------------------------------|-------------------------------|
A|-------------------------------|-------------------------------|
E|-------------------------------|-------------------------------|


e|2---2-- 2---2-- 2---2-- 2---2--|
B|3---3---3---3---3---3---3---3--|
G|2---2---2---2---2---2---2---2--|
D|0---0---0---0---0---0---0---0--|
A|-------------------------------|
E|-------------------------------|
  Aaah
e|------- ------- ------- -------|
B|-------------------------------|
G|-------------------------------|
D|-------------------------------|
A|5------------------------------|
E|-------------------------------|

e|10----- ------- ------- -------|
B|10-----------------------------|
G|11-----------------------------|
D|-------------------------------|
A|-------------------------------|
E|-------------------------------|

e|------ ------ 12----|------ 12---- ------|------ ------ 12----|
B|-------10-----------|--------------10----|-------10-----------|
G|-9------------------|12------------------|11------------------|
D|--------------------|--------------------|--------------------|
A|--------------------|--------------------|--------------------|
E|--------------------|--------------------|--------------------|
  Follow        her    down          to a   bridge by     a


e|------ 10-9-- ------|------ ------ 12----|------ 12---- ------|
B|--------------10----|-------10-----------|--------------10----|
G|10------------------|-9------------------|12------------------|
D|--------------------|--------------------|--------------------|
A|--------------------|--------------------|--------------------|
E|--------------------|--------------------|--------------------|
  fountain       where rocking-horse        people        eat


e|------ ------ 12----|------ ------ ------|------ ------ ------|
B|-------10-----------|13-----10-----13----|10-----13-----10----|
G|11------------------|10------------------|10------------------|
D|--------------------|--------------------|--------------------|
A|--------------------|--------------------|--------------------|
E|--------------------|--------------------|--------------------|
  marshmallow          pies,


e|------ ------ 12----|------ 12---- ------|------ ------ 12----|
B|-------10-----------|--------------10----|-------10-----------|
G|-9------------------|12------------------|11------------------|
D|--------------------|--------------------|--------------------|
A|--------------------|--------------------|--------------------|
E|--------------------|--------------------|--------------------|
  everyone             smiles as     you  drift    past   the flowers


e|------ 10-9-- ------|------ ------ 12----|------ 12---- ------|
B|--------------10----|-------10-----------|--------------10----|
G|10------------------|-9------------------|12------------------|
D|--------------------|--------------------|--------------------|
A|--------------------|--------------------|--------------------|
E|--------------------|--------------------|--------------------|
                  that grow   so     incredibly


e|-9---- 12---- -9----|12---- -9---- 12----|13---- 10---- 10----|
B|10------------------|10------------------|10------------------|
G|--------------------|--------------------|--------------------|
D|--------------------|--------------------|--------------------|
A|--------------------|--------------------|--------------------|
E|--------------------|--------------------|--------------------|
  high.


e|10---- ------ ------|1----- 1----- 1-----|1----- 1----- 1-----|
B|--------------------|3------3------3-----|3------3------3-----|
G|--------------------|3------3------3-----|3------3------3-----|
D|--------------------|3------3------3-----|3------3------3-----|
A|--------------------|1------1------1-----|1------1------1-----|
E|--------------------|--------------------|--------------------|
                       Newspaper         taxis             appear
e|------ ------ ------|------ ------ ------|------ ------ ------|
B|--------------------|--------------------|--------------------|
G|--------------------|5B7----7------7-----|7------7------7-----|
D|--------------------|--------------------|--------------------|
A|--------------------|--------------------|--------------------|
E|--------------------|--------------------|--------------------|

e|0----- 0----- 0-----|0----- 0----- 0-----|1----- 1----- 1-----|
B|1------1------1-----|1------1------1-----|1------1------1-----|
G|0------0------0-----|0------0------0-----|2------2------2-----|
D|2------2------2-----|2------2------2-----|3------3------3-----|
A|3------3------3-----|3------3------3-----|3------3------3-----|
E|--------------------|--------------------|1------1------1-----|
         on     the shore                   waiting       to take
e|------ ------ ------|------ ------ ------|------ ------ ------|
B|--------------------|--------------------|--------------------|
G|5----B-7------7-----|7-------------------|5B7----7------7-----|
D|--------------------|--------------------|--------------------|
A|--------------------|--------------------|--------------------|
E|--------------------|--------------------|--------------------|

e|1----- 1----- 1-----|1----- 1----- 1-----|1----- 1----- 1-----|
B|1------1------1-----|3------3------3-----|3------3------3-----|
G|2------2------2-----|3------3------3-----|3------3------3-----|
D|3------3------3-----|3------3------3-----|3------3------3-----|
A|3------3------3-----|1------1------1-----|1------1------1-----|
E|1------1------1-----|--------------------|--------------------|
        you     away
e|------ ------ ------|------ ------ ------|------ ------ ------|
B|--------------------|--------------------|--------------------|
G|5B7----7------7-----|7-----R---5---3-----|--------------------|
D|--------------------|--------------------|--------------------|
A|--------------------|--------------------|--------------------|
E|--------------------|--------------------|--------------------|

e|0----- 0----- 0-----|0----- 0----- 0-----|3----- 3----- 3-----|
B|1------1------1-----|1------1------1-----|3------3------3-----|
G|0------0------0-----|0------0------0-----|0------0------0-----|
D|2------2------2-----|2------2------2-----|0------0------0-----|
A|3------3------3-----|3------3------3-----|2------2------2-----|
E|--------------------|--------------------|3------3------3-----|
  Climb  in     the back      with   the sun       in     her eyes
e|------ ------ ------|------ ------ ------|------ ------ ------|
B|--------------------|--------------------|--------------------|
G|5B7----7------7-----|5B7----7------7-----|5B7----7------7-----|
D|--------------------|--------------------|--------------------|
A|--------------------|--------------------|--------------------|
E|--------------------|--------------------|--------------------|


                       D       X       X       X
e|3----- 3----- 3-----|2------ ------- ------- -------|
B|3------3------3-----|3------------------------------|
G|0------0------0-----|2------------------------------|
D|0------0------0-----|0------------------------------|
A|2------2------2-----|0------------------------------|
E|3------3------3-----|-------------------------------|
         and    she's  gone
e|------ ------ ------|------- ------- ------- -------|
B|--------------------|-------------------------------|
G|7---R--5------4-----|-------------------------------|
D|--------------------|7------------------------------|
A|--------------------|-------------------------------|
E|--------------------|-------------------------------|


e|3---3-- 3---3-- 0---0-- 0---0-0|2---2-2 2---2-- 2---2-- 2---2--|
B|3---3---3---3---1---1---1---1-1|3---3-3-3---3---3---3---3---3--|
G|0---0---0---0---0---0---0---0-0|2---2-2-2---2---2---2---2---2--|
D|0---0---0---0---2---2---2---2-2|0---0-0-0---0---0---0---0---0--|
A|2---2---2---2---3---3---3---3-3|-------------------------------|
E|3---3---3---3------------------|-------------------------------|
  Lucy    in the  sky     with    diamonds
e|------- ------- ------- -------|------- ------- ------- -------|
B|-------------------------------|-------------------------------|
G|-------------------------------|-------------------------------|
D|------------------------2------|-------------------------------|
A|------------2---3---5-------5--|-------------------------------|
E|3---3---5----------------------|-------------------------------|

e|------- 7------ ------- 8------|------- 10----- ------- 10-----|
B|--------8---------------8------|--------10--------------10-----|
G|--------7---------------9------|--------11--------------11-----|
D|-------------------------------|-------------------------------|
A|-------------------------------|-------------------------------|
E|-------------------------------|-------------------------------|


e|3---3-- 3---3-- 0---0-- 0---0--|2---2-- 2-2-2-- 2---2-- 2-2-2--|
B|3---3---3---3---1---1---1---1--|3---3---3-3-3---3---3---3-3-3--|
G|0---0---0---0---0---0---0---0--|2---2---2-2-2---2---2---2-2-2--|
D|0---0---0---0---2---2---2---2--|0---0---0-0-0---0---0---0-0-0--|
A|2---2---2---2---3---3---3---3--|-------------------------------|
E|3---3---3---3------------------|-------------------------------|
  Lucy    in the  sky     with    diamonds
e|------- ------- ------- -------|------- ------- ------- -------|
B|-------------------------------|-------------------------------|
G|-------------------------------|-------------------------------|
D|------------------------2------|-------------------------------|
A|------------2---3---5-------5--|----5-5-5---5-5-5---5-5-5------|
E|3---3---5----------------------|-------------------------------|

e|------- 7------ ------- 8------|------- 10----- ------- 10-----|
B|--------8---------------8------|--------10--------------10-----|
G|--------7---------------9------|--------11--------------11-----|
D|-------------------------------|-------------------------------|
A|-------------------------------|-------------------------------|
E|-------------------------------|-------------------------------|


e|3---3-- 3---3-- 0---0-- 0---0-0|2---2-- 2---2-- 2---2-- 2---2--|
B|3---3---3---3---1---1---1---1-1|3---3---3---3---3---3---3---3--|
G|0---0---0---0---0---0---0---0-0|2---2---2---2---2---2---2---2--|
D|0---0---0---0---2---2---2---2-2|0---0---0---0---0---0---0---0--|
A|2---2---2---2---3---3---3---3-3|-------------------------------|
E|3---3---3---3------------------|-------------------------------|
  Lucy    in the  sky     with    diamonds
e|------- ------- ------- -------|------- ------- ------- -------|
B|-------------------------------|-------------------------------|
G|-------------------------------|-------------------------------|
D|------------------------2------|-------------------------------|
A|------------2---3---5-------5--|----5-5-5---5-5-5---5-5-5---5--|
E|3---3---5----------------------|-------------------------------|

e|------- 7------ ------- 8------|------- 10----- ------- 10-----|
B|--------8---------------8------|--------10--------------10-----|
G|--------7---------------9------|--------11--------------11-----|
D|-------------------------------|-------------------------------|
A|-------------------------------|-------------------------------|
E|-------------------------------|-------------------------------|


e|2---2-- 2---2-- 2---2-- 2---2--|
B|3---3---3---3---3---3---3---3--|
G|2---2---2---2---2---2---2---2--|
D|0---0---0---0---0---0---0---0--|
A|-------------------------------|
E|-------------------------------|
  Aaah
e|------- ------- ------- -------|
B|-------------------------------|
G|-------------------------------|
D|-------------------------------|
A|5------------------------------|
E|-------------------------------|

e|10----- ------- ------- -------|
B|10-----------------------------|
G|11-----------------------------|
D|-------------------------------|
A|-------------------------------|
E|-------------------------------|

e|------ ------ 12----|------ 12---- ------|------ ------ 12----|
B|-------10-----------|--------------10----|-------10-----------|
G|-9------------------|12------------------|11------------------|
D|--------------------|--------------------|--------------------|
A|--------------------|--------------------|--------------------|
E|--------------------|--------------------|--------------------|
  Pic....ture   your...self   on     a   train     in     a station


e|------ 10-9-- ------|------ ------ 12----|------ 12---- ------|
B|--------------10----|-------10-----------|--------------10----|
G|10------------------|-9------------------|12------------------|
D|--------------------|--------------------|--------------------|
A|--------------------|--------------------|--------------------|
E|--------------------|--------------------|--------------------|
                with   plasticine           porters          with


e|------ ------ 12----|------ ------ ------|------ ------ ------|
B|-------10-----------|13-----10-----13----|10------------------|
G|11------------------|10------------------|--------------------|
D|--------------------|--------------------|--------------------|
A|--------------------|--------------------|--------------------|
E|--------------------|--------------------|--------------------|
  looking       glass  ties


e|------ ------ 12----|------ 12---- ------|------ ------ 12----|
B|-------10-----------|--------------10----|-------10-----------|
G|-9------------------|12------------------|11------------------|
D|--------------------|--------------------|--------------------|
A|--------------------|--------------------|--------------------|
E|--------------------|--------------------|--------------------|
  suddenly             someone       is     there  at     the turn..


e|------ 10-9-- ------|------ ------ 12----|------ 12---- ------|
B|-----------------10-|-------10-----------|--------------10----|
G|10------------------|-9------------------|12------------------|
D|--------------------|--------------------|--------------------|
A|--------------------|--------------------|--------------------|
E|--------------------|--------------------|--------------------|
  .......stile,  the girl     with   kaleidoscope

                                                    X       X       X
e|------ 9----- 12----|9----- 12---- 9-----|10----- ------- ------- -------|
B|--------------------|--------------------|-------------------------------|
G|--------------------|--------------------|-------------------------------|
D|--------------------|--------------------|-------------------------------|
A|--------------------|--------------------|-------------------------------|
E|--------------------|--------------------|-------------------------------|
  eyes


e|3---3-- 3---3-- 0---0-- 0---0--|2---2-- 2-2-2-- 2---2-2 2---2--|
B|3---3---3---3---1---1---1---1--|3---3---3-3-3---3---3-3-3---3--|
G|0---0---0---0---0---0---0---0--|2---2---2-2-2---2---2-2-2---2--|
D|0---0---0---0---2---2---2---2--|0---0---0-0-0---0---0-0-0---0--|
A|2---2---2---2---3---3---3---3--|-------------------------------|
E|3---3---3---3------------------|-------------------------------|
  Lucy    in the  sky     with    diamonds
e|------- ------- ------- -------|------- ------- ------- -------|
B|-------------------------------|-------------------------------|
G|-------------------------------|-------------------------------|
D|------------------------2------|-------------------------------|
A|------------2---3---5-------5--|------5-5-----5-5-----5-5-----5|
E|3---3---5----------------------|-------------------------------|

e|7------ ------- -8----- -------|10----- ------- 1010--1010-----|
B|8----------------8-------------|10--------------1010--1010-----|
G|7----------------9-------------|11--------------1111--1111-----|
D|-------------------------------|-------------------------------|
A|-------------------------------|-------------------------------|
E|-------------------------------|-------------------------------|


e|3---3-- 3---3-- 0---0-- 0---0-0|2---2-- 2---2-- 2-2-2-- 2---2--|
B|3---3---3---3---1---1---1---1-1|3---3---3---3---3-3-3---3---3--|
G|0---0---0---0---0---0---0---0-0|2---2---2---2---2-2-2---2---2--|
D|0---0---0---0---2---2---2---2-2|0---0---0---0---0-0-0---0---0--|
A|2---2---2---2---3---3---3---3-3|-------------------------------|
E|3---3---3---3------------------|-------------------------------|
  Lucy    in the  sky     with    diamonds
e|------- ------- ------- -------|------- ------- ------- -------|
B|-------------------------------|-------------------------------|
G|-------------------------------|-------------------------------|
D|------------------------2------|-------------------------------|
A|------------2---3---5-------5--|------5-5-----5-5-----5-5------|
E|3---3---5----------------------|-------------------------------|

e|7------ ------- -8----- -------|10----- ------- 1010--1010-----|
B|8----------------8-------------|10--------------1010--1010-----|
G|7----------------9-------------|11--------------1111--1111-----|
D|-------------------------------|-------------------------------|
A|-------------------------------|-------------------------------|
E|-------------------------------|-------------------------------|


e|3---3-- 3---3-- 0---0-- 0---0--|2---2-- 2---2-2 2---2-- 2-2-2--|
B|3---3---3---3---1---1---1---1--|3---3---3---3-3-3---3---3-3-3--|
G|0---0---0---0---0---0---0---0--|2---2---2---2-2-2---2---2-2-2--|
D|0---0---0---0---2---2---2---2--|0---0---0---0-0-0---0---0-0-0--|
A|2---2---2---2---3---3---3---3--|-------------------------------|
E|3---3---3---3------------------|-------------------------------|
  Lucy    in the  sky     with    diamonds
e|------- ------- ------- -------|------- ------- ------- -------|
B|-------------------------------|-------------------------------|
G|-------------------------------|-------------------------------|
D|------------------------2------|-------------------------------|
A|------------2---3---5-------5--|------5-5-----5-5-------5-5-5--|
E|3---3---5----------------------|-------------------------------|

e|7------ ------- -8----- -------|10----- ------- 1010--1010--10-|
B|8----------------8-------------|10--------------1010--1010--10-|
G|7----------------9-------------|11--------------1111--1111--11-|
D|-------------------------------|-------------------------------|
A|-------------------------------|-------------------------------|
E|-------------------------------|-------------------------------|


e|2---2-- 2---2-- 2---2-- 2---2--|0---0-- 0---0-- 0---0-- 0---0--|
B|3---3---3---3---3---3---3---3--|2---2---2---2---2---2---2---2--|
G|2---2---2---2---2---2---2---2--|2---2---2---2---2---2---2---2--|
D|0---0---0---0---0---0---0---0--|2---2---2---2---2---2---2---2--|
A|-------------------------------|0---0---0---0---0---0---0---0--|
E|-------------------------------|-------------------------------|
  Aaah
e|------- ------- ------- -------|------- ------- ------- -------|
B|-------------------------------|-------------------------------|
G|-------------------------------|-------------------------------|
D|-------------------------------|-------------------------------|
A|5------------------------------|-------------------------------|
E|-------------------------------|5---------------5-----5---5-5--|

e|10----- ------- ------- -------|-9----- ------- ------- -------|
B|10-----------------------------|10-----------------------------|
G|11-----------------------------|-9-----------------------------|
D|-------------------------------|-------------------------------|
A|-------------------------------|-------------------------------|
E|-------------------------------|-------------------------------|

e|3---3-- 3---3-- 0---0-- 0---0-0|2---2-- 2---2-- 2-2-2-- 2---2--|
B|3---3---3---3---1---1---1---1-1|3---3---3---3---3-3-3---3---3--|
G|0---0---0---0---0---0---0---0-0|2---2---2---2---2-2-2---2---2--|
D|0---0---0---0---2---2---2---2-2|0---0---0---0---0-0-0---0---0--|
A|2---2---2---2---3---3---3---3-3|-------------------------------|
E|3---3---3---3------------------|-------------------------------|
  Lucy    in the  sky     with    diamonds
e|------- ------- ------- -------|------- ------- ------- -------|
B|-------------------------------|-------------------------------|
G|-------------------------------|-------------------------------|
D|------------------------2------|-------------------------------|
A|------------2---3---5-------5--|------5-5-----5-5-----5-5------|
E|3---3---5----------------------|-------------------------------|

e|7------ ------- -8----- -------|10----- ------- 1010--1010-----|
B|8----------------8-------------|10--------------1010--1010-----|
G|7----------------9-------------|11--------------1111--1111-----|
D|-------------------------------|-------------------------------|
A|-------------------------------|-------------------------------|
E|-------------------------------|-------------------------------|


e|3---3-- 3---3-- 0---0-- 0---0-0|2---2-- 2---2-- 2-2-2-- 2---2--|
B|3---3---3---3---1---1---1---1-1|3---3---3---3---3-3-3---3---3--|
G|0---0---0---0---0---0---0---0-0|2---2---2---2---2-2-2---2---2--|
D|0---0---0---0---2---2---2---2-2|0---0---0---0---0-0-0---0---0--|
A|2---2---2---2---3---3---3---3-3|-------------------------------|
E|3---3---3---3------------------|-------------------------------|
  Lucy    in the  sky     with    diamonds
e|------- ------- ------- -------|------- ------- ------- -------|
B|-------------------------------|-------------------------------|
G|-------------------------------|-------------------------------|
D|------------------------2------|-------------------------------|
A|------------2---3---5-------5--|------5-5-----5-5-----5-5------|
E|3---3---5----------------------|-------------------------------|

e|7------ ------- -8----- -------|10----- ------- 1010--1010-----|
B|8----------------8-------------|10--------------1010--1010-----|
G|7----------------9-------------|11--------------1111--1111-----|
D|-------------------------------|-------------------------------|
A|-------------------------------|-------------------------------|
E|-------------------------------|-------------------------------|


e|3---3-- 3---3-- 0---0-- 0---0-0|2---2-- 2---2-- 2-2-2-- 2---2--|
B|3---3---3---3---1---1---1---1-1|3---3---3---3---3-3-3---3---3--|
G|0---0---0---0---0---0---0---0-0|2---2---2---2---2-2-2---2---2--|
D|0---0---0---0---2---2---2---2-2|0---0---0---0---0-0-0---0---0--|
A|2---2---2---2---3---3---3---3-3|-------------------------------|
E|3---3---3---3------------------|-------------------------------|
  Lucy    in the  sky     with    diamonds
e|------- ------- ------- -------|------- ------- ------- -------|
B|-------------------------------|-------------------------------|
G|-------------------------------|-------------------------------|
D|------------------------2------|-------------------------------|
A|------------2---3---5-------5--|------5-5-----5-5-----5-5------|
E|3---3---5----------------------|-------------------------------|

e|7------ ------- -8----- -------|10----- ------- 1010101010101010-|
B|8----------------8-------------|10--------------1010101010101010-|
G|7----------------9-------------|11--------------1111111111111111-|
D|-------------------------------|---------------------------------|
A|-------------------------------|---------------------------------|
E|-------------------------------|---------------------------------|


e|2---2-- 2---2-- 2---2-- 2---2--|0---0-- 0---0-- 0---0-- 0---0--|
B|3---3---3---3---3---3---3---3--|2---2---2---2---2---2---2---2--|
G|2---2---2---2---2---2---2---2--|2---2---2---2---2---2---2---2--|
D|0---0---0---0---0---0---0---0--|2---2---2---2---2---2---2---2--|
A|-------------------------------|0---0---0---0---0---0---0---0--|
E|-------------------------------|-------------------------------|
  Aaah
e|------- ------- ------- -------|------- ------- ------- -------|
B|-------------------------------|-------------------------------|
G|-------------------------------|-------------------------------|
D|-------------------------------|-------------------------------|
A|5------------------------------|-------------------------------|
E|-------------------------------|----------------5-------5-5-5--|

e|10----- ------- ------- -------|-9----- ------- ------- -------|
B|10-----------------------------|10-----------------------------|
G|11-----------------------------|-9-----------------------------|
D|-------------------------------|-------------------------------|
A|-------------------------------|-------------------------------|
E|-------------------------------|-------------------------------|


e|3---3-- 3---3-- 0---0-- 0---0--|2---2-- 2---2-- 2---2-- 2---2--|
B|3---3---3---3---1---1---1---1--|3---3---3---3---3---3---3---3--|
G|0---0---0---0---0---0---0---0--|2---2---2---2---2---2---2---2--|
D|0---0---0---0---2---2---2---2--|0---0---0---0---0---0---0---0--|
A|2---2---2---2---3---3---3---3--|-------------------------------|
E|3---3---3---3------------------|-------------------------------|
  Lucy    in the  sky     with    diamonds
e|------- ------- ------- -------|------- ------- ------- -------|
B|-------------------------------|--------6-----------6----------|
G|-------------------------------|----7-----------7-----------7--|
D|------------------------2------|-------------------------------|
A|------------2---3---5-------5--|-------------------------------|
E|3---3---5----------------------|-------------------------------|

e|7------ ------- 8------ -------|10----- ------- ------1010-----|
B|8---------------8--------------|10--------------------1010-----|
G|7---------------9--------------|11--------------------1111-----|
D|-------------------------------|-------------------------------|
A|-------------------------------|-------------------------------|
E|-------------------------------|-------------------------------|
  .............................Fade..............................


e|3---3-- 3---3-- 0---0-- 0---2--|------- 2---2-- 2---2-- 2---2--|
B|3---3---3---3---1---1---1---3--|--------3---3---3---3---3---3--|
G|0---0---0---0---0---0---0---2--|--------2---2---2---2---2---2--|
D|0---0---0---0---2---2---2---0--|--------0---0---0---0---0---0--|
A|2---2---2---2---3---3---3------|-------------------------------|
E|3---3---3---3------------------|-------------------------------|
  Lucy    in the  sky     with    diamonds
e|------- ------- ------- -------|------- ------- ------- -------|
B|6------------------------------|-------------------------------|
G|--------7----------------------|-------------------------------|
D|-------------------------------|-------------------------------|
A|-------------------------------|------------------5---4-5---5--|
E|-------------------------------|-------------------------------|

e|7------ ------- 8------ -------|1010--1010----- ----1010-------|
B|8---------------8--------------|1010--1010----------1010-------|
G|7---------------9--------------|1111--1111----------1111-------|
D|-------------------------------|-------------------------------|
A|-------------------------------|-------------------------------|
E|-------------------------------|-------------------------------|
  ...............................................................

e|3---3-- 3---3-- 0---0-- 0---2-2|2---2-- 2---2-2 2---2-- 2---2--|
B|3---3---3---3---1---1---1---3-3|3---3---3---3-3-3---3---3---3--|
G|0---0---0---0---0---0---0---2-2|2---2---2---2-2-2---2---2---2--|
D|0---0---0---0---2---2---2---0-0|0---0---0---0-0-0---0---0---0--|
A|2---2---2---2---3---3---3------|-------------------------------|
E|3---3---3---3------------------|-------------------------------|
  Lucy    in the  sky     with    diamonds
e|------- ------- ------- -------|------- ------- ------- -------|
B|-------------------------------|-------------------------------|
G|-------------------------------|-------------------------------|
D|------------------------2------|-------------------------------|
A|------------2---3---5-------5--|------5-5-----5-5-----5-5------|
E|3---3---5----------------------|-------------------------------|
  ...............................................................

        B  Bend
        R  Release
        /  slide up
        \  slide down
        H  hammer-on
        P  pull-off
        ~  vibrato
        +  harmonic
        x  Mute note
        . - play note like a dot in standard notation
        ^ - ties two notes together


-----------------
A Day in the Life
-----------------

The number below the Chord name is how many times you should strum the chord. Listen
to the song for the strumming pattern, but it's mostly even strums.
When you play Em, and Em7 strum the chord, the on the second one strum it harder, the
on the third strum it lighter, then on the fourth hit it harder. For Asus2 it's usually
strum light, the on the next three hit it harder, then light, the next three are harder.
But listen to the song for the exact strumming  pattern, these are just the ones I use
when playing it, so enjoy.

Chords used in the song
  G  Bm Em Em7 C  Asus2 F  E  B  D  A
|-3--2--0--0---0--0-----1--0--x--2--0--|
|-0--0--0--3---1--0-----1--0--4--3--2--|
|-0--2--0--0---0--2-----2--1--4--2--2--|
|-0--0--2--2---2--2-----3--2--4--0--2--|
|-2--2--2--2---3--0-----x--2--2--x--0--|
|-3--x--x--x---x--x-----x--0--x--x--x--|

G	Bm	Em	Em7 	C
4	4	4	4	16

G 	Bm	Em	Em7	C	Em	Asus2
4	4	4	4	4	4	8

G      Bm       Em      Em7     C       F       Em     Em7
4	4	4	4	4	4	4	4

C       F       Em      C
4	4	4	4

G 	Bm	Em	Em7	C	Em	Asus2
4	4	4	4	4	4	8

G 	Bm	Em	Em7	C       F       Em     Em7	C
4	4	4	4	4	4	4	4	8

G 	Bm	Em	Em7	C	Em	Asus2
4	4	4	4	4	4	8

G 	Bm	Em	Em7	C       F       Em     Em7      C
4	4	4	4	4   	4	4	4	12

Bm     Em      Asus2    Bm
4	4	4	2

Solo 1 (Substituted for Orchestra)

|-----------------------------------------------------------------------|
|-----------------------------------------------------------------------|
|-----------------------------------------------------------------------|
|-----------------------------------------------------------------------|
|-----------------------------------------------------------------------|
|-1h3h4--5h7h8--10h12-12b--13h15-15b--16b-17b-18b--19b-20b-21b--22b-22b-|

-------------------------------------------19--19-21-21b-----12-14------|
---------------------------------19--19-21----------------14--------15--|
-----------------------19--19-21----------------------------------------|
-------------19--19-21--------------------------------------------------|
-------19-21------------------------------------------------------------|
--22b-------------------------------------------------------------------|

--13-15-----14-16-----15-17-----16-18-----17-19-----18-20-----19-21-----|
---------16--------17--------18--------19--------20--------21--------22-|
------------------------------------------------------------------------|
------------------------------------------------------------------------|
------------------------------------------------------------------------|
------------------------------------------------------------------------|

--20-22--18/20-20b--19/21-21b--20/22-22b-22b-22b-22b--19-17-19--17-15-----|
----------------------------------------------------------------------19--|
--------------------------------------------------------------------------|
--------------------------------------------------------------------------|
--------------------------------------------------------------------------|
--------------------------------------------------------------------------|

-------------------------------------------------------------------------|
--17-19b-19-17-15-17-15--------------------------------------------------|
------------------------17-15-----------------------------------13-------|
------------------------------17-15-17b-17-15-------------13-15----15-13-|
----------------------------------------------17-15-13-15----------------|
-------------------------------------------------------------------------|

----------------------------------------------------|
----------------------------------------------------|
----------------------------------------------------|
----------------------------------------------------|
-15p13-13/10----------------------------------------|
-------------12-10-8-5-3-1-3p0h3p0h3p0h3p0h3p0h3p0--|

E	D	E	B	E	B	E	D	E	B
28	8	4	4	4	8	16	8	4	4

E	B
4	4

Play over the ah ah ah ahhh parts
C	G	D	A	E	C	G	D	A	E
3	3	2	2	2	1	3	3	2	1

D	C      D      G	Follow the orchestra part for this.
1	2      1      1

G 	Bm	Em	Em7	C	Em	Asus2
4	4	4	4	4	4	8

G 	Bm	Em	Em7	C      F       Em      Em7     C
4	4	4	4	4   	4	4	4      12

Bm      Em      Asus2   Bm
4	4	4	4

Solo 2 For Second Orchestra

|-----------------2-4-5---------------------------------------------------|
|---------------3-------2-4-5---------------------------------------------|
|-------------2---------------2-4-5---------------------------------------|
|---------2-4-----------------------2h4h5---------------------------------|
|-----2-3---------------------------------2h4h5---------------------------|
|-2-3-------------------------------------------2h4h5-2h4h5-2h4h5-1/3-2/4-|

-------------------------------------------------------------------------|
-------------------------------------------------------------------------|
-------------------------------------------------------------------------|
-------------------------------------------------1/3-2/4-3/5-4/6-5/7-6/8-|
---------------------1/3-2/4-3/5-4/6-5/7-6/8-7/9-------------------------|
-3/5-4/6-5/7-6/8-7/9-----------------------------------------------------|

---------------9-7-6-7-9-------------------------------------------------|
-----------6-7-----------7-6---------------------------------------------|
-------7-9-------------------9-7-------------------5---------------------|
-7/9-9---------------------------9-7-----------5-8---7-5-7/9-9/7-8/6-7/5-|
-------------------------------------7-5---5-7---------------------------|
-----------------------------------------7-------------------------------|

-------------------------------------------------------------------------|
-------------------------------------------------------------------------|
-------------------------------------------------------------------------|
-6/4-5/3-4/2-3/1-2p0-----------------------------------------------------|
---------------------9/7-8/6-7/6-6/4-5/3-4/3-3/1-2p0---------------------|
-----------------------------------------------------9/7-8/6-7/5-6/4-5/3-|

-------------0--|
-------------0--|
-------------1--|
-------------2--|
-------------2--|
-4/2-3/1-2p0-0--|


E (hit as hard as possible)
1

Part played after the E Chord Rings Out

|--12--|	Harmonic
|------|
|------|
|------|
|------|
|------|

Guitar Part Substituted for the looping voice part

|--------7---------------|
|----7-9---9-7-9-10-9-7--|
|--9---------------------|	X12
|------------------------|
|------------------------|
|------------------------|


--------------------
All You Need is Love
--------------------

intro:

``` means to let the note ring

E-----------------------------------10```----------------------------------|
B------------------------10---10----------12-------------------------------|
G-------------12---12--------------------------12--------------------------|
D--12---12-----------------------------------------------------------------|
A--------------------------------------------------------------------------|
E--------------------------------------------------------------------------|


E------------------------------------------------------------------------|
B-------12---------------13```------------10--------10-------------------|
G--12------12----------------------------------12------------------------|
D------------------14----------------------------------------------------|
A------------------------------------------------------------------------|
E------------------------------------------------------------------------|


G           D/F#      Em
Love      love        love

G          D/F#     Em
Love     love        love

D7/A    G          D7/A
Love     love       love

(Then play something along the lines of this)

E-------------------------------------------------------------|
B-------------------------------------------------------------|
G-------------------------------------------------------------|
D--0-------------------0----0--2------------------------------|
A-------3-----2---3-------------------------------------------|
E-------------------------------------------------------------|

G                                    D/F#                 Em
There's nothing you can do that can't be done

G                                   D/F#                    Em
Theres nothing you can sing that can't be sung

D7/A                   G                      D/F#
Nothing you can say but you can learn to
               D7/A
play the game

D7/A      D7
It's          easy


There's nothing you can make that can't be made
No one  you can save that can't be saved
Nothing you can do but you can learn how to be you in time
It's easy


CHORUS:

G          A7       D7
All you need is love

G          A7       D7
All you need is love

G          B7       Em         G/D
All you need is love        love

C             D7      G
Love is all you need


There's nothing you can know that isn't known
Nothing you can see that isn't shown
Nowhere you can be that isn't where you're meant to be
Its easy

CHORUS

C           D7      G
Love is all you need

G          A7       D7
All you need is love

D7                         G          A7       D7
All together now   All you need is love

D7                        G          A7       D7
Everybody now   All you need is love

G      D     G
Love is all you need   (repeats a few times)

(Then John (I think) starts going "Oh yeah  - loves you yeah yeah
yeah  - she loves you yeah yeah yeah").

Chords used:

A7     x02020
B7     x21202
C       x32010
D       xx0232
D/F#  xx4232
D7     xx0212
D7/A x00212
Em    022000
G      320033
G/D  xx0033


---------------
I Am the Walrus
---------------

INTRO
Guitar 1 (clean w/ chorus eff.)
e|---------------------|-----------------------------------------|
B|-4-0-4-0-4-0-4-0-4-0-|-4-0-4-0-4-0-4-0-4-0-4-0-4-0-4-0-4-0-4-0-|
G|-4-4-4-4-4-4-4-4-4-4-|-4-4-4-4-4-4-4-4-4-4-4-4-4-4-4-4-4-4-4-4-|
D|---------------------|-----------------------------------------|
A|---------------------|-----------------------------------------|
E|---------------------|-----------------------------------------|
Guitar 2 (light distortion)
e|---------------------|-----------------------------------------|
B|---------------------|-2/4-----2---2/7-------------3---0-------|
G|---------------------|-----------------4-------2---------------|
D|---------------------|-----------------------------------------|
A|---------------------|-----------------------------------------|
E|---------------------|-----------------------------------------|

Gui. 1
e|-------------------------------------------------|
B|-3-0-3-0-3-0-3-0---------------------------------|
G|-4-4-4-4-4-4-4-4-2-0-2-0-2-0-2-0-5-0-5-0-5-0-5-0-|
D|-----------------2-2-2-2-2-2-2-2-5-5-5-5-5-5-5-5-|
A|-------------------------------------------------|
E|-------------------------------------------------|
Gui. 2
e|-------------------------------------------------|
B|2/3~~~~------------------------------------------|
G|-----------------2~~~~-------2/5~~~~~~~~---------|
D|-------------------------------------------------|
A|-------------------------------------------------|
E|-------------------------------------------------|

VERSE
Gui. 1 (chorus eff. Optional)
    A       G       C       D          A
e|---------------------------------|-----|
B|.-------------------------------.|-----|
G|--6-x-6-x-4-x-4-x-5-x-5-x-7-x-7--|---6-|
D|.-7-x-7-x-5-x-5-x-5-x-5-x-7-x-7-.|---7-|
A|--7-x-7-x-5-x-5-x-3-x-3-x-5-x-5--|---7-|
E|--5-x-5-x-3-x-3-x-3-x-3-x-5-x-5--|---5-|
    I am he as you...            ...I'm crying.

Gui. 2 (w/ dist.) - Fills (what the strings play)
e|-----------------|-----8-10---12~~~~-|---------------------|
B|-5b4b5b4b5b4b5b4-|-10----------------|-5b4b5b4b5b4b5b4b5~~~|
G|-----------------|-------------------|---------------------|
D|-----------------|-------------------|---------------------|
A|-----------------|-------------------|---------------------|
E|-----------------|-------------------|---------------------|

VERSE 2
Gui. 1 (chorus eff. Optional)
    A       G       C       D       A       G       F
e|------------------------------------------------------------------|
B|.-----------------------------------------------------------------|
G|--6-x-6-x-4-x-4-x-5-x-5-x-7-x-7-x-6-x-6-x-4-x-4-x-2-x-2-x-2-x-1-x-|
D|.-7-x-7-x-5-x-5-x-5-x-5-x-7-x-7-x-7-x-7-x-5-x-5-x-3-x-3-x-3-x-3-x-|
A|--7-x-7-x-5-x-5-x-3-x-3-x-5-x-5-x-7-x-7-x-5-x-5-x-3-x-3-x-3-x-3-x-|
E|--5-x-5-x-3-x-3-x-3-x-3-x-5-x-5-x-5-x-5-x-3-x-3-x-1-x-1-x-1-x-1-x-|

Gui. 1 (chorus eff. Optional) (CHORUS)
    A       G       C                  D           E
e|-----------------------------------------------------------------|
B|-----------------------------------------------------------------|
G|-4-x-4-x-4-x-4-x-5-x-5-x-5-x-5-x-7-x-7-x-7-x-7-x-9------9-9--9-9-|
D|-4-x-4-x-4-x-4-x-5-x-5-x-5-x-5-x-7-x-5-x-7-x-7-x-9------9-9--9-9-|
A|-2-x-2-x-2-x-2-x-3-x-3-x-3-x-3-x-5-x-5-x-5-x-5-x-7------7-7--7-7-|
E|-2-x-2-x-2-x-2-x-3-x-3-x-3-x-3-x-5-x-5-x-5-x-5-x-7------7-7--7-7-|

Gui. 2 (w/ dist.) - Fills (what the strings play)
e|-----------|-----------|---------8----|---------8----|
B|---1-3-1---|---1-3-1---|------10---10-|------10---10-|
G|-2-------2-|-2-------2-|-9-11---------|-9-11---------|
D|-----------|-----------|--------------|--------------|
A|-----------|-----------|--------------|--------------|
E|-----------|-----------|--------------|--------------|


VERSE 3 (repeat VERSE 2)

BRIDGE
Gui. 1
e|-------------------------------------------------|
B|-------------------------------------------------|
G|-----8-------6-------4-------2-------4-------4---|
D|---6---6---6---6---4---4---0---0---4---4---4---4-|
A|-6-------4-------2-------0-------2-------2-------|
E|-------------------------------------------------|
Gui. 2
e|---------------7----------------10--7~~~~~~------|
B|-4---2--4--7--------------10---------------------|
G|-------------------------------------------------|
D|-------------------------------------------------|
A|-------------------------------------------------|
E|-------------------------------------------------|
   Sitting in an...

CHORUS

VERSE 4

CHORUS


--------------
Hello, Goodbye
--------------

Tabbed by:PJVillanueva

  Dm/F                              C
E|1---1---1---1---|1---1---1---1---|0---0---0---0---|0---0---0---0---|
B|3---3---3---3---|3---3---3---3---|1---1---1---1---|1---1---1---1---|
G|2---2---2---2---|2---2---2---2---|0---0---0---0---|0---0---0---0---|
D|3---3---3---3---|3---3---3---3---|2---2---2---2---|2---2---2---2---|
A|----------------|----------------|3---------------|----------------|
E|1---------------|----------------|----------------|----------------|
  You say     yes                   I   say     no
E|----5-------5---|----------------|----------------|----------------|
B|6---6-------6---|----------------|----8-------8---|----------------|
G|7---------------|----------------|-9--9-------9---|----------------|
D|----------------|----------------|10--------------|----------------|


  G7                                Am
E|----------------|----------------|----------------|----------------|
B|0---3---3---3---|3---3---3---3---|1---1---1---1---|1---1---1---1---|
G|0---0---0---0---|0---0---0---0---|2---0---0---0---|0---0---0---0---|
D|3---3---3---3---|3---3---3---3---|2---2---3---2---|0---2---2---2---|
A|----------------|----------------|0---------------|----3---2---0---|
E|3---------------|----------------|----------------|----------------|
  You say     stop              and I   say     go       go      go
E|----------------|----------------|----------------|------------7---|
B|----6-------6---|----------------|----5-------5---|----8-------8---|
G|7---7-------6---|------------4-/-|5---5-------5---|----9-----------|
D|9---------------|------------5-/-|7---------------|----------------|


  G7                                Am
E|1---1---1---1---|1---1---1---1---|----------------|----------------|
B|3---3---3---3---|3---3---3---3---|1---1---1---1---|1---1---1---1---|
G|0---0---0---0---|0---0---0---0---|2---2---2---2---|2---2---2---2---|
D|----0-------0---|----0-------0---|2---2---2---0---|2---0---2---2---|
A|--------2-------|--------2-------|0-------3-------|--------3---0---|
E|3---------------|3---------------|----------------|----------------|
                                                         Oh      no
E|----------------|----------------|-8--------------|----------------|
B|----------------|----------------|10--------------|----------------|
G|----------------|----------------|----------------|----------------|


  G7
E|1---1---1---1---|1---1---1---1---|--------3---0---|----------------|
B|3---3---3---3---|3---3---3---3---|3---3---3---3---|3---------------|
G|0---0---0---0---|0---0---0---0---|0---0---0---0---|0---0---0---0---|
D|----0-------0---|------------0---|0---0---0---0---|0---------------|
A|--------2-------|----0---2-------|----------------|----------------|
E|3---------------|3---------------|3---------------|----------------|
                                    You     say goodbye          and
E|----7---7---7---|7---7---7---7---|7---------------|----------------|
B|----8---8---8---|8---8---8---8---|8---------------|6---------------|
G|----------------|----------------|----------------|7---------------|


  G7sus4           C                Cmaj7            Am7
E|----------------|----------------|----------------|----------------|
B|1---------------|1---1---1---1---|1---1---1---1---|1---1---1---1---|
G|0---0---0---0---|0---0---0---0---|0---0---0---0---|0---0---0---0---|
D|3---------------|2---2---2---2---|2---2---2---2---|2---2---2---2---|
A|----------------|3-------3-------|2-------2-------|0-------0-------|
E|3---------------|----------------|----------------|----------------|
  I       say hello                     hello   hello
E|----------------|----------------|----------------|----------------|
B|----------------|5---5---5---5---|5---5---5---5---|5---5---5---5---|
G|----------------|5---5---5---5---|4---4---4---4---|2---2---2---2---|

E|----------------|----------------|----------------|----------------|
B|----------------|----------------|--------0---1---|----------------|
G|----------------|----------------|0---2-----------|----------------|
D|----------------|----0---2---3---|----------------|----------------|
A|----------------|3---------------|----------------|----------------|
E|----------------|----------------|----------------|----------------|


  Cmaj7            F                Ab               C
E|----------------|----------------|----------------|----------------|
B|1---1---1---1---|1---1---1---1---|4---4---4---4---|1---1---1---1---|
G|0---0---0---0---|2---2---2---2---|5---5---5---5---|0---0---0---0---|
D|2---2---2---2---|3---3---3---3---|6---6---6---6---|2---2---2---2---|
A|2-------2-------|----------------|----------------|3-------3-------|
E|----------------|1-------1-------|4-------4-------|----------------|
      I don't know why you say goodbye  I   say hello
E|----------------|----------------|----------------|----------------|
B|5---5---5---5---|6---6---6---6---|4---4---4---4---|5---5---5---5---|
G|4---4---4---4---|5---5---5---5---|5---5---5---5---|5---5---5---5---|
D|----------------|7---7---7---7---|6---6---6---6---|----------------|

E|----------------|----------------|----------------|----------------|
B|----------------|----------------|----------------|----------------|
G|--------0---2---|----------------|----------------|----------------|
D|2---3-----------|----------------|----------------|----0---2---3---|
A|----------------|----------------|----------------|3---------------|
E|----------------|----------------|----------------|----------------|


  Cmaj7            Am7              Cmaj7            F
E|----------------|----------------|----------------|----------------|
B|1---1---1---1---|1---1---1---1---|1---1---1---1---|1---1---1---1---|
G|0---0---0---0---|0---0---0---0---|0---0---0---0---|2---2---2---2---|
D|2---2---2---2---|2---2---2---2---|2---2---2---2---|3---3---3---3---|
A|2-------2-------|0-------0-------|2-------2-------|----------------|
E|----------------|----------------|----------------|1-------1-------|
      hello   hello                     I don't know why you say goodbye
E|----------------|----------------|----------------|----------------|
B|5---5---5---5---|5---5---5---5---|5---5---5---5---|6---6---6---6---|
G|4---4---4---4---|2---2---2---2---|4---4---4---4---|5---5---5---5---|
D|----------------|----------------|----------------|7---7---7---7---|

E|----------------|----------------|----------------|----------------|
B|--------0---1---|----------------|----------------|----------------|
G|0---2-----------|----------------|--------0---2---|----------------|
D|----------------|----------------|2---3-----------|----------------|


  Bb               C
E|----------------|----------------|----------------|1---1---1---1---|
B|3---3---3---3---|1---1---1---1---|------------1---|3---3---3---3---|
G|3---3---3---3---|0---0---0---0---|----0---2-------|2---2---2---2---|
D|3---3---3---3---|2---2---2---0---|2-------2-------|3---3---3---3---|
A|1-------1-------|3-------3-------|3-------3-------|----------------|
E|----------------|----------------|----------------|1---------------|
      I say  hello                                   I   say     high
E|----------------|----------------|----------------|----------------|
B|4---4---4---4---|5---------------|----------------|------------6---|
G|5---5---5---5---|5---------------|----------------|------------7---|
D|6---6---6---6---|----------------|----------------|----------------|

E|----------------|----------------|
B|----------------|----------------|
G|1---------------|----------------|
D|----3---0-------|----------------|
A|------------3---|----------------|
E|----------------|----------------|

E|1---1---1---1---|0---0---0---0---|0---0---0---0---|----------------|
B|3---3---3---3---|1---1---1---1---|1---1---1---1---|3---3---3---3---|
G|2---2---2---2---|0---0---0---0---|0---0---0---0---|0---0---0---0---|
D|3---3---3---3---|2---2---2---2---|2---2---2---2---|3---3---3---3---|
A|----------------|3---------------|----------------|----------------|
E|----------------|----------------|----------------|3---------------|
                   you say     low                   you say      why
E|----5---5-------|----------------|----------------|----------------|
B|----6---6-------|----------------|----8---8-------|----------------|
G|----------------|-------------9--|----9---9-------|------------7---|
D|----------------|------------10--|----------------|------------9---|


E|----------------|----------------|----------------|----------------|
B|3---3---3---3---|1---1---1---1---|1---1---1---1---|3---3---3---3---|
G|0---0---0---0---|2---0---0---0---|0---0---0---0---|0---0---0---0---|
D|3---3---3---3---|2---2---3---2---|0---2---2---2---|0---0---0---0---|
A|----------------|0---------------|----3---2---0---|--------2-------|
E|----------------|----------------|----------------|3---------------|
              and I    say     I        don't   know
E|----------------|5---------------|----------------|----------------|
B|----6---6-------|----8---6---5---|----------------|----------------|
G|----7---7-------|----------------|7---5---4-------|----------------|
D|----------------|----------------|------------7---|5---------------|


E|----------------|----------------|----------------|1---1---1---1---|
B|3---3---3---3---|1---1---1---1---|1---1---1---1---|3---3---3---3---|
G|0---0---0---0---|2---2---2---2---|2---2---2---2---|0---0---0---0---|
D|0---0---0---0---|2---2---0---2---|0---0---2---2---|----0-------0---|
A|----0---2-------|0---3-----------|----3---2---0---|--------2-------|
E|3---------------|----------------|----------------|3---------------|
                                        Oh      no
E|----------------|----------------|----------------|----7---7---7---|
B|----------------|----------------|----------------|----8---8---8---|
G|----------------|----------------|----------------|----------------|
D|----------------|7---------------|----------------|----------------|

E|1---1---1---1---|3-------0-------|----------------|----------------|
B|3---3---3---3---|3-------3---1---|3---------------|1---------------|
G|0---0---0---0---|0-------0---0---|0---0---0---0---|0---0---0---0---|
D|------------0---|----------------|3---------------|3---------------|
A|----0---2-------|----------------|----------------|----------------|
E|3---------------|3---------------|3---------------|3---------------|
                   You    say  goodbye          and  I      say  hello
E|7---7---7---7---|7---------------|----------------|5---------------|
B|8---8---8---8---|8---------------|6---------------|6---------------|
G|----------------|----------------|7---------------|----------------|
D|----------------|----------------|----------------|----------------|

E|----------------|----------------|----------------|----------------|
B|1---1---1---1---|1---1---1---1---|1---1---1---1---|1---1---1---1---|
G|0---0---0---0---|0---0---0---0---|0---0---0---0---|0---0---0---0---|
D|2---2---2---2---|2---2---2---2---|2---2---2---2---|2---2---2---2---|
A|3-------3-------|2-------2-------|0-------0-------|2-------2-------|
E|----------------|----------------|----------------|----------------|
                       hello     hello                   I don't know
  (hello goodbye   hello goodbye)                    (hello goodbye)
E|----------------|----------------|----------------|----------------|
B|5---5---5---5---|5---5---5---5---|5---5---5---5---|5---5---5---5---|
G|5---5---5---5---|4---4---4---4---|2---2---2---2---|4---4---4---4---|
D|----------------|----------------|----------------|----------------|

E|----------------|----------------|----------------|----------------|
B|1---1---1---1---|----------------|1---1---1---1---|1---1---1---1---|
G|2---2---2---2---|5---5---5---5---|0---0---0---0---|0---0---0---0---|
D|3---3---3---3---|6---6---6---6---|2---2---2---2---|2---2---2---2---|
A|0-------0-------|6---6---6---6---|3-------3-------|2-------2-------|
E|----------------|4-------4-------|----------------|----------------|
  why you say goodbye  I say   hello                     hello    hello
                                   (Hello goodbye    hello goodbye)
E|----------------|----------------|----------------|----------------|
B|6---6---6---6---|4---4---4---4---|5---5---5---5---|5---5---5---5---|
G|5---5---5---5---|5---5---5---5---|5---5---5---5---|4---4---4---4---|
D|7---7---7---7---|6---6---6---6---|----------------|----------------|

E|----------------|----------------|----------------|----------------|
B|1---1---1---1---|1---1---1---1---|1---1---1---1---|3---3---3---3---|
G|0---0---0---0---|0---0---0---0---|2---2---2---2---|3---3---3---3---|
D|2---2---2---2---|2---2---2---2---|3---3---3---3---|3---3---3---3---|
A|0-------0-------|2-------2-------|----------------|1-------1-------|
E|----------------|----------------|1-------1-------|----------------|
                       I don't know why you say goodbye  I  say   hello
                   (Hello goodbye)                   (hello goodbye)
E|----------------|----------------|----------------|----------------|
B|5---5---5---5---|5---5---5---5---|6---6---6---6---|4---4---4---4---|
G|2---2---2---2---|4---4---4---4---|5---5---5---5---|5---5---5---5---|
D|----------------|----------------|7---7---7---7---|6---6---6---6---|

E|0---0---0---0---|0---0---0-------|1---------------|----1---1---1---|
B|1---1---1---1---|1---1---1-------|3---------------|----3---3---3---|
G|0---0---0---0---|0---0---0-------|2---------------|----2---2---2---|
D|2---2---2---2---|2---2---2-------|3---------------|----3---3---3---|
A|3-------3-------|3-------3-------|----------------|----------------|
E|----------------|----------------|1---------------|----------------|

E|----------------|----------------|----------------|----------------|
B|5---------------|----------------|6-------6-------|6---------------|
G|5---------------|----------------|----7-------7---|--------5---7---|
D|----------------|----------------|----------------|----7-----------|

E|----------------|----------------|----------------|----------------|
B|1---1---1---1---|1---1---1---1---|3---3---3---3---|3---3---3---3---|
G|0---0---0---0---|0---0---0---0---|0---0---0---0---|0---0---0---0---|
D|2---2---2---2---|2---2---2---2---|0---0---0---0---|0---0---0---0---|
A|3---------------|----------------|----------------|----------------|
E|----------------|----------------|3---------------|----------------|
                       Why why  why why    why    why    Do  you say
E|----------------|----------------|----------------|----------------|
B|5---6---5-------|--------5---6---|8---6---5-------|----------------|
G|------------7---|5---7-----------|------------7---|5---4-----------|
D|----------------|----------------|----------------|--------7---5---|

E|0---0---0---0---|0---0---0---0---|----------------|----------------|
B|1---1---1---1---|1---1---1---1---|3---3---3---3---|3---3---3---3---|
G|2---0---0---0---|2---2---2---2---|0---0---0---0---|0---0---0---0---|
D|2---2---3---2---|0---2---2---2---|0---0---0---0---|0---0---0---0---|
A|0---------------|----3---2---0---|--------2-------|----0---2-------|
E|----------------|----------------|3---------------|3---------------|
          good bye         good bye             bye  bye bye bye
E|----------------|----------------|7---------------|----------------|
B|----------------|8---------------|8---------------|----------------|
G|----4---5---7---|9---------------|----------------|----------------|
D|7---------------|----------------|----------------|----------------|

E|----------------|----------------|3---3---3---3---|3---3---3---3---|
B|1---1---1---1---|1---1---1---1---|3---3---3---3---|3---3---3---3---|
G|2---2---2---2---|2---2---2---2---|0---0---0---0---|0---0---0---0---|
D|2---2---2---0---|2---0---2---2---|--------0-------|------------0---|
A|0---0---3-------|--------3---0---|----2-------2---|----0---2-------|
E|----------------|----------------|3---------------|3---------------|
                       Oh      no
E|-8--------------|----------------|----7---7---7---|7---7---7---7---|
B|10--------------|----------------|----8---8---8---|8---8---8---8---|
G|----------------|----------------|----------------|----------------|

E|3---------------|----------------|----------------|----------------|
B|3---------------|3---------------|--------1-------|1---1---1---1---|
G|0---------------|0---------------|--------0-------|0---0---0---0---|
D|----------------|0---------------|--------3-------|2---2---2---2---|
A|----------------|----------------|----------------|3-------3-------|
E|3---------------|3---------------|--------3-------|----------------|
  You     say goodbye          and  I       say hello
E|7---------------|----------------|5---------------|----------------|
B|8---------------|6---------------|6-------8---6---|5---5---5---5---|
G|----------------|7---------------|--------9---7---|5---5---5---5---|
D|----------------|----------------|----------------|----------------|

E|----------------|----------------|----------------|----------------|
B|----------------|----------------|----------------|----------------|
G|----------------|----------------|----------------|----------------|
D|----------------|----------------|----------------|----0---2---3---|
A|----------------|----------------|----------------|3---------------|
E|----------------|----------------|----------------|----------------|


E|----------------|----------------|----------------|----------------|
B|1---1---1---1---|1---1---1---1---|1---1---1---1---|1---1---1---1---|
G|0---0---0---0---|0---0---0---0---|0---0---0---0---|2---2---2---2---|
D|2---2---2---2---|2---2---2---2---|2---2---2---2---|3---3---3---3---|
A|2-------2-------|0-------0-------|2-------2-------|0-------0-------|
E|----------------|----------------|----------------|----------------|
      hello   hello                     I don't know why you say goodbye
E|----------------|----------------|----------------|----------------|
B|5---5---5---5---|5---5---5---5---|5---5---5---5---|6---6---6---6---|
G|4---4---4---4---|2---2---2---2---|4---4---4---4---|5---5---5---5---|
D|----------------|----------------|----------------|7---7---7---7---|

E|----------------|----------------|----------------|----------------|
B|--------0---1---|----------------|----------------|----------------|
G|0---2-----------|----------------|--------0---2---|----------------|
D|----------------|----------------|2---3-----------|----------------|
A|----------------|----------------|----------------|----------------|
E|----------------|----------------|----------------|----------------|


E|----------------|----------------|----------------|----------------|
B|----------------|1---1---1---1---|1---1---1---1---|1---1---1---1---|
G|5---5---5---5---|0---0---0---0---|0---0---0---0---|0---0---0---0---|
D|6---6---6---6---|2---2---2---2---|2---2---2---2---|2---2---2---2---|
A|6---6---6---6---|3-------3-------|2-------2-------|0-------0-------|
E|4-------4-------|----------------|----------------|----------------|
      I  say  hello                     hello   hello
E|----------------|----------------|----------------|----------------|
B|4---4---4---4---|5---5---5---5---|5---5---5---5---|5---5---5---5---|
G|5---5---5---5---|5---5---5---5---|4---4---4---4---|2---2---2---2---|
D|6---6---6---6---|----------------|----------------|----------------|

E|----------------|----------------|----------------|----------------|
B|----------------|----------------|--------0---1---|----------------|
G|----------------|----------------|0---2-----------|----------------|
D|----------------|----0---2---3---|----------------|----------------|
A|----------------|3---------------|----------------|----------------|
E|----------------|----------------|----------------|----------------|


E|----------------|----------------|----------------|0---0---0---0---|
B|1---1---1---1---|1---1---1---1---|3---3---3---3---|1---1---1---1---|
G|0---0---0---0---|2---2---2---2---|3---3---3---3---|0---0---0---0---|
D|2---2---2---2---|3---3---3---3---|3---3---3---3---|------------0---|
A|2-------2-------|----------------|1-------1-------|3-------3-------|
E|----------------|1-------1-------|----------------|----------------|
      I don't know why you say goodbye  I  say  hello
E|----------------|----------------|----------------|----------------|
B|5---5---5---5---|6---6---6---6---|4---4---4---4---|5---------------|
G|4---4---4---4---|5---5---5---5---|5---5---5---5---|5---------------|
D|----------------|7---7---7---7---|6---6---6---6---|----------------|

E|----------------|----------------|----------------|----------------|
B|----------------|----------------|----------------|----------------|
G|--------0---2---|----------------|1---------------|----------------|
D|2---3-----------|----------------|----3---0-------|----------------|
A|----------------|----------------|------------3---|----------------|
E|----------------|----------------|----------------|----------------|


E|0---0---0---0---|1---1---1---1---|1---1---1---1---|----------------|
B|1---1---1---1---|3---3---3---3---|3---3---3---3---|1---1---1---1---|
G|0---0---2---0---|2---2---2---2---|2---2---2---2---|0---0---0---0---|
D|2---------------|3---3---3---3---|3---3---3---3---|2---2---2---2---|
A|----------------|----------------|----------------|3---------------|
E|----------------|1---------------|----------------|----------------|
                   You say     yes                   I   say     no
                                       (I say yes           but I

E|----------------|----------------|----------------|----------------|
B|1---1---1---1---|3---3---3---3---|3---3---3---3---|1---1---1---1---|
G|0---0---0---0---|0---0---0---0---|0---0---0---0---|2---0---0---0---|
D|2---2---2---2---|3---3---3---3---|3---3---3---3---|2-------3---2---|
A|----------------|----------------|----------------|0---------------|
E|----------------|3---------------|----------------|----------------|
                   You say     stop             and I    say     go
  may mean no)                          I can stay           till it's


E|----------------|----------------|----------------|----------------|
B|1---1---1---1---|3---3---3---3---|3---3---3---3---|1---1---1---1---|
G|0---0---0---0---|0---0---0---0---|0---0---0---0---|2---2---2---2---|
D|0---2---2---2---|3---3---3---3---|3---3---3---3---|2---2---2---2---|
A|----3---2---0---|----------------|----------------|0---------------|
E|----------------|3---------------|----------------|----------------|
      go      go                                Aaaaaaaaah
  time    to       go)
E|----------------|----------------|----------------|----------------|
B|----------------|------------3---|------------3---|5---------------|
G|----------------|----0---4-------|4---0---4-------|----------------|
D|----------------|----------------|----------------|----------------|

E|----------------|----------------|----------------|----------------|
B|1---1---1---1---|3---3---3---3---|3---3---3---3---|3---------------|
G|2---2---2---2---|0---0---0---0---|0---0---0---0---|----------------|
D|2---2---2---2---|3---3---3---3---|3---3---3---3---|----------------|
A|----------------|----------------|----------------|----------------|
E|----------------|3---------------|----------------|----------------|
      Oh      no                                     You    say  goodbye
E|----------------|----3---3---3---|3---3---3---3---|3---------------|
B|----------------|----------------|----------------|----------------|
G|----------------|----------------|----------------|----------------|

E|----------------|----------------|----------------|----------------|
B|----------------|----------------|1---1---1---1---|1---1---1---1---|
G|----------------|----------------|0---0---0---0---|0---0---0---0---|
D|----------------|----------------|2---2---2---2---|2---2---2---2---|
A|----------------|----------------|3-------3-------|2-------2-------|
E|----------------|----------------|----------------|----------------|
              and  I       say hello                     hello   hello
E|----------------|3---------------|----------------|----------------|
B|----------------|----------------|5---5---5---5---|5---5---5---5---|
G|----------------|----------------|5---5---5---5---|4---4---4---4---|
D|----------------|----------------|----------------|----------------|

E|----------------|----------------|----------------|----------------|
B|----------------|----------------|----------------|--------0---1---|
G|----------------|----------------|----------------|0---2-----------|
D|----------------|----------------|----0---2---3---|----------------|
A|----------------|----------------|3---------------|----------------|
E|----------------|----------------|----------------|----------------|

E|----------------|----------------|----------------|----------------|
B|1---1---1---1---|1---1---1---1---|1---1---1---1---|----------------|
G|0---0---0---0---|0---0---0---0---|2---2---2---2---|5---5---5---5---|
D|2---2---2---2---|2---2---2---2---|3---3---3---3---|6---6---6---6---|
A|0-------0-------|----------------|----------------|6---6---6---6---|
E|----------------|3-------3-------|1-------1-------|4-------4-------|
                       I don't know why you say goodbye  I  say  hello
E|----------------|----------------|----------------|----------------|
B|5---5---5---5---|5---5---5---5---|6---6---6---6---|6---6---6---6---|
G|2---2---2---2---|4---4---4---4---|5---5---5---5---|5---5---5---5---|
D|----------------|----------------|7---7---7---7---|6---6---6---6---|

E|----------------|----------------|----------------|----------------|
B|----------------|----------------|----------------|----------------|
G|----------------|--------0---2---|----------------|----------------|
D|----------------|2---3-----------|----------------|----------------|
A|----------------|----------------|----------------|----------------|
E|----------------|----------------|----------------|----------------|

E|----------------|----------------|----------------|----------------|
B|1---1---1---1---|1---1---1---1---|1---1---1---1---|1---1---1---1---|
G|0---0---0---0---|0---0---0---0---|0---0---0---0---|0---0---0---0---|
D|2---2---2---2---|2---2---2---2---|2---2---2---2---|2---2---2---2---|
A|3-------3-------|2-------2-------|0-------0-------|2-------2-------|
E|----------------|----------------|----------------|----------------|
                       hello   hello                     I don't know
E|----------------|----------------|----------------|----------------|
B|5---5---5---5---|5---5---5---5---|5---5---5---5---|5---5---5---5---|
G|5---5---5---5---|4---4---4---4---|2---2---2---2---|4---4---4---4---|
D|----------------|----------------|----------------|----------------|

E|----------------|----------------|----------------|----------------|
B|----------------|--------0---1---|----------------|----------------|
G|----------------|0---2-----------|----------------|--------0---2---|
D|----0---2---3---|----------------|----------------|2---3-----------|
A|3---------------|----------------|----------------|----------------|
E|----------------|----------------|----------------|----------------|

E|----------------|----------------|----------------|----------------|
B|1---1---1---1---|3---3---3---3---|1---1---1---1---|1---1---1---1---|
G|2---2---2---2---|3---3---3---3---|0---0---0---0---|0---0---0---0---|
D|3---3---3---3---|3---3---3---3---|2---2---2---2---|2---2---2---2---|
A|----------------|1-------1-------|3-------3-------|2-------2-------|
E|1-------1-------|----------------|----------------|----------------|
  why you say goodbye  I  say  hello                     hello   hello
E|----------------|----------------|----------------|----------------|
B|6---6---6---6---|6---6---6---6---|5---5---5---5---|5---5---5---5---|
G|5---5---5---5---|5---5---5---5---|5---5---5---5---|4---4---4---4---|
D|7---7---7---7---|6---6---6---6---|----------------|----------------|

E|----------------|----------------|----------------|----------------|
B|----------------|----------------|----------------|--------0---1---|
G|----------------|1---------------|----------------|0---2-----------|
D|----------------|----3---0-------|----0---2---3---|----------------|
A|----------------|------------3---|3---------------|----------------|
E|----------------|----------------|----------------|----------------|

E|----------------|----------------|----------------|----------------|
B|1---1---1---1---|1---1---1---1---|1---1---1---1---|4---4---4---4---|
G|0---0---0---0---|0---0---0---0---|2---2---2---2---|5---5---5---5---|
D|2---2---2---2---|2---2---2---2---|3---3---3---3---|6---6---6---6---|
A|0-------0-------|----------------|----------------|----------------|
E|----------------|3-------3-------|1-------1-------|4-------4-------|
                       I don't know why you say goodbye   I   say hello
E|----------------|----------------|----------------|----------------|
B|5---5---5---5---|5---5---5---5---|6---6---6---6---|6---6---6---6---|
G|2---2---2---2---|4---4---4---4---|5---5---5---5---|5---5---5---5---|
D|----------------|----------------|7---7---7---7---|6---6---6---6---|

E|----------------|----------------|----------------|----------------|
B|----------------|----------------|----------------|----------------|
G|----------------|--------0---2---|----------------|1---------------|
D|----------------|2---3-----------|----------------|----3---0-------|
A|----------------|----------------|----------------|------------3---|
E|----------------|----------------|----------------|----------------|


  Ab               Cm               Cm-5             F7
E|----------------|----------------|----------------|----------------|
B|4-------4-------|4-------4-------|4-------4-------|4-------4-------|
G|5-------5-------|5-------5-------|5-------5-------|5-------5-------|
D|6-------6-------|5-------5-------|4-------4-------|3-------3-------|
A|----------------|----------------|----------------|----------------|
E|4-------4-------|3-------3-------|2-------2-------|1-------1-------|
                                                                  hello
E|----------------|----------------|----------------|----------------|
B|----------------|----------------|----------------|----------------|
G|5---5---5---5---|5---5---5---5---|5---5---5---5---|5---5---5---5---|
D|6---6---6---6---|5---5---5---5---|4---4---4---4---|3---3---3---3---|

E|----------------|----------------|----------------|----------------|
B|----------------|----------------|----------------|----------------|
G|----------------|----------------|----------------|----------------|
D|----------------|----------------|----------------|----------------|
A|3-------3-------|3-------3-------|3-------3-------|3-------3-------|
E|----------------|----------------|----------------|----------------|

                                                     Coda
  C¨¨¨¨¨¨¨¨¨¨¨¨¨¨¨¨¨¨¨¨¨¨¨¨¨¨¨¨¨¨¨¨¨¨¨¨¨¨¨¨¨¨¨¨¨¨¨¨¨
E|3---------------|----------------|----------------|0---0---0---0---|
B|1---------------|----------------|----------------|1---1---1---1---|
G|0---------------|----------------|----------------|----0-------0---|
D|2---------------|----------------|----------------|--------2-------|
A|3---------------|----------------|----------------|3---------------|
E|3---------------|----------------|----------------|----------------|
                                                     Heeeeeeelaaaaaaa
E|----------------|----------------|----------------|
B|5---------------|----------------|----------------|
G|5---------------|----------------|----------------|
D|----------------|----------------|----------------|

E|----------------|----------------|----------------|
B|----------------|----------------|----------------|
G|----------------|----------------|----------------|
D|----------------|----------------|----------------|
A|3---------------|----------------|----------------|
E|----------------|----------------|----------------|


E|0---0---0---0---|0---0---0---0---|0---0---0---0---|0---0---0---0---|
B|1---1---1---1---|1---1---1---1---|1---1---1---1---|1---1---1---1---|
G|----0-------0---|----0-------0---|----0-------0---|----0-------0---|
D|--------2-------|--------2-------|--------2-------|--------2-------|
A|3---------------|3---------------|3---------------|3---------------|
E|----------------|----------------|----------------|----------------|
      HeeebaaaHeeello                                Heeeeeeelaaaaaaa ...

        B  Bend
        R  Release
        /  slide up
        \  slide down
        H  hammer-on
        P  pull-off
        ~  vibrato
        +  harmonic
        x  Mute note
        . - play note like a dot in standard notation
        ^ - ties two notes together


--------------------
The Fool on the Hill
--------------------

C                 F                  C
e|----------------|------------------|-------------------------|--------------|
B|----------------|------------------|---------0---1----1---1--|-1--0---------|
G|----------------|-----0--2-2-------|-0--2--------------------|---------0----|
D|-2--2--2---2--2-|-3-------------3--|-2-----------------------|--------------|
A|----------------|------------------|-------------------------|--------------|
E|----------------|------------------|-------------------------|--------------|
  Day af-ter day a-lone on a hill the man with the fool-ish grin is keep-ing
  Well on the way head in a cloud the man of   a   thou-sand voic-es talk-ing
  Day af-ter day a-lone on a hill the man with the fool-ish grin is keep-ing
  Day af-ter day a-lone on a hill the man with the fool-ish grin is keep-ing

  F                    Dm                 G7                 C
e|--------------------|-------------------0----------------|-----------------|
B|----3----3--3-------|----3--3--3-----1-------3-----------|----1----1----1--|
G|-2----------------0-|-2--------------------------2----0--|-2-------------2-|
D|-3------------------|-3-----------------3----------------|-2---------------|
A|--------------------|------------------------------------|-----------------|
E|--------------------|------------------------------------|-----------------|
  Per-fect-ly still But no-bod-y wants to know him they can see that he's just a
  Per-fect-ly loud, But no-bod-y ev - er hears him or  the sound he app-ears to
  Per-fect-ly still And no-body seems to like him they can tell what he  wants to
  Per-fect-ly still He nev-er list-ens to them    he      knows that they're the

  Am               Dm           G7   Dm7     Cm   Ab     Cm
e|-------|----------------------0-----------|-------------------------------|
B|-1-----|----3--1--3-----1--3-------1------|-1-----------------------------|
G|---2-0-|-2-----------------------------2--|---0-1------0---------0--------|
D|-2-----|-3-----------------3-------3------|-1------3--------3-------------|
A|-------|----------------------------------|-------------------------------|
E|-------|----------------------------------|-------------------------------|
  fool and he never gives an answer. But the fool on the hill sees the
  make and he never seems to notice.
  Do and he never shows his feelings.
  Fools _______ They don't like him.  Ab                    Bb
         Cm                   C
e|---------------------|------------------------|------------------|----------|
B|---------------------|----------------------1-|-3-----4---3----1-|-1-1-1-1--|
G|-1--0----------0---1-|-3----1--0---1----3-----|------------------|--0-0-0-0-|
D|-1----3---3----------|-3----------------------|-1----------------|-2--------|
A|---------------------|------------------------|------------------|----------|
E|---------------------|------------------------|------------------|----------|
  sun going down and the eyes in his head see the world spinning round

  After 4th verse only
  C                 Am                C
e|-----------------|-----------------|-----------------|----------|
B|-1---1---1---1---|-1---1---1---1---|-1---1---1---1---|-1--------|
G|---0---0---0---0-|---2---2---2---2-|---0---0---0---0-|----------|
D|-2---------------|-2---------------|-2---------------|-2--------|
A|-----------------|-----------------|-----------------|----------|
E|-----------------|-----------------|-----------------|----------|


--------------------
Magical Mystery Tour
--------------------

 Tabbed by:PJVillanueva


Roll up, roll up for the magical mystery tour!
Step right this way!

Roll up, roll up for the mystery tour
Roll up, roll up for the mystery tour

Roll up - and that's an invitation
Roll up for the mystery tour
Roll up - to make a reservation
Roll up for the mystery tour

The magical mystery tour is waiting to take you away
Waiting to take you away

Roll up, roll up for the mystery tour
Roll up, roll up for the mystery tour

Roll up - we've got everything you need
Roll up for the mystery tour
Roll up - satisfaction guaranteed
Roll up for the mystery tour

The magical mystery tour is hoping to take you away
Hoping to take you away - the mystery trip

The magical mystery tour
Roll up, roll up for the mystery tour

Roll up - and that's an invitation
Roll up for the mystery tour
Roll up - to make a reservation
Roll up for the mystery tour

The magical mystery tour is coming to take you away
Coming to take you away

The magical mystery tour is dying to take you away
Dying to take you away, take you today



  D                               A
e|5------ ------- ------- -------|0------ ------- ------- -------|
B|7-----------7------------------|2-----------2------------------|
G|7-----------7----7-------------|2-----------2---2--------------|
D|0----------------0-------------|------------2---2--------------|
A|-------------------------------|0---------------0--------------|
E|-------------------------------|-------------------------------|

  E
e|------- ------- ------- -------|------- ------- ------- -------|
B|0------------------------------|-------------------------------|
G|1------------------------------|-------------------------------|
D|2------------------------------|-------------------------------|
A|2------------------------------|-------------------------------|
E|0------------------------------|-------------------------------|
                           Roll up, roll up for the magical   mys..


e|------- ------- ------- -------|------- ------- ------- -------|
B|-------------------------------|-------------------------------|
G|-------------------------------|-------------------------------|
D|-------------------------------|-------------------------------|
A|-------------------------------|-------------------------------|
E|-------------------------------|-------------------------------|
  ....tery    tour!           Step    right  this way!


e|0------ ------- ------- -------|------- ------- ------- -------|
B|0------------------------------|-------------------------------|
G|1------------------------------|-------------------------------|
D|2------------------------------|-------------------------------|
A|2------------------------------|-------------------------------|
E|0------------------------------|-------------------------------|

          Roll up,

  G                               A
e|3------ ------- ------- -------|5------ ------- ------- -------|
B|3------------------------------|5------------------------------|
G|4------------------------------|6------------------------------|
D|5------------------------------|7------------------------------|
A|5------------------------------|7------------------------------|
E|3------------------------------|5------------------------------|

          roll up     for the mystery         tour.

  E
e|0------ ------- ------- -------|------- ------- ------- -------|
B|0------------------------------|-------------------------------|
G|1------------------------------|-------------------------------|
D|2------------------------------|-------------------------------|
A|2------------------------------|-------------------------------|
E|0------------------------------|-------------------------------|

          Roll up

  G                               A
e|3------ ------- ------- -------|5------ ------- ------- -------|
B|3------------------------------|5------------------------------|
G|4------------------------------|6------------------------------|
D|5------------------------------|7------------------------------|
A|5------------------------------|7------------------------------|
E|3------------------------------|5------------------------------|

          roll up     for the mystery         tour.


  E
e|0------ ------- 0------ -------|------- 0------ 0------ 0------|
B|0---------------0--------------|--------0-------0-------0------|
G|1---------------1--------------|--------1-------1-------1------|
D|2---------------2--------------|--------2-------2-------2------|
A|2---------------2--------------|--------2-------2-------2------|
E|0---------------0--------------|--------0-------0-------0------|
                     And that's an invitation
          Roll up


  G                               A
e|3------ ------- 3------ -------|------- 5------ 5------ -------|
B|3---------------3--------------|--------5-------5--------------|
G|4---------------4--------------|--------6-------6--------------|
D|5---------------5--------------|--------7-------7--------------|
A|5---------------5--------------|--------7-------7--------------|
E|3---------------3--------------|--------5-------5--------------|

          roll up     for the mystery         tour

  E
e|0------ ------- 0------ -------|------- 0------ 0------ -------|
B|0---------------0--------------|--------0-------0--------------|
G|1---------------1--------------|--------1-------1--------------|
D|2---------------2--------------|--------2-------2--------------|
A|2---------------2--------------|--------2-------2--------------|
E|0---------------0--------------|--------0-------0--------------|
                      to  make a  reservation
          Roll up

  G                               A
e|3------ ------- 3------ -------|------- 5------ 5------ -------|
B|3---------------3--------------|--------5-------5--------------|
G|4---------------4--------------|--------6-------6--------------|
D|5---------------5--------------|--------7-------7--------------|
A|5---------------5--------------|--------7-------7--------------|
E|3---------------3--------------|--------5-------5--------------|

          roll up     for the mystery         tour

  D                               D7
e|2------ ------- 2------ -------|2------ ------- 2------ -------|
B|3---------------3--------------|3---------------3--------------|
G|2---------------2--------------|2---------------2--------------|
D|0---------------0--------------|-------------------------------|
A|-------------------------------|3---------------3--------------|
E|-------------------------------|-------------------------------|
    The magical      mystery             tour    is
e|------- ------- ------- -------|------- ------- ------- -------|
B|-------------------------------|3---3---3---3---3---3---3---3--|
G|2---2---2---2---2---2---2---2--|2---2---2---2---2---2---2---2--|
D|4---4---4---4---4---4---4---4--|-------------------------------|
A|-------------------------------|-------------------------------|
E|-------------------------------|-------------------------------|

  G                               Gm
e|3------ ------- 3------ -------|3------ ------- 3------ -------|
B|3---------------3--------------|3---------------3--------------|
G|0---------------0--------------|0---------------0--------------|
D|0---------------0--------------|0---------------0--------------|
A|2---------------2--------------|1---------------1--------------|
E|-------------------------------|-------------------------------|
  waiting     to  take you    away
e|2---2-- 2---2-- 2---2-- 2---2--|5-5-5-5 5-5-5-5 5-5-5-5 5-5-5-5|
B|3---3---3---3---3---3---3---3--|3-3-3-3-3-3-3-3-3-3-3-3-3-3-3-3|
G|4---4---4---4---4---4---4---4--|3-3-3-3-3-3-3-3-3-3-3-3-3-3-3-3|
D|-------------------------------|-------------------------------|
A|-------------------------------|-------------------------------|
E|-------------------------------|-------------------------------|


  D                               A
e|2------ ------- 2------ -------|0------ ------- 0------ 0------|
B|3---------------3--------------|2---------------2-------2------|
G|2---------------2--------------|2---------------2-------2------|
D|0---------------0--------------|2---------------2-------2------|
A|0---------------0--------------|0---------------0-------0------|
E|-------------------------------|-------------------------------|
  Waiting     to  take you    away
e|5------ ------- ------- -------|0------ ------- ------- -------|
B|7-----------7------------------|2-----------2------------------|
G|7-----------7----7-------------|2-----------2---2--------------|
D|0----------------0-------------|2-----------2---2--------------|
A|-------------------------------|0---------------0--------------|
E|-------------------------------|-------------------------------|


  E
e|------- ------- ------- -------|------- ------- ------- -------|
B|0------------------------------|-------------------------------|
G|1------------------------------|-------------------------------|
D|2------------------------------|-------------------------------|
A|2------------------------------|-------------------------------|
E|0------------------------------|-------------------------------|

          Roll up,

  G                               A
e|3------ ------- ------- -------|5------ ------- ------- -------|
B|3------------------------------|5------------------------------|
G|4------------------------------|6------------------------------|
D|5------------------------------|7------------------------------|
A|5------------------------------|7------------------------------|
E|3------------------------------|5------------------------------|

          roll up     for the mystery         tour.

  E
e|0------ ------- ------- -------|------- ------- ------- -------|
B|0------------------------------|-------------------------------|
G|1------------------------------|-------------------------------|
D|2------------------------------|-------------------------------|
A|2------------------------------|-------------------------------|
E|0------------------------------|-------------------------------|

          Roll up

  G                               A
e|3------ ------- ------- -------|5------ ------- ------- 5------|
B|3------------------------------|5-----------------------5------|
G|4------------------------------|6-----------------------6------|
D|5------------------------------|7-----------------------7------|
A|5------------------------------|7-----------------------7------|
E|3------------------------------|5-----------------------5------|

          roll up     for the mystery         tour.

  E
e|0------ ------- 0------ -------|------- 0------ 0------ 0------|
B|0---------------0--------------|--------0-------0-------0------|
G|1---------------1--------------|--------1-------1-------1------|
D|2---------------2--------------|--------2-------2-------2------|
A|2---------------2--------------|--------2-------2-------2------|
E|0---------------0--------------|--------0-------0-------0------|
                      We've got everything    you need
          Roll up
e|------- ------- 12----- -------|------- ------- 12----- -------|
B|-------------------------------|-------------------------------|
G|-----------------9-------------|-----------------9-------------|
D|-------------------------------|-------------------------------|
A|-------------------------------|-------------------------------|
E|-------------------------------|-------------------------------|


  G                               A
e|3------ ------- 3------ -------|------- 5------ 5------ -------|
B|3---------------3--------------|--------5-------5--------------|
G|4---------------4--------------|--------6-------6--------------|
D|5---------------5--------------|--------7-------7--------------|
A|5---------------5--------------|--------7-------7--------------|
E|3---------------3--------------|--------5-------5--------------|

          roll up     for the mystery         tour
e|------- ------- 12----- -------|------- ------- 12----- -------|
B|-------------------------------|-------------------------------|
G|-----------------9-------------|-----------------9-------------|
D|-------------------------------|-------------------------------|
A|-------------------------------|-------------------------------|
E|-------------------------------|-------------------------------|


  E
e|0------ ------- 0------ -------|------- 0------ 0------ -------|
B|0---------------0--------------|--------0-------0--------------|
G|1---------------1--------------|--------1-------1--------------|
D|2---------------2--------------|--------2-------2--------------|
A|2---------------2--------------|--------2-------2--------------|
E|0---------------0--------------|--------0-------0--------------|
                      Satisfaction        guaranteed
          Roll up
e|------- ------- 12----- -------|------- ------- 12----- -------|
B|-------------------------------|-------------------------------|
G|-----------------9-------------|-----------------9-------------|
D|-------------------------------|-------------------------------|
A|-------------------------------|-------------------------------|
E|-------------------------------|-------------------------------|


  G                               A
e|3------ ------- 3------ -------|------- 5------ 5------ -------|
B|3---------------3--------------|--------5-------5--------------|
G|4---------------4--------------|--------6-------6--------------|
D|5---------------5--------------|--------7-------7--------------|
A|5---------------5--------------|--------7-------7--------------|
E|3---------------3--------------|--------5-------5--------------|

          roll up     for the mystery         tour
e|------- ------- 12----- -------|------- ------- 12----- -------|
B|-------------------------------|-------------------------------|
G|-----------------9-------------|-----------------9-------------|
D|-------------------------------|-------------------------------|
A|-------------------------------|-------------------------------|
E|-------------------------------|-------------------------------|


  D                               D7
e|2------ ------- 2------ -------|2------ ------- 2------ -------|
B|3---------------3--------------|3---------------3--------------|
G|2---------------2--------------|2---------------2--------------|
D|0---------------0--------------|-------------------------------|
A|-------------------------------|3---------------3--------------|
E|-------------------------------|-------------------------------|
          The magical         mystery             tour    is
e|------- ------- ------- -------|------- ------- ------- -------|
B|-------------------------------|3---3---3---3---3---3---3---3--|
G|2---2---2---2---2---2---2---2--|2---2---2---2---2---2---2---2--|
D|4---4---4---4---4---4---4---4--|-------------------------------|
A|-------------------------------|-------------------------------|
E|-------------------------------|-------------------------------|


  G                               Gm
e|3------ ------- 3------ -------|3------ ------- 3------ -------|
B|3---------------3--------------|3---------------3--------------|
G|0---------------0--------------|0---------------0--------------|
D|0---------------0--------------|0---------------0--------------|
A|2---------------2--------------|1---------------1--------------|
E|-------------------------------|-------------------------------|
  waiting     to  take you    away
e|2---2-- 2---2-- 2---2-- 2---2--|5-5-5-5 5-5-5-5 5-5-5-5 5-5-5-5|
B|3---3---3---3---3---3---3---3--|3-3-3-3-3-3-3-3-3-3-3-3-3-3-3-3|
G|4---4---4---4---4---4---4---4--|3-3-3-3-3-3-3-3-3-3-3-3-3-3-3-3|
D|-------------------------------|-------------------------------|
A|-------------------------------|-------------------------------|
E|-------------------------------|-------------------------------|


  D                               A
e|2------ ------- 2------ -------|0------ ------- 0------ -------|
B|3---------------3--------------|2---------------2--------------|
G|2---------------2--------------|2---------------2--------------|
D|0---------------0--------------|2---------------2--------------|
A|0---------------0--------------|0---------------0--------------|
E|-------------------------------|-------------------------------|
  Waiting     to  take you    away
e|5------ ------- ------- -------|0------ ------- ------- -------|
B|7-----------7------------------|2-----------2------------------|
G|7-----------7----7-------------|2-----------2---2--------------|
D|0----------------0-------------|2-----------2---2--------------|
A|-------------------------------|0---------------0--------------|
E|-------------------------------|-------------------------------|


  B
e|2------ ------- 2------ 2------|2------ 2------ 2------ 2------|
B|4---------------4-------4------|4-------4-------4-------4------|
G|4---------------4-------4------|4-------4-------4-------4------|
D|4---------------4-------4------|4-------4-------4-------4------|
A|2---------------2-------2------|2-------2-------2-------2------|
E|-------------------------------|-------------------------------|

e|7------ ------- ------- -------|------- ------- ------- -------|
B|7------------------------------|-------------------------------|
G|8------------------------------|-------------------------------|
D|9------------------------------|-------------------------------|
A|-------------------------------|-------------------------------|
E|-------------------------------|-------------------------------|

  F#m
e|2------ 2------ 2------ 2------|2------ 2------ 2------ ----2--|
B|2-------2-------2-------2------|2-------2-------2-----------2--|
G|2-------2-------2-------2------|2-------2-------2-----------2--|
D|4-------4-------4-------4------|4-------4-------4-----------4--|
A|4-------4-------4-------4------|4-------4-------4-----------4--|
E|2-------2-------2-------2------|2-------2-------2-----------2--|

                  Mystery         trek
e|------- ------- 9------ -------|------- ------- ----7-- ----5--|
B|----------10-------------------|--------------------9-------7--|
G|9----9-------------------------|-------------------------------|
D|-------------------------------|-------------------------------|
A|9------------------------------|-------------------------------|
E|-------------------------------|-------------------------------|


  B
e|2------ 2------ 2---2-- 2------|2------ 2------ 2------ 2------|
B|4-------4-------4---4---4------|4-------4-------4-------4------|
G|4-------4-------4---4---4------|4-------4-------4-------4------|
D|4-------4-------4---4---4------|4-------4-------4-------4------|
A|2-------2-------2---2---2------|2-------2-------2-------2------|
E|-------------------------------|-------------------------------|

e|7------ ------- ------- -------|------- ------- ------- -------|
B|7------------------------------|-------------------------------|
G|8------------------------------|-------------------------------|
D|9------------------------------|-------------------------------|
A|-------------------------------|-------------------------------|
E|-------------------------------|-------------------------------|


  F#m                                                 Abm
e|2------ 2------ 2------ 2------|2------ 2------ 2---4-- -------|
B|2-------2-------2-------2------|2-------2-------2---4----------|
G|2-------2-------2-------2------|2-------2-------2---4----------|
D|4-------4-------4-------4------|4-------4-------4---6----------|
A|4-------4-------4-------4------|4-------4-------4---6----------|
E|2-------2-------2-------2------|2-------2-------2---4----------|

e|------- ---7--- 9----9- --9----|------- ------- ------- -------|
B|-----10--------10---10---10----|-------------------------------|
G|9---------------9----9----9----|-------------------------------|
D|-------------------------------|-------------------------------|
A|9------------------------------|-------------------------------|
E|-------------------------------|-------------------------------|


  A                               B7
e|0------ 0------ 0------ 0------|2------ 2------ 2------ 2------|
B|2-------2-------2-------2------|0-------0-------0-------0------|
G|2-------2-------2-------2------|2-------2-------2-------2------|
D|2-------2-------2-------2------|1-------1-------1-------1------|
A|0-------0-------0-------0------|2-------2-------2-------2------|
E|-------------------------------|-------------------------------|

e|------- ------- 12----- -------|------- ------- 14----- -------|
B|----------------14-------------|----------------16P14-16-------|
G|----------------14-------------|----------------16-------------|
D|-------------------------------|-------------------------------|
A|-------------------------------|-------------------------------|
E|-------------------------------|-------------------------------|


  E
e|0------ ------- ------- -------|------- ------- ------- -------|
B|0------------------------------|-------------------------------|
G|1------------------------------|-------------------------------|
D|2------------------------------|-------------------------------|
A|2------------------------------|-------------------------------|
E|0------------------------------|-------------------------------|

          Now
e|12----- ------- ------- -------|------- ------- ------- -------|
B|12-----------------------------|-------------------------------|
G|13-----------------------------|-------------------------------|
D|-------------------------------|-------------------------------|
A|-------------------------------|-------------------------------|
E|-------------------------------|-------------------------------|

                                                     x   x
  G                               A
e|3------ ------- ------- -------|5------ ------- ------- -------|
B|3------------------------------|5------------------------------|
G|4------------------------------|6------------------------------|
D|5------------------------------|7------------------------------|
A|5------------------------------|7------------------------------|
E|3------------------------------|5------------------------------|

          the magical         mystery         tour.

  E
e|0------ ------- ------- -------|------- ------- ------- -------|
B|0------------------------------|-------------------------------|
G|1------------------------------|-------------------------------|
D|2------------------------------|-------------------------------|
A|2------------------------------|-------------------------------|
E|0------------------------------|-------------------------------|

          Roll up,
                                                      x x x   x
  G                               A
e|3------ ------- ------- -------|5------ ------- ------- -------|
B|3------------------------------|5------------------------------|
G|4------------------------------|6------------------------------|
D|5------------------------------|7------------------------------|
A|5------------------------------|7------------------------------|
E|3------------------------------|5------------------------------|

          roll up     for the mystery         tour.
e|------- ------- ------- -------|------- ------- ------- ----0--|
B|-------------------------------|----------------------------0--|
G|-------------------------------|----------------------------1--|
D|-------------------------------|----------------------------2--|
A|-------------------------------|-------------------------------|
E|-------------------------------|-------------------------------|

  E
e|0------ 0------ 0------ 0------|0------ 0------ 0------ 0------|
B|0-------0-------0-------0------|0-------0-------0-------0------|
G|1-------1-------1-------1------|1-------1-------1-------1------|
D|2-------2-------2-------2------|2-------2-------2-------2------|
A|2-------2-------2-------2------|2-------2-------2-------2------|
E|0-------0-------0-------0------|0-------0-------0-------0------|
                     And that's an invitation
          Roll up
e|------- 0------ 0------ 0------|------- 0------ ------- 0------|
B|--------0-------0-------0------|--------0---------------0------|
G|--------1-------1-------1------|--------1---------------1------|
D|--------2-------2-------2------|--------2---------------2------|
A|-------------------------------|-------------------------------|
E|-------------------------------|-------------------------------|

e|------- ------- 12----- -------|------- ------- 12\11-12-------|
B|-------------------------------|-------------------------------|
G|-----------------9-------------|-----------------9\-8--9-------|
D|-------------------------------|-------------------------------|
A|-------------------------------|-------------------------------|
E|-------------------------------|-------------------------------|


  G                               A
e|3------ 3------ 3------ 3------|5------ 5------ 5------ 5------|
B|3-------3-------3-------3------|5-------5-------5-------5------|
G|4-------4-------4-------4------|6-------6-------6-------6------|
D|5-------5-------5-------5------|7-------7-------7-------7------|
A|5-------5-------5-------5------|7-------7-------7-------7------|
E|3-------3-------3-------3------|5-------5-------5-------5------|

          roll up     for the mystery         tour
e|------- 0------ ------- 0------|------- 0------ ------- 0------|
B|--------0---------------0------|--------2---------------2------|
G|--------4---------------4------|--------2---------------2------|
D|--------5---------------5------|--------2---------------2------|
A|--------5---------------5------|--------0---------------0------|
E|--------3---------------3------|-------------------------------|

e|------- ------- 12----- -------|------- ------- 12\11-12-------|
B|-------------------------------|-------------------------------|
G|-----------------9-------------|-----------------9\-8--9-------|
D|-------------------------------|-------------------------------|
A|-------------------------------|-------------------------------|
E|-------------------------------|-------------------------------|


  E
e|0------ 0------ 0------ 0------|0------ 0------ 0------ 0------|
B|0-------0-------0-------0------|0-------0-------0-------0------|
G|1-------1-------1-------1------|1-------1-------1-------1------|
D|2-------2-------2-------2------|2-------2-------2-------2------|
A|2-------2-------2-------2------|2-------2-------2-------2------|
E|0-------0-------0-------0------|0-------0-------0-------0------|
                     to   make a  reservation
          Roll up
e|------- 0------ 0------ 0------|------- 0------ ------- 0------|
B|--------0-------0-------0------|--------0---------------0------|
G|--------1-------1-------1------|--------1---------------1------|
D|--------2-------2-------2------|--------2---------------2------|
A|-------------------------------|-------------------------------|
E|-------------------------------|-------------------------------|
e|------- ------- 12----- -------|------- ------- 12\11-12-------|
B|-------------------------------|-------------------------------|
G|-----------------9-------------|-----------------9\-8--9-------|
D|-------------------------------|-------------------------------|
A|-------------------------------|-------------------------------|
E|-------------------------------|-------------------------------|


  G                               A
e|3------ 3------ 3------ 3------|5------ 5------ 5------ 5------|
B|3-------3-------3-------3------|5-------5-------5-------5------|
G|4-------4-------4-------4------|6-------6-------6-------6------|
D|5-------5-------5-------5------|7-------7-------7-------7------|
A|5-------5-------5-------5------|7-------7-------7-------7------|
E|3-------3-------3-------3------|5-------5-------5-------5------|

          roll up     for the mystery         tour
e|------- 0------ ------- 0------|------- 0------ ------- 0------|
B|--------0---------------0------|--------2---------------2------|
G|--------4---------------4------|--------2---------------2------|
D|--------5---------------5------|--------2---------------2------|
A|--------5---------------5------|--------0---------------0------|
E|--------3---------------3------|-------------------------------|

e|------- ------- 12----- -------|------- ------- 12\11-12-------|
B|-------------------------------|-------------------------------|
G|-----------------9-------------|-----------------9\-8--9-------|
D|-------------------------------|-------------------------------|
A|-------------------------------|-------------------------------|
E|-------------------------------|-------------------------------|


  D
e|2------ ------- -------|2------ ------- -------|
B|3----------------------|3----------------------|
G|2----------------------|2----------------------|
D|0----------------------|0----------------------|
A|-----------------------|-----------------------|
E|-----------------------|-----------------------|
                  The     magical
e|------- ------- -------|5------ ------- -------|
B|------------7----------|7-----------7----------|
G|7-----------7----------|------------7----------|
D|0----------------------|0----------------------|
A|-----------------------|-----------------------|
E|-----------------------|-----------------------|


  D7
e|2------ ------- -------|2------ ------- -------|
B|3----------------------|3----------------------|
G|2----------------------|2----------------------|
D|-----------------------|-----------------------|
A|3----------------------|3----------------------|
E|-----------------------|-----------------------|
  mystery                 tour            is
e|------- ------- -------|5------ ------- -------|
B|------------7----------|7-----------7----------|
G|5-----------5----------|------------5----------|
D|0----------------------|0----------------------|
A|-----------------------|-----------------------|
E|-----------------------|-----------------------|


  G
e|3------ ------- -------|3------ ------- -------|
B|3----------------------|3----------------------|
G|0----------------------|0----------------------|
D|0----------------------|0----------------------|
A|2----------------------|2----------------------|
E|-----------------------|-----------------------|
  coming          to      take    you     away
e|------- ------- -------|7------ ------- -------|
B|------------8----------|8-----------8----------|
G|7-----------7----------|------------7----------|
D|0----------------------|0----------------------|
A|-----------------------|-----------------------|
E|-----------------------|-----------------------|


  Gm
e|3------ ------- -------|3------ ------- -------|
B|3----------------------|3----------------------|
G|0----------------------|0----------------------|
D|0----------------------|0----------------------|
A|1----------------------|1----------------------|
E|-----------------------|-----------------------|

e|------- ------- -------|6------ ------- -------|
B|------------6----------|6-----------6----------|
G|7-----------7----------|------------7----------|
D|0----------------------|0----------------------|
A|-----------------------|-----------------------|
E|-----------------------|-----------------------|


  D
e|2------ ------- -------|2------ ------- -------|
B|3----------------------|3----------------------|
G|2----------------------|2----------------------|
D|0----------------------|0----------------------|
A|0----------------------|0----------------------|
E|-----------------------|-----------------------|
  Coming          to      take    you     away
e|5------ 5------ 5------|5------ 5------ 5------|
B|7-------7-------7------|7-------6--------------|
G|7-------7-------7------|7-------7-------7------|
D|0----------------------|0----------------------|
A|-----------------------|-----------------------|
E|-----------------------|-----------------------|


  A
e|0------ ------- -------|0------ ------- -------|
B|2----------------------|2----------------------|
G|2----------------------|2----------------------|
D|2----------------------|2----------------------|
A|0----------------------|0----------------------|
E|-----------------------|-----------------------|

e|------- ------- -------|------- ------- -------|
B|5-------5-------5------|5---------------5------|
G|6-------6-------6------|6---------------6------|
D|7-------7-------7------|7-------9--------------|
A|0----------------------|0----------------------|
E|-----------------------|-----------------------|


  D
e|2------ ------- -------|2------ ------- -------|
B|3----------------------|3----------------------|
G|2----------------------|2----------------------|
D|0----------------------|0----------------------|
A|-----------------------|-----------------------|
E|-----------------------|-----------------------|
                 The      magical
e|------- ------- -------|5------ ------- -------|
B|------------7----------|7-----------7----------|
G|7-----------7----------|------------7----------|
D|0----------------------|0----------------------|
A|-----------------------|-----------------------|
E|-----------------------|-----------------------|


  D7
e|2------ ------- -------|2------ ------- -------|
B|3----------------------|3----------------------|
G|2----------------------|2----------------------|
D|-----------------------|-----------------------|
A|3----------------------|3----------------------|
E|-----------------------|-----------------------|
  mystery                 tour            is
e|------- ------- -------|5------ ------- -------|
B|------------7----------|7-----------7----------|
G|5-----------5----------|------------5----------|
D|0----------------------|0----------------------|
A|-----------------------|-----------------------|
E|-----------------------|-----------------------|


  G
e|3------ ------- -------|3------ ------- -------|
B|3----------------------|3----------------------|
G|0----------------------|0----------------------|
D|0----------------------|0----------------------|
A|2----------------------|2----------------------|
E|-----------------------|-----------------------|
  dying           to      take    you     away
e|------- ------- -------|7------ ------- -------|
B|------------8----------|8-----------8----------|
G|7-----------7----------|------------7----------|
D|0----------------------|0----------------------|
A|-----------------------|-----------------------|
E|-----------------------|-----------------------|


  Gm
e|3------ ------- -------|3------ ------- -------|
B|3----------------------|3----------------------|
G|0----------------------|0----------------------|
D|0----------------------|0----------------------|
A|1----------------------|1----------------------|
E|-----------------------|-----------------------|

e|------- ------- -------|6------ ------- -------|
B|------------6----------|6-----------6----------|
G|7-----------7----------|------------7----------|
D|0----------------------|0----------------------|
A|-----------------------|-----------------------|
E|-----------------------|-----------------------|


  D
e|2------ ------- -------|2------ ------- -------|
B|3----------------------|3----------------------|
G|2----------------------|2----------------------|
D|0----------------------|0----------------------|
A|0----------------------|0----------------------|
E|-----------------------|-----------------------|

  dying           to      take    you     away
e|5------ ------- -------|------- ------- -------|
B|7-----------7----------|-----------------------|
G|7-----------7----------|7----------------------|
D|0----------------------|0----------------------|
A|-----------------------|-----------------------|
E|-----------------------|-----------------------|

  A
e|0------ ------- -------|0------ ------- -------|
B|2----------------------|2----------------------|
G|2----------------------|2----------------------|
D|2----------------------|2----------------------|
A|0----------------------|0----------------------|
E|-----------------------|-----------------------|
                          take    you     today
e|0------ ------- -------|------- ------- -------|
B|2-----------2----------|-----------------------|
G|2-----------2----------|2----------------------|
D|-----------------------|2----------------------|
A|0----------------------|0----------------------|
E|-----------------------|-----------------------|


  D
e|2------ ------- -------|------- ------- -------|
B|3----------------------|-----------------------|
G|2----------------------|-----------------------|
D|0----------------------|-----------------------|
A|-----------------------|-----------------------|
E|-----------------------|-----------------------|

e|5------ ------- -------|------- ------- -------|
B|7----------------------|-----------------------|
G|7----------------------|-----------------------|
D|0----------------------|-----------------------|
A|-----------------------|-----------------------|
E|-----------------------|-----------------------|


e|------- ------- -------|------- ------- -------|
B|-----------------------|-----------------------|
G|-----------------------|-----------------------|
D|-----------------------|-----------------------|
A|-----------------------|0-------0-------0------|
E|-----------------------|-----------------------|

e|------- ------- -------|------- ------- -------|
B|-----------------------|-----------------------|
G|-----------------------|-----------------------|
D|0----------------------|-----------------------|
A|-----------------------|-----------------------|
E|-----------------------|-----------------------|

e|------- ------- 12-----|------- ------- -------|
B|----13--15-------------|--------13-------------|
G|14--------------12-----|14--------------14-----|
D|-----------------------|-----------------------|
A|-----------------------|-----------------------|
E|-----------------------|-----------------------|

e|------- ------- -------|------- 10----- -------|
B|--------------------13-|12---------------------|
G|----------------14-----|----------------12-----|
D|-----------------------|-----------------------|
A|-----------------------|-----------------------|
E|-----------------------|-----------------------|

e|------- ------- -------|------- ------- -------|
B|10------12------13-----|--------10-------------|
G|-----------------------|10--------------9------|
D|-----------------------|-----------------------|
A|-----------------------|-----------------------|
E|-----------------------|-----------------------|

e|------- ------- -------|------- ------- -------|
B|----------------8------|--------10-------------|
G|10---------------------|9----------------------|
D|---------12------------|-----------------------|
A|-----------------------|-----------------------|
E|-----------------------|-----------------------|

e|------- ------- -------|------- ------- -------|
B|-----------------------|-----------------------|
G|-----------------------|------------10--12-----|
D|-----------------------|10---------------------|
A|-----------------------|-----------------------|
E|-----------------------|-----------------------|


e|------- ------- -------|------- ------- -------|
B|----------------10-----|--------12-------------|
G|-----------------9-----|-----------------------|
D|9----------------------|--------12-------------|
A|-----------------------|-----------------------|
E|-----------------------|-----------------------|


e|------- ------- -------|------- ------- -------|
B|------------8----------|-----------------------|
G|9----------------------|-----------------------|
D|-----------------------|-----------------------|
A|-----------------------|-----------------------|
E|-----------------------|-----------------------|


e|------- ------- -------|10----- ------- 12-----|
B|13---------------------|-----------------------|
G|-----------------------|-----------------------|
D|-----------------------|-----------------------|
A|-----------------------|-----------------------|
E|-----------------------|-----------------------|


e|------- ------- -------|------- ------- ----10-|
B|10---------------------|12------13-------------|
G|-----------------------|10------12-------------|
D|-----------------------|-----------------------|
A|-----------------------|-----------------------|
E|-----------------------|-----------------------|
  ......................Fade.....................

e|------- ------- -------|------- ------- 12-----|
B|------------8----------|-----------------------|
G|9----------------------|-----------------------|
D|-----------------------|-----------------------|
A|-----------------------|-----------------------|
E|-----------------------|-----------------------|
  ...............................................

e|10----- ------- -------|------- ------- -------|
B|-----------------------|-----------------------|
G|-----------------------|-----------------------|
D|-----------------------|-----------------------|
A|-----------------------|-----------------------|
E|-----------------------|-----------------------|
  .......................

        B  Bend
        R  Release
        /  slide up
        \  slide down
        H  hammer-on
        P  pull-off
        ~  vibrato
        +  harmonic
        x  Mute note
        . - play note like a dot in standard notation
        ^ - ties two notes together
        (. Pause


------------
Lady Madonna
------------

Tabbed by:PJVillanueva


Lady Madonna, children at your feet
Wonder how you manage to make ends meet
Who finds the money when you pay the rent
Did you think that money was heaven sent

Friday night arrives without a suitcase
Sunday morning creeping like a nun
Monday's child has learned to tie his bootlegs
See how they run

Lady Madonna, baby at your breast
Wonders how you manage to feed the rest
Pa pa pa pa...
See how they run

Lady Madonna lying on the bed
Listen to the music playing in your head

Tuesday afternoon is never ending
Wednesday morning papers didn't come
Thursday night you stocking needed mending
See how they run

Lady Madonna, children at your feet
Wonder how you manage to make ends meet


 A                D               A               D
e|------- ------- ------- -------|------- ------- ------- -------|
B|----------------3--3-----------|----------------3--------------|
G|5--6-------5----4--2------2----|5--6----5--4----2--2-------2---|
D|5--5-------5----0--0----0---0--|5--5----5--5----0-------0------|
A|0--0----3--4-------------------|0--0----3--4-------------------|
E|-------------------------------|-------------------------------|

  A               Dm      Dadd9m  Dm      Dmsus4  A
e|------- ------- ------- -------|------- ------- ------- -------|
B|----------------3-------3------|3-------3-----/-2--------------|
G|5--6----5--4----2-------2------|2-------0--0--/-2--------------|
D|5--5----5--5----0--0----2--2---|3--3----3----------------------|
A|0--0----3--4-------------------|----------------0--0----0--0---|
E|-------------------------------|-------------------------------|


e|------- ------- ------- -------|------- ------- ------- -------|
B|----------------3--------------|----------------3--------------|
G|5--6-------5----4--2-------2---|5--6----5--4----2--0------2----|
D|5--5-------5----0--0----0------|5--5----5--5----0-----/-4---0--|
A|0--0----3--4-------------------|0--0----3--4-------------------|
E|-------------------------------|-------------------------------|
  Lady       Madonna,            children at your feet

e|------- ------- ------- -------|------- ------- ------- -------|
B|----------------3-------3------|3-------3-------2--------------|
G|5--6----5--4----2-------2------|2-------0--0----2--------------|
D|5--5----5--5----0--0----2--2---|3--3----3-------2--------------|
A|0--0----3--4-------------------|----------------0--0----0--0---|
E|-------------------------------|-------------------------------|
  Wonder  how you manage  to make    ends    meet

e|------- ------- ------- -------|------- ------- ------- -------|
B|----------------3--------------|-------------------------------|
G|5--6-------5----4--2------2----|5--6----5--4--2---2-----2------|
D|5--5-------5----0-------4---0--|5--5----5--5----0---0-------0--|
A|0--0----3--4-------------------|0--0----3--4-------------------|
E|-------------------------------|-------------------------------|
  Who finds  the money           when you pay the rent

e|------- ------- ------- -------|------- ------- ------- -------|
B|----------------3-------3------|3-------3-----/-2--------------|
G|5--6----5--4----2-------2------|2-------0--0--/-2--------------|
D|5--5----5--5----0--0----2--2---|3--3----3----------------------|
A|0--0----3--4-------------------|----------------0--0----0--0---|
E|-------------------------------|-------------------------------|
  Did you think that money was    heaven     sent

  Dm      Dm7     Dm6     F       G       G7      G6      G5
e|1------ 1------ 1------ 1------|------- ------- ------- -------|
B|3-------3-------3-------1------|3------------------------------|
G|2-------2-------2-------2------|0------------------------------|
D|0--0---------------------------|0--0----3--3----2--2----0--0---|
A|--------3--3----2--2----0--0---|-------------------------------|
E|-------------------------------|-------------------------------|
  Friday night arrives without a  suitcase


  C       Em      Am      G       Am      Aadd9m  C6      Am
e|------- ------- ------- -------|------- ------- ------- -------|
B|1-------0-------1-------0------|1------------------------------|
G|0-------0-------2-------0------|2------------------------------|
D|2-------2-------2-------0------|2-----------------------2--2---|
A|3--3----2--2----0--0-----------|0--0----2--2----3--3-----------|
E|------------------------3--3---|-------------------------------|
  Sunday morning creeping like a  nun


  Dm      Dm7     Dm6     F       G       G7      G6      G5
e|1------ 1------ 1------ 1------|------- ------- ------- -------|
B|3-------3-------3-------0--1---|3------------------------------|
G|2-------2-------2-------2------|0------------------------------|
D|0--0---------------------------|0--0----3--3----2--2----0--0---|
A|--------3--3----2--2----0--0---|-------------------------------|
E|-------------------------------|-------------------------------|
Monday's child has learned to tie his bootlegs


  C               Bbm             Esus4           E
e|0------ ------- 2------ -------|0------ ------- 0------ -------|
B|1---------------3--------------|0---------------0--------------|
G|0---------------4--------------|2---------------1--------------|
D|2---------------4--------------|2---------------2--------------|
A|3---------------2--------------|2---------------2--------------|
E|3------------------------------|0---------------0--------------|
  See             how     they    run

e|------- ------- ------- -------|------- ------- ------- -------|
B|----------------3--------------|----------------3--------------|
G|5--6-------5----4--2-------2---|5--6----5--4----2--2-------2---|
D|5--5-------5----0-------0------|5--5----5--5----0-------0------|
A|0--0----3--4-------------------|0--0----3--4-------------------|
E|-------------------------------|-------------------------------|
  Lady      Madonna,              baby  at your breast
e|------- ------- ------- -------|------- ------- ------- -------|
B|-------------------------------|-------------------------------|
G|----------------------------2--|----------------------------2--|
D|----------------0--0----3-4----|----------------0--0----3-4----|
A|0--0----3--4-------------------|0--0----3--4-------------------|
E|-------------------------------|-------------------------------|


e|------- ------- ------- -------|------- ------- ------- -------|
B|----------------3-------3------|3-------3-----/-2--------------|
G|5--6----5--4----2-------2------|2-------0--0--/-2--------------|
D|5--5----5--5----0--0----2--2---|3--3----3----------------------|
A|0--0----3--4-------------------|----------------0--0----0--0---|
E|-------------------------------|-------------------------------|
  Wonders how you manage  to feed         the rest
e|------- ------- ------- -------|------- ------- ------- -------|
B|-------------------------------|-------------------------------|
G|-------------------------------|--------0--0----2--------------|
D|----------------0--0----2--2---|3--3---------------------------|
A|0--0----3--4-------------------|-------------------------------|
E|-------------------------------|-------------------------------|


          x               x               x               x
          x               x               x               x
e|------- ------- ------- -------|------- ------- ------- -------|
B|----------------3--3----3------|-------------------------------|
G|5--6------5-5---4--2----2------|5--6----5--4-2----2-----2------|
D|5--5------5-5---0-------0------|5--5----5--5----0---0----------|
A|0--0----3---4------------------|0--0----3--4-------------------|
E|-------------------------------|-------------------------------|

e|------- ------- ------- -------|------- ------- ------- -------|
B|-------------------------------|-------------------------------|
G|----------------------------2--|----------------------------2--|
D|----------------0--0----3-4----|----------------0--0----3-4----|
A|0--0----3--4-------------------|---0----3--4-------------------|
E|-------------------------------|-------------------------------|


          x               x               x               x
          x               x               x               x
e|------- ------- ------- -------|------- ------- ------- -------|
B|----------------3-------3------|3-------3-----/-2--------------|
G|5--6----5--4----2-------2------|2-------0--0--/-2--------------|
D|5--5----5--5----0--0----2--2---|3--3----3----------------------|
A|0--0----3--4-------------------|----------------0--0----0--0---|
E|-------------------------------|-------------------------------|

e|------- ------- ------- -------|------- ------- ------- -------|
B|-------------------------------|-------------------------------|
G|-------------------------------|--------0--0----2--------------|
D|----------------0--0----2--2---|3--3---------------------------|
A|---0----3--4-------------------|-------------------------------|
E|-------------------------------|-------------------------------|

  Sax solo


e|1------ 1------ 1------ 1------|------- ------- ------- -------|
B|3-------3-------3-------1------|3------------------------------|
G|2-------2-------2-------2------|0------------------------------|
D|0--0---------------------------|0--0----3--3----2--2----0--0---|
A|--------3--3----2--2----0--0---|-------------------------------|
E|-------------------------------|-------------------------------|
 (Pa pa   pa pa           pa pa   pa pa   pa)
e|------- 10----- ------- -------|------- -----10 ------- -------|
B|------------8B9-R-8P6---6--8---10-8-10-8-10/12-/12-8-----------|
G|----------------------7--------|---------------------9---------|
D|-------------------------------|-------------------------------|
A|-------------------------------|-------------------------------|
E|-------------------------------|-------------------------------|


e|------- ------- ------- -------|------- ------- ------- -------|
B|1-------0-------1-------0------|1------------------------------|
G|0-------0-------2-------0------|2------------------------------|
D|2-------2-------2-------0------|2-----------------------2--2---|
A|3--3----2--2----0--0-----------|0--0----2--2----3--3-----------|
E|------------------------3--3---|-------------------------------|
 (Pa pa   pa pa           pa pa   pa      pa pa      pa   pa)
e|------- ------- ------- -------|------- ------- ------- -------|
B|-------------------------------|-------------------------------|
G|------------9-10H11R10-9H10H11H12P11P10P9----------------------|
D|---------10----------10--------|---------10-------9-9H1010H12--|
A|-------10----------------------|-----------10H1212-------------|
E|-------------------------------|-------------------------------|


e|1------ 1------ 1------ 1------|------- ------- ------- -------|
B|3-------3-------3-------1------|3------------------------------|
G|2-------2-------2-------2------|0------------------------------|
D|0--0---------------------------|0--0----3--3----2--2----0--0---|
A|--------3--3----2--2----0--0---|-------------------------------|
E|-------------------------------|-------------------------------|
 (Pa pa   pa pa           pa pa   pa pa   pa)
e|------- ------- ------- -------|------- ------- ---7--- -------|
B|------------8-9H10P9P8-9H10P9P8|---8---8H9P8P7P6/8-------------|
G|------7-9-10----------7--------7-------------------------------|
D|-------------------------------|-------------------------------|
A|-------------------------------|-------------------------------|
E|10-----------------------------|-------------------------------|


e|0------ ------- 2------ -------|0------ ------- 0------ -------|
B|1---------------3--------------|0---------------0--------------|
G|0---------------4--------------|2---------------1--------------|
D|2---------------4--------------|2---------------2--------------|
A|3---------------2--------------|2---------------2--------------|
E|3------------------------------|0---------------0--------------|
  See             how     they    run
e|------- ------- ------- -------|------- ------- ------- -------|
B|-------------------------------|-------------------------------|
G|-------------------------------|-------------------------------|
D|-------------------------------|-------------------2-0----0----|
A|-------------------------------|------------------------3---3-2|
E|-------------------------------|-------------------------------|


e|------- ------- ------- -------|------- ------- ------- -------|
B|----------------3--4-----------|----------------3--------------|
G|5--6-------5----4--2------2----|5--6----5--4----2--2-------2---|
D|5--5-------5----0--0--------0--|5--5----5--5----0-------0------|
A|0--0----3--4-------------------|0--0----3--4-------------------|
E|-------------------------------|-------------------------------|
  Lady       Madonna              lying   on the bed
e|------- ------- ------- -------|------- ------- ------- -------|
B|-------------------------------|-------------------------------|
G|----------------------------2--|----------------------------2--|
D|----------------0--0----3-4----|----------------0--0----3-4----|
A|0--0----3--4-------------------|---0----3--4-------------------|
E|-------------------------------|-------------------------------|


e|------- ------- ------- -------|------- ------- ------- -------|
B|----------------3--------------|3-------3-------2--------------|
G|5--6----5--4----2--------------|2-------0--0----2--------------|
D|5--5----5--5----0--0----2--2---|3--3----3----------------------|
A|0--0----3--4-------------------|----------------0--0----0--0---|
E|-------------------------------|-------------------------------|
  Listen  to the  music  playing  in your    head
e|------- ------- ------- -------|------- ------- ------- -------|
B|-------------------------------|-------------------------------|
G|-------------------------------|--------0--0----2--------------|
D|----------------0--0----2--2---|3--3---------------------------|
A|---0----3--4-------------------|-------------------------------|
E|-------------------------------|-------------------------------|


e|------- ------- ------- -------|------- ------- ------- -------|
B|-------------------------------|-------------------------------|
G|5--6--------5-4---2-----2------|5--6----5--4----2--2-------2---|
D|5--5--------5-5-0---0----------|5--5----5--5----0-------0------|
A|0--0----3---4-4----------------|0--0----3--4-------------------|
E|-------------------------------|-------------------------------|

e|------- ------- ------- -------|------- ------- ------- -------|
B|-------------------------------|-------------------------------|
G|----------------------------2--|----------------------------2--|
D|----------------0--0----3-4----|----------------0--0----3-4----|
A|0--0----3--4-------------------|---0----3--4-------------------|
E|-------------------------------|-------------------------------|


e|------- ------- ------- -------|------- ------- ------- -------|
B|-------------------------------|3-------3-----/-2--------------|
G|5--6----5--4----2--------------|2-------0--0--/-2--------------|
D|5--5----5--5----0--0----2--2---|3--3----3----------------------|
A|0--0----3--4-------------------|----------------0--0----0--0---|
E|-------------------------------|-------------------------------|

e|------- ------- ------- -------|------- ------- ------- -------|
B|-------------------------------|-------------------------------|
G|-------------------------------|--------0--0----2--------------|
D|----------------0--0----2--2---|3--3---------------------------|
A|---0----3--4-------------------|-------------------------------|
E|-------------------------------|-------------------------------|


e|1------ 1------ 1------ 1------|------- ------- ------- -------|
B|3-------3-------3-------1------|3------------------------------|
G|2-------2-------2-------2------|0----------0-------0-------0---|
D|0--0---------------------------|0------------------------------|
A|--------3--3----2--2----0--0---|-------------------------------|
E|-------------------------------|3-------3-------3-------3------|
  Tuesday afternoon  is   never   ending
 (Pa pa   pa pa           pa pa   pa pa   pa)


e|------- ------- ------- -------|------- ------- ------- -------|
B|1-------0-------1-------0------|1-------1-------1-------1------|
G|0-------0-------2-------0------|2-------2-------2-------2------|
D|2-------2-------2-------0------|2-------2-------2-------2--2---|
A|3--3----2--2----0--0-----------|0--0----2--2----3--3-----------|
E|------------------------3--3---|-------------------------------|
 Wednesday morning papers didn't come
 (Pa pa   pa pa           pa pa   pa      pa pa      pa   pa)

e|1------ 1------ 1------ 1------|------- ------- ------- -------|
B|3-------3-------3-------1------|3------------------------------|
G|2-------2-------2-------2------|0-------0--0-------0-------0---|
D|0--0---------------------------|0-------0----------------------|
A|--------3--3----2--2----0--0---|-------------------------------|
E|-------------------------------|3-------3-------3-------3------|
Thursday night you stocking needed mending
 (Pa pa   pa pa           pa pa   pa pa   pa)

e|0------ ------- 2------ -------|0------ ------- 0------ -------|
B|1---------------3--------------|0---------------0--------------|
G|0---------------4--------------|2---------------1--------------|
D|2---------------4--------------|2---------------2--------------|
A|3---------------2--------------|2---------------2--------------|
E|3------------------------------|0---------------0--------------|
  See             how     they    run
e|------- ------- ------- -------|------- ------- ------- -------|
B|-------------------------------|-------------------------------|
G|-------------------------------|-------------------------------|
D|-------------------------------|-------------------2-0----0----|
A|-------------------------------|------------------------3---3-2|
E|-------------------------------|-------------------------------|


e|------- ------- ------- -------|------- ------- ------- -------|
B|----------------3--4-----------|----------------3--------------|
G|5--6-------5----4--2------2----|5--6----5--4----2--2------2----|
D|5--5-------5----0--0--------0--|5--5----5--5----0-------0---0--|
A|0--0----3--4-------------------|0--0----3--4-------------------|
E|-------------------------------|-------------------------------|
  Lady       Madonna,             children at your feet
e|------- ------- ------- -------|------- ------- ------- -------|
B|-------------------------------|-------------------------------|
G|----------------------------2--|----------------------------2--|
D|----------------0--0----3-4----|----------------0--0----3-4----|
A|0--0----3--4-------------------|---0----3--4-------------------|
E|-------------------------------|-------------------------------|


e|------- ------- ------- -------|------- -------|
B|----------------3-------3------|3-------3------|
G|5--6----5--4----2-------2------|2-------0--0---|
D|5--5----5--5----0--0----2--2---|3--3----3------|
A|0--0----3--4-------------------|---------------|
E|-------------------------------|---------------|
  Wonder  how you manage  to make    ends     meet
e|------- ------- ------- -------|------- -------|
B|-------------------------------|---------------|
G|-------------------------------|--------0--0---|
D|----------------0--0----2--2---|3--3-----------|
A|0--0----3--4-------------------|---------------|
E|-------------------------------|---------------|

                                            (.       x x  x x x


  A               Bm7             Cm6    Bm7 A
e|5--5--- --5---- 5--5--- --5----|5------ 5--5--- ------- -------|
B|2--2------2-----3--3------3---/|4-------3--2-------------------|
G|2--2------2-----4--4------4---/|5-------4--2-------------------|
D|-------------------------------|-------------------------------|
A|0-------0---0---0-------0---0--|0--0----0--0-------------------|
E|-------------------------------|-------------------------------|

e|------- ------- ------- -------|------- ------- ------- -------|
B|-------------------------------|-------------------------------|
G|2--2------2-2---4--4-------4--4B5-------4--2-------------------|
D|-------------------------------|-------------------------------|
A|-------------------------------|-------------------------------|
E|-------------------------------|-------------------------------|

                                            (.

e|5--5--- --5---- 5--5--- --5----|5------ 5--5--- ------- -------|
B|2--2------2-----3--3------3---/|4-------3--2-------------------|
G|2--2------2-----4--4------4---/|5-------4--2-------------------|
D|-------------------------------|-------------------------------|
A|0-------0---0---0-------0---0--|0--0----0--0-------------------|
E|-------------------------------|-------------------------------|




        B  Bend
        R  Release
        /  Slide up
        \  Slide down
        H  Hammer-on
        P  Pull-off
        ~  Vibrato
        +  Harmonic
        x  Mute note
        .  Play note like a dot in standard notation
        ^  Ties two notes together
        (. Pause


--------
Hey Jude
--------

Tabbed by:PJVillanueva




Hey Jude, don't make it bad.
Take a sad song and make it better.
Remember to let her into your heart,
Then you can start to make it better.

Hey Jude, don't be afraid.
You were made to go out and get her.
The minute you let her under your skin,
Then you begin to make it better.

And anytime you feel the pain, hey Jude, refrain,
Don't carry the world upon your shoulders.
For well you know that it's a fool who plays it cool
By making his world a little colder.

Hey Jude, don't let me down.
You have found her, now go and get her.
Remember to let her into your heart,
Then you can start to make it better.

So let it out and let it in, hey Jude, begin,
You're waiting for someone to perform with.
And don't you know that it's just you, hey Jude, you'll do,
The movement you need is on your shoulder.

Hey Jude, don't make it bad.
Take a sad song and make it better.
Remember to let her under your skin,
Then you'll begin to make it
Better better better better better better, oh.

Na na na, na na na na, na na na, hey Jude...




Use a capo on the first fret.


                                                           Hey

  E                               B                       B5  B6
e|0------ 0------ 0------ 0------|------- ------- ------- -------|
B|0-------0-------0-------0------|-------------------------------|
G|1-------1-------1-------1------|4-------4-------4-------4------|
D|2-------2-------2-------2------|4-------4-------4-------4---6--|
A|-------------------------------|6-------6-------6-------2------|
E|0-------0-------0-------0------|7-------7-------7--------------|
 Jude,              don't make it bad.                     Take a


  B7      B11                     E
e|------- 0------ 0------ 0------|0------ 0------ 0------ 0------|
B|0-------0-------0-------0------|0-------0-------0-------0------|
G|2-------2-------2-------2------|1-------1-------1-------1------|
D|1-------1-------1-------1------|2-------2-------2-------2------|
A|2-------2-------2-------2------|-------------------------------|
E|-------------------------------|0-------0-------0-------0------|
  sad     song        and make it better.                    Re..


  A                               E
e|0------ 0------ 0------ 0------|0------ 0------ 0------ 0------|
B|2-------2-------2-------2------|0-------0-------0-------0------|
G|2-------2-------2-------2------|1-------1-------1-------1------|
D|2-------2-------2-------2------|2-------2-------2-------2------|
A|0-------0-------0-------0------|-------------------------------|
E|-------------------------------|0-------0-------0-------0------|
  member     to let her into your heart,          Then you can start


  B                               E
e|------- ------- ------- -------|0------ 0------ 0------ -------|
B|-------------------------------|0-------0-------0--------------|
G|4-------4-------4-------4------|1-------1-------1--------------|
D|4-------4-------4-------4------|2-------2-------2--------------|
A|6-------6-------6-------6------|-------------------------------|
E|7-------7-------7-------7------|0-------0-------0--------------|
             to   make it    better.                      Hey

  E                               B                       B5  B6
e|0------ 0------ 0------ 0------|------- ------- ------- -------|
B|0-------0-------0-------0------|-------------------------------|
G|1-------1-------1-------1------|4-------4-------4-------4------|
D|2-------2-------2-------2------|4-------4-------4-------4---6--|
A|2-------2-------2-------2------|6-------6-------6-------2------|
E|0-------0---0---0-------0---0--|7-------7-------7--------------|
 Jude,              don't be  afraid.                     You were
e|------- 0---0-- 0------ 0------|------- 2---2-2 ------- 2---2--|
B|0---0---0---0---0---0---0---0-0|0---0---0---0-0---------0---0--|
G|1---1---1---1---1---1---1---1-1|2---2---2---2-2-2---2---2---2--|
D|2---2---2---2---2---2---2---2-2|1---1---1---1-1-1---1---1---1--|
A|2---2---2---2---2---2---2---2-2|2---2---2---2-2----------------|
E|0---0---0---0---0---0---0---0-0|----------------2---2----------|


  B7      B11                     E
e|------- 0------ 0------ 0------|0------ 0------ 0------ 0------|
B|0-------0-------0-------0------|0-------0-------0-------0------|
G|2-------2-------2-------2------|1-------1-------1-------1------|
D|1-------1-------1-------1------|2-------2-------2-------2------|
A|2-------2-------2-------2------|2-------2-------2-------2------|
E|-------------------------------|----0-------0-------0-------0--|
  made    to         go   out and get her.
e|2---2-2 2---2-2 ------- 2---2--|------- 0---0-0 ------- 0---0--|
B|0---0-0-0---0-0---------0---0--|0---0---0---0-0-0---0---0---0--|
G|2---2-2-2---2-2-2---2---2---2--|1---1---1---1-1-1---1---1---1--|
D|1---1-1-1---1-1-1---1---1---1--|2---2---2---2-2-2---2---2---2--|
A|2---2-2-2---2-2----------------|2---2---2---2-2-2---2---2---2--|
E|----------------2---2----------|0---0---0---0-0-0---0---0---0--|


  A                               E
e|0------ 0------ 0------ 0------|0------ 0------ 0------ 0------|
B|2-------2-------2-------2------|0-------0-------0-------0------|
G|2-------2-------2-------2------|1-------1-------1-------1------|
D|2-------2-------2-------2------|2-------2-------2-------2------|
A|0---0-------0-------0-------0--|-------------------------------|
E|-------------------------------|0---0-------0---0---0-------0--|
  minute    you let her under your skin,          Then you begin
 (Aaaaaaaaaaaaaaaaaaaaaaaaaaaaaaaaaaaaaaaaaaaaaaaaaaaaaaaaaaaaaaa
e|------- 0---0-0 ------- 0---0--|0------ 0---0-0 ------- 0---0--|
B|2---2---2---2-2-2---2---2---2--|0-------0---0-0---------0---0--|
G|2---2---2---2-2-2---2---2---2--|1---1---1---1-1---------1---1--|
D|2---2---2---2-2-2---2---2---2--|2---2---2---2-2-2---2---2---2--|
A|0---0---0---0-0-0---0---0---0--|2---2---2---2-2-2---2---2---2--|
E|----------------0---0----------|0---0---0---0-0-0---0---0---0--|


  B                               E                           Emaj7
e|------- ------- ------- -------|0------ 0------ 0------ 0---0--|
B|-------------------------------|0-------0-------0-------0---4--|
G|4-------4-------4-------4------|1-------1-------1-------1---1--|
D|4-------4-------4-------4------|2-------2-------2-------2---2--|
A|6-------6-------2-------2------|-------------------------------|
E|7---7-------7---2---2-------2--|0---0-------0-------0-------0--|
             to   make it    better.
  aaaaaaaaaaaaaaaaaaaaahhhh  better)
e|------- 2-----2 ------- 2-----2|------- 0------ ------- 0-----0|
B|--------0-----0---------0-----0|--------0---------------0-----0|
G|2---2---2-----2---------2-----2|--------1---------------1-----1|
D|1---1---1-----1---------1-----1|2---2---2-----------2---2-----2|
A|2---2---2-----2----------------|2---2---2-----------2---2-----2|
E|----------------2---2----------|0---0---0-----------0---0-----0|


  E7                              A               Amaj7
e|0------ 0------ 0------ 0------|0------ 0------ ------- -------|
B|3-------3-------3-------3------|2-------2-------5-------5------|
G|1-------1-------1-------1------|2-------2-------2-------2------|
D|2-------2-------2-------2------|2-------2-------2-------2------|
A|-------------------------------|0---0---0---0------------------|
E|0---0-------0-------0-------0--|----------------4---4---4---4--|
      And anytime    you feel the pain,   hey Jude,       refrain,
e|------- ------- ------- -------|0---0-- 0------ ------- -------|
B|--------3---------------3------|2---2---2-------5---5---5------|
G|--------1---------------1------|2---2---2-------6---6---6------|
D|2---2---2-------2---2---2------|2---2---2-------6---6---6------|
A|2---2---2-------2---2---2------|0---0---0-------4---4---4------|
E|0---0---0-------0---0---0------|-------------------------------|


  F#m             F#m7            B7
e|------- ------- ------- -------|------- ------- ------- -------|
B|2---2---2-------2---2---2------|0-------0-------0-------0------|
G|2---2---2-------2---2---2------|2-------2-------2-------2------|
D|4---4---4-------4---4---4------|1-------1-------1-------1------|
A|-------------------------------|2---2---2----------------------|
E|2---2---2-------0---0---0------|----------------2---2---2------|
          Don't carry     the world       upon            your shoul..
e|------- ------- ------- -------|------- 2-----2 ------- 2------|
B|5---5---5-------5---5---5------|--------0-----0---------0------|
G|2---2---2-------2---2---2------|2---2---2-----2-2---2---2------|
D|4---4---4-------4---4---4------|1---1---1-----1-1---1---1------|
A|4---4---4-------4---4---4------|2---2---2-----2----------------|
E|2---2---2-------0---0---0------|----------------2---2---2------|


  E                           E6  E7
e|0------ ----0-- 0---0-- 0---0--|0------ 0------ ----0-- 0------|
B|0-----------0---0---0---0---0--|3-------3-----------3---3------|
G|1-----------1---1---1---1---1--|1-------1-----------1---1------|
D|2-----------2---2---2---2---2--|2-------2-----------2---2------|
A|-------------------------------|-------------------------------|
E|0-----------0---0---0---0---0--|0-------0-----------0---0------|
  ....ders.                         For well you know that it's a fool
e|------- 0-----0 ------- 0------|------- 0------ ------- 0------|
B|--------0-----0---------0------|--------3---------------3------|
G|--------1-----1---------1------|--------1---------------1------|
D|2---2---2-----2-2---2---2------|2---2---2-------2---2---2------|
A|2---2-----------2---2----------|2---2-----------2---2----------|
E|0---0-----------0---0----------|0---0-----------0---0----------|


  A               Amaj7           F#m             F#m7
e|----0-- 0---0-- ------- -------|------- ------- ------- -------|
B|----2---2---2---5-------5---5--|2---2---2---2---2-------2---2--|
G|----2---2---2---2-------2---2--|2---2---2---2---2-------2---2--|
D|----2---2---2---2-------2---2--|4---4---4---4---4-------4---4--|
A|----0---0---0------------------|-------------------------------|
E|----------------4-------4---4--|2---2---2---2---0-------0---0--|
          who plays       it cool         By making       his world
 (Ooooooooooooooooooooooooooooooooooooooooooooooooooooooooooooooo
e|------- 0------ ------- -------|------- 2------ ------- 2------|
B|--------2---------------5------|--------5---------------5------|
G|2---2---2-------6---6---6------|2---2---2-------2---2---2------|
D|2---2---2-------6---6---6------|4---4---4-------4---4---4------|
A|0---0---0-------4---4---4------|4---4---4-------4---4---4------|
E|----------------4---4---4------|2---2---2-------0---0---0------|


  B7                              E
e|------- ------- ------- -------|0------ ----0-- 0------ 0------|
B|0-------0-------0-------0------|0-----------0---0-------0------|
G|2-------2-------2-------2------|1-----------1---1-------1------|
D|1-------1-------1-------1------|2-----------2---2-------2------|
A|2---2---2-------2--------------|-------------------------------|
E|------------------------2---0--|0-----------0---0-------0------|
          a little            colder.                 Na  na  na
  oohhhhhh)                                          (Na  na  na
e|------- 2-----2 ------- 2------|------- 0-----0 ------- 0------|
B|--------0-----0---------0------|--------0-----0---------0----0-|
G|2---2---2-----2-2---2---2------|--------1-----1---------1----1-|
D|1---1---1-----1-1---1---1------|2---2---2-----2-2---2---2----2-|
A|2---2---2-----2---------2------|2---2-----------2---2--------2-|
E|----------------2---2----------|0---0-----------0---0----------|

e|------- ------- ------- -------|------- ------- ------- -------|
B|-------------------------------|------------------------0---2--|
G|-------------------------------|--------------------1---1---2--|
D|-------------------------------|--------------------2----------|
A|-------------------------------|-------------------------------|
E|-------------------------------|-------------------------------|


  E7              B7  B11 B7                      B   B6
e|0------ 0------ ----0-- 2------|2------ ------- 2---4--|
B|3-------3-------4---0---0------|0---------------4---4--|
G|1-------1-------2---2---2------|2---------------4---4--|
D|2-------2-------1---1---1------|1---------------4---4--|
A|----------------2---2---2------|2-----------2---2---2--|
E|0-------0----------------------|-----------------------|
  Na      na      na  na  na      na
  Na      na      na  na  na      na)
e|0------ 0------ 2---2-- 2-----2|2------ 2------ 2------|
B|0-------0-------0---0---0-----0|0-------0-------0------|
G|1-------1-------2---2---2-----2|2-------2-------2------|
D|2-------2-------1---1---1-----1|1-------1-------1------|
A|2-------2-------2---2---2-----2|2-------2-------2------|
E|0-------0----------------------|-----------------------|

e|------- ------- ------- -------|------- ------- -------|
B|3-------3-------4---5---7------|7----------------------|
G|4-------4-------4---6---8------|8----------------------|
D|-------------------------------|-----------------------|
A|-------------------------------|-----------------------|
E|-------------------------------|-----------------------|

              X   XXXX
  B7
e|5------ 5------ -------|
B|4-------4--------------|
G|2-------2--------------|
D|4-------4--------------|
A|2-------2--------------|
E|-----------------------|
                  Hey


  E                               B                       B5  B6
e|0------ 0------ 0------ 0------|------- ------- ------- -------|
B|0-------0-------0-------0------|-------------------------------|
G|1-------1-------1-------1------|4-------4-------4-------4------|
D|2-------2-------2-------2------|4-------4-------4-------4---6--|
A|-------------------------------|6-------6-------2-------2------|
E|0-------0---0---0-------0------|7---7---7-------2---2----------|
  Jude              don't let me down.                    You have
e|0---0-- ------- 0---0-- 0---0--|2------ 2-----2 ------- 2-----2|
B|0---0-----------0---0---0---0--|0-------0-----0---------0-----0|
G|1---1-------1---1---1---1---1--|2---2---2-----2-2---2---2-----2|
D|2---2-------2---2---2---2---2--|1---1---1-----1-1---1---1-----1|
A|2---2-------2---2---2---2---2--|2---2---2----------------------|
E|0---0-------0---0---0---0---0--|----------------2---2----------|


  B7      B11                     E
e|------- 0------ 0------ 0------|0------ 0------ 0------ 0------|
B|0-------0-------0-------0------|0-------0-------0-------0------|
G|2-------2-------2-------2------|1-------1-------1-------1------|
D|1-------1-------1-------1------|2-------2-------2-------2------|
A|2-------2-------2-------2------|-------------------------------|
E|-------------------------------|0-------0-------0---0---0---0--|
  found   her,        now go and  get her.                    Re..
                                                             (Re..
                                          (Anyhow     remember
e|------- 2---2-- ------- 2-----2|------- 0------ ------- 0------|
B|--------0---0-----------0-----0|--------0---------------0------|
G|2---2---2---2---2---2---2-----2|--------1---------------1------|
D|1---1---1---1---1---1---1-----1|2---2---2-------2---2---2------|
A|2---2--------------------------|2---2-----------2---2----------|
E|----------------2---2----------|0---0-----------0---0----------|


  A                               E
e|0------ 0------ 0------ 0------|0------ 0------ 0------ 0------|
B|2-------2-------2-------2------|0-------0-------0-------0------|
G|2-------2-------2-------2------|1-------1-------1-------1------|
D|2-------2-------2-------2------|2-------2-------2-------2------|
A|0-------0----------------------|-------------------------------|
E|----------------0-------0------|0---0---0-------0-------0------|
  member     to let her into your heart,         then you can start
  member     to let her into your heart,         then you can start
          Hey jude)
e|------- 0------ ------- 0------|------- 0---0-- ----0-- 0------|
B|--------2---------------2------|--------0---0-------0---0------|
G|2---2---2-------2---2---2---2--|--------1---1-------1---1------|
D|2---2---2-------2---2---2---2--|2---2---2---2---2---2---2------|
A|0---0---0-------0---0---0---0--|2---2-----------2--------------|
E|----------------0---0----------|0---0-----------0--------------|


  B                               E                           Emaj7
e|------- ------- ------- -------|0------ 0------ ------- 0------|
B|-------------------------------|0-------0---------------0---4--|
G|4-------4-------4-------4------|1-------1---------------1---1--|
D|4-------4-------4-------4------|2-------2---------------2---2--|
A|6-------6-------6-------6------|-------------------------------|
E|7---7---7-------7-------7------|0-------0---------------0---0--|
              to  make it     better
              to  make it     better)
e|2---2-- 2------ ------- 2------|0------ 0------ ------- 0------|
B|0---0---0-------0---0---0------|0-------0---------------0------|
G|2---2---2-------2---2---2------|1-------1-----------1---1---1--|
D|1---1---1-------1---1---1------|2-------2-----------2---2---2--|
A|2---2---2----------------------|2-------2-----------2-------2--|
E|----------------2---2----------|0-------0-----------0-------0--|


  E7                              A                   Amaj7
e|0------ 0------ 0------ 0------|0---0-- ----0-- ------- -------|
B|3-------3-------3-------3------|2---2-------2-------5---5------|
G|1-------1-------1-------1------|2---2-------2-------2---2------|
D|2-------2-------2-------2------|2---2-------2-------2---2------|
A|-------------------------------|0---0-------0------------------|
E|0-------0-------0-------0------|--------------------4---4---4--|
      So  let it out and  let it in,      hey Jude,       begin,
e|0------ 0---0-- 0---0-- 0------|0---0-- 0------ ------- -------|
B|3-------3---3---3---3---3------|2---2---2-------4---4---4------|
G|1-------1---1---1---1---1------|2---2---2-------6---6---6------|
D|2-------2---2---2---2---2------|2---2---2-------6---6---6------|
A|2-------2---2---2---2---2------|0---0---0-------4---4---4------|
E|0-------0---0---0---0---0------|----------------4---4---4------|


  F#m                     F#m7    B
e|------- ------- ------- -------|------- ------- ------- -------|
B|2---2-------2-----------2------|-------------------------------|
G|2---2-------2-----------2------|4---4---4---4---4---4---4---4--|
D|4---4-------4-----------4------|4---4---4---4---4---4---4---4--|
A|-------------------------------|6---6---6---6---6---6---2---2--|
E|2---2-------2-----------0------|7---7---7---7---7---7---2---2--|
          You're waiting for someone          to          perform
e|2---2-- 2------ 2---2-- 2------|2---2-- 2------ ------- 2------|
B|5---5---5-------5---5---5------|0---0---0---------------0------|
G|2---2---2-------2---2---2------|2---2---2-----2-2---2---2------|
D|4---4---4-------4---4---4------|1---1---1-----1-1---1---1------|
A|4---4---4-------4---4---4------|2---2---2-----2----------------|
E|2---2---2-------0---0---0------|----------------2---2----------|


  E                           E6  E7
e|0------ ----0-- 0---0-- 0---0--|0---0-- 0------ 0------ 0------|
B|0-----------0---0---0---0---4--|3---3---3-------3-------3------|
G|1-----------1---1---1---1---1--|1---1---1-------1-------1------|
D|2-----------2---2---2---2---2--|2---2---2-------2-------2------|
A|-------------------------------|-------------------------------|
E|0-----------0---0---0---0---0--|0---0---0-------0-------0------|
      with.                        And don't you know that it's just  you,
e|------- 0------ 0------ 0------|0------ 0------ ------- 0------|
B|--------0-------0-------0------|3-------3---------------3------|
G|--------1-------1-------1------|1-------1-------1---1---1------|
D|2---2---2-------2-------2------|2-------2-------2---2---2------|
A|2---2--------------------------|2-------2-------2---2---2------|
E|0---0--------------------------|0-------0-------0---0---0------|

e|------- ------- ------- -------|------- ------- ------- -------|
B|------------------------0---2--|3------------------------------|
G|--------------------1---1---2--|4------------------------------|
D|--------------------2----------|-------------------------------|
A|-------------------------------|-------------------------------|
E|-------------------------------|-------------------------------|


      A           Amaj7           F#m             F#m7
e|----0-- ----0-- ------- -------|------- ------- ------- -------|
B|----2-------2---5---5---5---5--|2---2---2---2---2-------2------|
G|----2-------2---2---2---2---2--|2---2---2---2---2-------2------|
D|----2-------2---2---2---2---2--|4---4---4---4---4-------4------|
A|----0-------0------------------|-------------------------------|
E|----------------4---4---4---4--|2---2---2---2---0-------0------|
          hey Jude,       you'll do,      The movement    you need
e|------- 0------ ------- -------|------- 2------ ------- 2------|
B|--------2---------------5------|--------5---------------5------|
G|2---2---2---------------6------|--------2---------------2------|
D|2---2---2-------6---6---6------|4---4---4-------4---4---4------|
A|0---0---0-------4---4---4------|4---4---4-------4---4---4------|
E|----------------4---4---4------|2---2---2-------0---0---0------|


  B                               E                           E6
e|------- ------- ------- -------|0------ 0---0-- 0---0-- 0---0--|
B|-------------------------------|0-------0---0---0---0---0---2--|
G|4-------4-------4---4-------4--|1-------1---1---1---1---1---1--|
D|4-------4-------4---4-------4--|2-------2---2---2---2---2---2--|
A|6-------6-------6---6-------2--|-------------------------------|
E|7-------7-------7---7-------2--|0-------0---0---0---0---0---0--|
          is on           your shoulder.
e|------- 2------ ------- 2---2--|0------ 0------ ------- 0---0--|
B|--------0---------------0---0--|0-------0---------------0---0--|
G|2---2---2-------2---2---2---2--|1-------1---------------1---1--|
D|1---1---1-------1---1---1---1--|2---2---2-------2---2---2---2--|
A|2---2--------------------------|2---2---2-------2---2----------|
E|----------------2---2----------|0---0---0-------0---0----------|

e|------- ------- ------- -------|------- ------- ------- -------|
B|-------------------------------|------------------------0---2--|
G|-------------------------------|--------------------1---1---2--|
D|-------------------------------|--------------------2----------|
A|-------------------------------|-------------------------------|
E|-------------------------------|-------------------------------|



  E7              B7  B11 B7                          B6
e|0------ 0------ ----0-- 2------|2------ ------- 2---4--|
B|3-------3-------4---0---0------|0---------------4---4--|
G|1-------1-------2---2---2------|2---------------4---4--|
D|2-------2-------1---1---1------|1---------------4---4--|
A|----------------2---2---2------|2-----------2---2---2--|
E|0-------0----------------------|-----------------------|
  Na      na      na  na  na      na
  Na      na      na  na  na      na)
e|0------ 0------ ------- -------|------- ------- -------|
B|0-------0-------0--------------|--------0-------0------|
G|1-------1-------2--------------|--------2-------2------|
D|2-------2-------1--------------|--------1-------1------|
A|2-------2-------2--------------|--------2-------2------|
E|0-------0----------------------|-----------------------|

e|------- ------- ------- -------|------- ------- -------|
B|3-------3-------4---5---7------|-----------------------|
G|4-------4-------4---6---8------|-----------------------|
D|-------------------------------|-----------------------|
A|-------------------------------|-----------------------|
E|-------------------------------|-----------------------|


              X   X  xX
  B7
e|5------ 5------ -------|
B|4-------4--------------|
G|2-------2--------------|
D|4-------4--------------|
A|2-------2--------------|
E|-----------------------|
                  Hey

  E                               B                       B5  B6
e|0------ 0------ 0------ 0------|------- ------- ------- -------|
B|0-------0-------0-------0------|-------------------------------|
G|1-------1-------1-------1------|4-------4-------4-------4------|
D|2-------2-------2-------2------|4-------4-------4-------4---6--|
A|-------------------------------|6-------6-------6-------2------|
E|0-------0-------0-------0------|7-------7-------7--------------|
 Jude,              don't make it bad.                     Take a
                   (don't make it bad.                     Take a
e|--0-0-- 0------ 0------ 0------|----2-- ------- ------- -------|
B|0-0-0---0-------0---0---0------|0---0-------------------0------|
G|1-1-1---1-------1---1---1------|2---2---2-------2---2---2------|
D|2-2-2---2---2---2---2---2------|1---1---1-------1---1---1------|
A|2-2-2---2---2---2---2---2------|2---2---2----------------------|
E|0-0-0---0---0---0---0---0------|----------------2---2----------|


  B7      B11                     E
e|------- 0------ 0------ 0------|0------ 0------ 0------ 0------|
B|0-------0-------0-------0------|0-------0-------0-------0------|
G|2-------2-------2-------2------|1-------1-------1-------1------|
D|1-------1-------1-------1------|2-------2-------2-------2------|
A|2-------2-------2-------2------|-------------------------------|
E|-------------------------------|0-------0-------0-------0------|
  sad     song        and make it better.                    Re..
  sad     song        and make it better.                    Re..
e|------- 2-----2 ------- 2------|------- 0------ ------- 0------|
B|--------0-----0---------0------|--------0---------------0------|
G|2---2---2-----2-2---2---2------|--------1---------------1------|
D|1---1---1-----1-1---1---1------|2-------2-------2---2---2------|
A|2---2---2-----2----------------|2-------2-------2---2---2------|
E|----------------2---2----------|0-------0-------0---0---0------|


  A                               E
e|0------ 0------ 0------ 0------|0------ 0------ 0------ 0------|
B|2-------2-------2-------2------|0-------0-------0-------0------|
G|2-------2-------2-------2------|1-------1-------1-------1------|
D|2-------2-------2-------2------|2-------2-------2-------2------|
A|0-------0-------0-------0------|-------------------------------|
E|-------------------------------|0-------0-------0-------0------|
  member     to let her under your skin,          Then you begin
  member     to let her under your skin,          Then you begin
e|------- 0------ ------- 0------|------- 0---0-- ------- 0------|
B|--------2---------------2------|--------0---0-----------0------|
G|2---2---2-------2---2---2------|--------1---1-----------1------|
D|2---2---2-------2---2---2------|2---2---2---2---2---2---2------|
A|0---0---0-------0---0---0------|2---2---2-------2---2---2------|
E|-------------------------------|0---0---0-------0---0---0------|


  B                               E
e|------- ------- ------- -------|0------ 0------ 0------ 0------|
B|-------------------------------|0-------0-------0-------0------|
G|4-------4-------4-------4------|1-------1-------1-------1------|
D|4-------4-------4-------4------|2-------2-------2-------2------|
A|6-------6-------6-------6------|-------------------------------|
E|7-------7-------7-------7------|0-------0-------0-------0------|
             to   make it    better       better  better  better
             to   make it    better       better  better  better
e|2---2-- 2------ ------- 2------|------- 0-----0 ------- 0------|
B|0---0---0---------------0------|--------0-----0---------0------|
G|2---2---2-------2---2---2---2--|--------1-----1---------1------|
D|1---1---1-------1---1---1---1--|2---2---2-----2-2-------2---2--|
A|2---2---2----------------------|2---2-----------2-----------2--|
E|----------------2---2-------2--|0---0-----------0-----------0--|

                          x

e|0------ 0------ 0------ -------|
B|0-------0-------0--------------|
G|1-------1-------1--------------|
D|2-------2-------2--------------|
A|-------------------------------|
E|0-------0-------0--------------|
  Better  better, Oh           Oh
  Better  better, Oh)
e|0------ 0------ 0------ -------|
B|0-------0-------0--------------|
G|1-------1-------1--------------|
D|2-------2-------2--------------|
A|2-------2-------2--------------|
E|0-------0-------0--------------|


    Coda


  E                               D
e|0------ 0------ 0------ 0------|0---0-- 0------ 0---0-- 0---0--|
B|0-------0-------0-------0------|3---3---3-------3---3---3---3--|
G|1-------1-------1-------1------|2---2---2-------2---2---2---2--|
D|2-------2-------2-------2------|0---0---0-------0---0---0---0--|
A|-------------------------------|-------------------------------|
E|0-------0-------0-------0------|-------------------------------|
  Yeah      yeah yeah yeah yeah yeah
 (Na              na      na      nanana  na
e|0------ 0---0-- 0---0-- 0---0--|2---2-- 2---2-- ------- 2---2--|
B|0-------0---0---0---0---0---0--|3---3---3---3-----------3---3--|
G|1-------1---1---1---1---1---1--|2---2---2---2-----------2---2--|
D|2-------2---2---2---2---2---2--|0---0---0---0-----------0---0--|
A|2-------2---2---2---2---2---2--|-------------------------------|
E|0-------0---0---0---0---0---0--|-------------------------------|


  A                               E
e|0---0-- 0---0-- 0---0-- 0---0--|0------ 0---0-- ------- 0---0--|
B|2---2---2---2---2---2---2---2--|0-------0---0-----------0---0--|
G|2---2---2---2---2---2---2---2--|1-------1---1-----------1---1--|
D|2---2---2---2---2---2---2---2--|2-------2---2-----------2---2--|
A|0---0---0---0---0---0---0---0--|-------------------------------|
E|-------------------------------|0-------0---0-----------0---0--|

  Nanana  na              Hey Jude)
e|0---0-- 0---0-- ----0-- 0---0-0|0---0-- 0-----0 0---0-- 0---0-0|
B|2---2---2---2-------2---2---2-2|0---0---0-----0-0---0---0---0-0|
G|2---2---2---2-------2---2---2-2|1---1---1-----1-1---1---1---1-1|
D|2---2---2---2-------2---2---2-2|2---2---2-----2-2---2---2---2-2|
A|0---0---0---0-------0---0---0-0|2---2---2-----2-2---2---2---2-2|
E|-------------------------------|-------------------------------|


                                  D
e|0---0-- 0---0-- 0------ 0------|0---0-- 0------ 0---0-- 0---0--|
B|0---0---0---0---0-------0------|3---3---3-------3---3---3---3--|
G|1---1---1---1---1-------1------|2---2---2-------2---2---2---2--|
D|2---2---2---2---2-------2------|0---0---0-------0---0---0---0--|
A|-------------------------------|-------------------------------|
E|0---0---0---0---0-------0------|-------------------------------|

 (Na              na      na      nanana  na
e|0---0-- 0---0-0 0---0-- 0---0-0|2---2-- 2---2-2 2------ 2---2-2|
B|0---0---0---0-0-0---0---0---0-0|3---3---3---3-3-3-------3---3-3|
G|1---1---1---1-1-1---1---1---1-1|2---2---2---2-2-2---2---2---2-2|
D|2---2---2---2-2-2---2---2---2-2|0---0---0---0-0-0---0---0---0-0|
A|2---2---2---2-2-2---2---2---2-2|-------------------------------|
E|0---0---0---0-0-0---0---0---0-0|-------------------------------|


  A                               E
e|0---0-- 0---0-- 0---0-- 0---0--|0---0-- 0---0-- 0---0-- 0---0--|
B|2---2---2---2---2---2---2---2--|0---0---0---0---0---0---0---0--|
G|2---2---2---2---2---2---2---2--|1---1---1---1---1---1---1---1--|
D|2---2---2---2---2---2---2---2--|2---2---2---2---2---2---2---2--|
A|0---0---0---0---0---0---0---0--|-------------------------------|
E|-------------------------------|0---0---0---0---0---0---0---0--|

  Nanana  na              Hey Jude)
e|0---0-- 0---0-- 0---0-- 0---0-0|------- 0-----0 --0---0 --0-0-0|
B|2---2---2---2---2---2---2---2-2|--------0-----0---0---0---0-0-0|
G|2---2---2---2---2---2---2---2-2|--------1-----1---1---1---1-1-1|
D|2---2---2---2---2---2---2---2-2|2---2---2-----2---2---2-2-2-2-2|
A|0---0---0---0---0---0---0---0-0|2---2---2-----2---2---2-2-2-2-2|
E|-------------------------------|0---0---0-----0---0---0-0-0-0-0| .........




        B  Bend
        R  Release
        /  Slide up
        \  Slide down
        H  Hammer-on
        P  Pull-off
        ~  Vibrato
        +  Harmonic
        x  Mute note
        .  Play note like a dot in standard notation
        ^  Ties two notes together
        (. Pause


----------
Revolution
----------

Intro :

-|-5/7-7-7-7-7-7-7-7-7-7-7-7----5/7-7-7-7-7-7-7-7-7-7-7-7----|
-|-5/7-7-7-7-7-7-7-7-7-7-7-7----5/7-7-7-7-7-7-7-7-7-7-7-7----|
-|-----------------------------------------------------------|
-|-----------------------------------------------------------|
-|-----------------------------------------------------------|
-|-----------------------------------------------------------|

-|-5/7-7-7-7-7-7-7-7-7-7-7-7--------------------------12-----|
-|-5/7-7-7-7-7-7-7-7-7-7-7-7----/10------10--12b(14)---------|
-|-----------------------------------11----------------------|
-|-----------------------------------------------------------|
-|-----------------------------------------------------------|
-|-----------------------------------------------------------|

Verse/Chorus Form:

     B                                    E
You say you want a revolution   well you know

                            B
We all want to change the world

     B                                     E
You tell me that it's evolution  well you know

                           F#
We all want to change the world

C#m                        F#
But when you talk about destruction

C#m                           A   B  G#   F#
Don't you know that you can count me out (in?)

                          B       E
Don't you know it's gonna be   Alright

                          B       E
Don't you know it's gonna be   Alright

                          B       E     F#7
Don't you know it's gonna be   Alright


Guitar Details During Verses:
Guitar 1 plays a standard rock & roll shuffle:

       B
-|-----------------------------------------------------------------|
-|-----------------------------------------------------------------|
-|-----------------------------------------------------------------|
-|-----------------------------------------------------------------|
-|-----9----9---9h11--9--9-----9h11--9--9--9h11--9--9--9h11--9--9--|
-|-----7----7---7-----7--7-----7-----7--7--7-----7--7--7-----7--7--|
   You say you want   a  rev   o     lu    ti  on      well     you

       E
-|-----------------------------------------------------------------|
-|-----------------------------------------------------------------|
-|-----------------------------------------------------------------|
-|-----9----9---9h11--9--9-----9h11--9--9--9h11--9--9--9h11--9--9--|
-|-----7----7---7-----7--7-----7-----7--7--7-----7--7--7-----7--7--|
-|-----------------------------------------------------------------|
      know                                 we  all want to change the...

.. and so on, while Guitar 2 plays something along these lines:
       B
-|-------------------------------------------------------|
-|-------------4----4------4----4---4----4---4----4------|
-|-------------4----4------4----4---4----4---4----4------|
-|-------------4h6--4------4h6--4---4h6--4---4h6--4------|
-|-------------------------------------------------------|
-|-------------------------------------------------------|
   You say you want a rev o lu     tion      well you

       E
-|-------------------------------------------------------|
-|-----9-----9---9-----9---9-----9-------9-----9---------|
-|-----9-----9---9-----9---9-----9-------9-----9---------|
-|-----9h11--9---9h11--9---9h11--9-------9h11--9---------|
-|-------------------------------------------------------|
-|-------------------------------------------------------|
   know                  we all want to change the...


Guitar 2 plays this figure during the "chorus":

                 B             E
-|-------------------------------------------------------11--------------|
-|-------------------4----4---------------------------9--12--12-----12---|
-|-------------------4----4------------------9--9h11---------11h13--11---|
-|-------------------4h6--4---------9--9h11------------------------------|
-|-----------------------------------------------------------------------|
-|-----------------------------------------------------------------------|
  ... it's gonna be         alright

.. repeated a few times, and then the following turnaround:

    F#7
-|-----------------------------------------------------------|
-|-----------------------------------------------------------|
-|-----------------------------------------------------------|
-|-------------2----------4----------2-----------------------|
-|--------2h4--------2h4--------2h4-------------2------------|
-|--2--2----------2----------2----------2--2h4---------------|


Now, over the A B G# chords in the last verse, the lead guitar
plays a screaming figure based on this:

-|-----------14----|
-|--14b(16)--------|
-|-----------------|
-|-----------------|
-|-----------------|
-|-----------------|

And over the B & E chords the final time around, the lead guitar
is rapidly picking in rhythm with the words:

-|--9--------------|
-|--12b(14)--------|
-|-----------------|
-|-----------------|
-|-----------------|
-|-----------------|

.. up until the climactic end.

-|-------------10--9---|
-|--b(10)9--7--10--9---|
-|-------------11--10--|
-|-------------12--11--|
-|-------------12--11--|
-|-------------10--9---|

==============================


Intro is something like

 (keep sliding up to this A chord for awhile)
E------ ....  ------|
B--\9-- ....  --12^-|
G--\10= ....  ------|


whole chord ring out:
 A                       (ring)        D            A     (ring)
-----------     -------------------------------     -------------------|
-----------     ---------2-----------2-3-3-3---     ---------2-------2-|
----------- ... ---------2-----------2-2-2-2h4- ... ---------2-------2-| ...
-2-2-2h4-2-     -2-2-2h4-2-----2-2h4---0-0-0---     -2-2-2h4-2-2-2h4---|
-0-0-0---0-     -0-0-0---------0-0-------------     -0-0-0-----0-0-----|
-----------     -------------------------------     -------------------|

anyways, it eventually makes it to E with the same kind of pattern... most
of the funny business is stuff with the A where you do the 2(hammer)4 on
other strings [a few right in a row], and a 0h4 on the open string, usually
ending with a strum of the A chord...  so...
    A                                   D
You say you want a Revolution, well you know
                          A
We all want to change the world
                                          D
You tell me that it's evolution, well you know
                          E(7?)
We all want to change the world

Bm                           E
  but when you talk about destruction
Bm                            G     A  F#   E
  don't you know that you can count me out


(much more funny business with the notes on the 4th fret in this part:)
                            A     D         A...
  don't you know it's gonna be... alright...

and...

D---------0---------2-|
A-----0h2-----2-2h4---|  (x2)...
E-0-0-----------------|

You say you got a real solution, well you know
We'd all love to see the plan
You ask me for a contribution, well you know
We're all doing what we can...

But if you want money for minds that hate
All I can tell you is brother you have to wait
Don't you know it's gonna be...

You say you'll change the constitution, well you know
We all want to change your head
You tell me it's the institution, well you know
You better free your mind instead

But if you go carrying pictures of Chairman Mao
You ain't gonna make it with anyone anyhow...
Don't you know it's gonna be...
comments
print report bad tab
2 comments total.
0 reply
AK-47 wrote on September 13 2006, 06:15 pm

Wow, this must have takne a long time to copy down! Good job though.

-1 reply
Steve-O~32 wrote on August 22 2007, 11:02 am

yea..way to steal others works...

I want to post or [tab]
guest
You may want to rate the tab now too:
select rating
Please do not post tabs as comments. Select "correction" instead!