Oops, an error
Loading. Please wait.

A Hard Days Night Tab

ver2
ver2

Album

Solo

Interactive

Video

More versions @911Tabs.com
80,595 views 67 this week
1 commentread comment
1 2 3 4 5
accurate
x 6
Autoscroll
+/-
esc
set tempo
stop
Contributor
Hey! There's an official Ultimate Guitar app which is ideal
for learning songs when you're away from computer. Get the app
WARNING: You are trying to view
                                    content from Ultimate-Guitar.com
                                    in an unauthorized application,
                                    which is prohibited.

                                    Please use an official Ultimate
                                    Guitar Tabs application for iPhone,
                                    iPad or Android to access legitimate
                                    chords, guitar, bass, and drum tabs
                                    from Ultimate-Guitar.com database.

                                    Type "ultimate guitar tabs" in Apple
                                    App Store's or Android Market's
                                    search to find the application.
                    A HARD DAY'S NIGHT ALBUM

            1  A HARD DAY'S NIGHT
            2  I SHOULD HAVE KNOWN BETTER
            3  IF I FELL
            4  I'M HAPPY JUST TO DANCE WITH YOU
            5  AND I LOVE HER
            6  TELL ME WHY
            7  CAN'T BUY ME LOVE
            8  ANY TIME AT ALL
            9  I'LL CRY INSTEAD
           10  THINGS WE SAID TODAY
           11  WHEN I GET HOME
           12  YOU CAN'T DO THAT
           13  I'LL BE BACK

  -----------------------------------------------------------------

  THE BEATLES - A HARD DAY'S NIGHT (Lennon & McCartney) From A HARD
                DAY'S NIGHT album, Released March 20th 1964.

  -----------------------------------------------------------------

  Tabbed by:PJVillanueva


  It's been a hard day's night,
  and I been working like a dog
  It's been a hard day's night,
  I should be sleeping like a log
  But when I get home to you
  I'll find the things that you do
  Will make me feel alright

  You know I work all day
  to get you money to buy you things
  And it's worth it just to hear you say
  you're going to give me everything
  So why on earth should I moan,
 'cause when I get you alone
  You know I feel ok

  When I'm home everything seems to be right
  When I'm home feeling you holding me tight, tight, yeah

  It's been a hard day's night,
  and I been working like a dog
  It's been a hard day's night,
  I should be sleeping like a log
  But when I get home to you
  I'll find the things that you do
  Will make me feel alright

  Owwww

  So why on earth should I moan, 'cause when I get you alone
  You know I feel ok

  When I'm home everything seems to be right
  When I'm home feeling you holding me tight, tight, yeah

  It's been a hard day's night
  and I been working like a dog
  It's been a hard day's night,
  I should be sleeping like a log
  But when I get home to you
  I'll find the things that you do
  Will make me feel alright

  You know I feel alright
  You know I feel alright...


      e|3--
      B|1--
      G|2--
      D|0--
      A|0--
      E|---


  These are the notes I hear in the opening chord.
  I think this chord could have the following names, but only D will
  match as a dominant (V) to the tonic (I) of the song G.


        D7sus4               Gadd9sus4 (no 3rd)     F6/9 (no tonic)

      e|3--- 4th               e|3-- Tonic            e|3--| 9th
      B|1--- b7th              B|1-- 4th              B|1--| 5th
      G|2--- 5th               G|2-- 9th              G|2--| 3rd
      D|0--- Tonic             D|0-- 5th              D|0--| 6th
      A|0--- 5th               A|0-- 9th              A|0--| 3rd
      E|----                   E|---                  E|---|


 (.

  D7sus4
e|3------ ------- ------- -------|------- ------- ------- -------|
B|1------------------------------|-------------------------------|
G|2------------------------------|-------------------------------|
D|0------------------------------|-------------------------------|
A|0------------------------------|-------------------------------|
E|-------------------------------|-------------------------------|
                                                      It's    a
                                                          been
  G               C           G
e|3------ 3------ 3---3-- 3---3--|3------ 3------ 3---3-- 3---3--|
B|3-------3-------1---1---1---3--|3-------3-------3---3---3---3--|
G|0-------0-------0---0---0---0--|0-------0-------0---0---0---0--|
D|0-------0-------2---2---2---0--|0-------0-------0---0---0---0--|
A|2-------2-------3---3---3---2--|2-------2-------2---2---2---2--|
E|3-------3-------------------3--|3-------3-------3---3---3---3--|

e|------- 3------ ----3-- ----3--|----3-- 3------ 3------ 3------|
B|--------3-----------0-------3--|----3---3-------3-------3------|
G|--------0-----------0-------0--|----0---0-------0-------0------|
D|-------------------------------|-------------------------------|
A|-------------------------------|-------------------------------|
E|-------------------------------|-------------------------------|
  hard            day's       night                   and I've
                                                              been


  F9                              G
e|3------ 3------ 3---3-- 3---3--|3------ 3------ 3---3-- 3---3--|
B|1-------1-------1---1---1---1--|3-------3-------3---3---3---3--|
G|2-------2-------2---2---2---2--|0-------0-------0---0---0---0--|
D|1-------1-------1---1---1---1--|0-------0-------0---0---0---0--|
A|3-------3-------3---3---3---3--|2-------2-------2---2---2---2--|
E|1-------1-------1---1---1---1--|3-------3-------3---3---3---3--|

e|1------ 1------ ----1-- ----1--|3---3-- ----3-- ----3-- ----3--|
B|1-------1-----------1-------1--|3---3-------3-------3-------3--|
G|2-------2-----------2-------2--|0---0-------0-------0-------0--|
D|-------------------------------|-------------------------------|
A|-------------------------------|-------------------------------|
E|-------------------------------|-------------------------------|
  working             like    dog                     It's    a
                          a                               been


  G               C           G
e|3------ 3------ 3---3-- 3---3--|3------ 3------ 3---3-- 3---3--|
B|3-------3-------1---1---1---3--|3-------3-------3---3---3---3--|
G|0-------0-------0---0---0---0--|0-------0-------0---0---0---0--|
D|0-------0-------2---2---2---0--|0-------0-------0---0---0---0--|
A|2-------2-------3---3---3---2--|2-------2-------2---2---2---2--|
E|3-------3-------------------3--|3-------3-------3---3---3---3--|

e|3------ 3------ ----3-- ----3--|------- 3------ 3---3-- 3------|
B|0-------0-----------0-------3--|--------3-------3---3---3------|
G|0-------0-----------0-------0--|--------0-------0---0---0------|
D|-------------------------------|-------------------------------|
A|-------------------------------|-------------------------------|
E|-------------------------------|-------------------------------|
  hard            day's       night                   I   should
                                                              be


  F9                              G
e|3------ 3------ 3---3-- 3---3--|3------ 3------ 3---3-- 3---3--|
B|1-------1-------1---1---1---1--|3-------3-------3---3---3---3--|
G|2-------2-------2---2---2---2--|0-------0-------0---0---0---0--|
D|1-------1-------1---1---1---1--|0-------0-------0---0---0---0--|
A|3-------3-------3---3---3---3--|2-------2-------2---2---2---2--|
E|1-------1-------1---1---1---1--|3-------3-------3---3---3---3--|

e|1------ ----1-- ----1-- ----1--|3---3-- ----3-- ----3-- ----3--|
B|1-----------1-------1-------1--|3---3-------3-------3-------3--|
G|2-----------2-------2-------2--|0---0-------0-------0-------0--|
D|-------------------------------|-------------------------------|
A|-------------------------------|-------------------------------|
E|-------------------------------|-------------------------------|
  sleeping            like    log                     But when
                          a                                   I


  C                               D
e|0------ 0------ 0---0-- 0---0--|2------ 2------ 2---2-- 2---2--|
B|1-------1-------1---1---1---1--|3-------3-------3---3---3---3--|
G|0-------0-------0---0---0---0--|2-------2-------2---2---2---2--|
D|2-------2-------2---2---2---2--|0-------0-------0---0---0---0--|
A|3-------3-------3---3---3---3--|-------------------------------|
E|3-------3-------3---3---3---3--|-------------------------------|

e|------- ----0-- ----0-- ----0--|------- ----2-- ----2-- ----2--|
B|------------1-------1-------1--|------------3-------3-------3--|
G|------------0-------0-------0--|------------2-------2-------2--|
D|-------------------------------|-------------------------------|
A|-------------------------------|-------------------------------|
E|-------------------------------|-------------------------------|
  get home    you     I'll    the things  you do      will    me
          to              find        that               make


  G               C           G
e|3------ 3------ 3---3-- 3---3--|3------ 3---3-- ----3-- 3---3--|
B|3-------3-------1---1---1---3--|3-------3---3-------3---3---3--|
G|0-------0-------0---0---0---0--|0-------0---2-------2---2---2--|
D|0-------0-------2---2---2---0--|0-------0---0-------0---0---0--|
A|2-------2-------3---3---3---2--|2-------2----------------------|
E|3-------3-------------------3--|3-------3----------------------|

e|------- ----3-- ----3-- ----3--|----3-- ----3-- ----3-- ----3--|
B|------------3-------3-------3--|----3-------3-------3-------3--|
G|------------0-------0-------0--|----0-------0-------0-------0--|
D|-------------------------------|-------------------------------|
A|-------------------------------|-------------------------------|
E|-------------------------------|-------------------------------|
  feel            allright                            You know
                                                              I


  G               C           G
e|3------ 3------ 3---3-- 3---3--|3------ 3------ 3---3-- 3---3--|
B|3-------3-------1---1---1---3--|3-------3-------3---3---3---3--|
G|0-------0-------0---0---0---0--|0-------0-------0---0---0---0--|
D|0-------0-------2---2---2---0--|0-------0-------0---0---0---0--|
A|2-------2-------3---3---3---2--|2-------2-------2---2---2---2--|
E|3-------3-------------------3--|3-------3-------3---3---3---3--|

e|3------ 3------ ----3-- ----3--|----3-- ----3-- ----3-- ----3--|
B|3-------3-----------3-------3--|----3-------3-------3-------3--|
G|0-------0-----------0-------0--|----0-------0-------0-------0--|
D|-------------------------------|-------------------------------|
A|-------------------------------|-------------------------------|
E|-------------------------------|-------------------------------|
  work            all         day                     to  get you

  F9                              G
e|3------ 3------ 3---3-- 3---3--|3------ 3------ 3---3-- 3---3--|
B|1-------1-------1---1---1---1--|3-------3-------3---3---3---3--|
G|2-------2-------2---2---2---2--|0-------0-------0---0---0---0--|
D|1-------1-------1---1---1---1--|0-------0-------0---0---0---0--|
A|3-------3-------3---3---3---3--|2-------2-------2---2---2---2--|
E|1-------1-------1---1---1---1--|3-------3-------3---3---3---3--|

e|1------ 1------ ----1-- ----1--|3------ 3---3-- ----3-- ----3--|
B|1-------1-----------1-------1--|3-------3---3-------3-------3--|
G|2-------2-----------2-------2--|0-------0---0-------0-------0--|
D|-------------------------------|-------------------------------|
A|-------------------------------|-------------------------------|
E|-------------------------------|-------------------------------|
  money               to  buy you things                  and it's

  G               C           G
e|3------ 3------ 3---3-- 3---3--|3------ 3------ 3---3-- 3---3--|
B|3-------3-------1---1---1---3--|3-------3-------3---3---3---3--|
G|0-------0-------0---0---0---0--|0-------0-------0---0---0---0--|
D|0-------0-------2---2---2---0--|0-------0-------0---0---0---0--|
A|2-------2-------3---3---3---2--|2-------2-------2---2---2---2--|
E|3-------3-------------------3--|3-------3-------3---3---3---3--|

e|3------ 3------ 3---3-- ----3--|------- 3------ 3------ 3------|
B|3-------3-------3---3-------3--|--------3-------3-------3------|
G|0-------0-------0---0-------0--|--------0-------0-------0------|
D|-------------------------------|-------------------------------|
A|-------------------------------|-------------------------------|
E|-------------------------------|-------------------------------|
  worth  just to  hear        say                     you're
      it              you                                 gonna


  F9                              G
e|3------ 3------ 3---3-- 3---3--|3------ 3------ 3---3-- 3---3--|
B|1-------1-------1---1---1---1--|3-------3-------3---3---3---3--|
G|2-------2-------2---2---2---2--|0-------0-------0---0---0---0--|
D|1-------1-------1---1---1---1--|0-------0-------0---0---0---0--|
A|3-------3-------3---3---3---3--|2-------2-------2---2---2---2--|
E|1-------1-------1---1---1---1--|3-------3-------3---3---3---3--|

e|1------ 1------ ----1-- ----3--|3---3-- 3---3-- ----3-- 3------|
B|1-------1-----------1-------3--|3---3---3---3-------3---3------|
G|2-------2-----------2-------0--|0---0---0---0-------0---0------|
D|-------------------------------|-------------------------------|
A|-------------------------------|-------------------------------|
E|-------------------------------|-------------------------------|
  give                everything                      So  why on
      me


  C                               D
e|0------ 0------ 0---0-- 0---0--|2------ 2------ 2---2-- 2---2--|
B|1-------1-------1---1---1---1--|3-------3-------3---3---3---3--|
G|0-------0-------0---0---0---0--|2-------2-------2---2---2---2--|
D|2-------2-------2---2---2---2--|0-------0-------0---0---0---0--|
A|3-------3-------3---3---3---3--|-------------------------------|
E|3-------3-------3---3---3---3--|-------------------------------|


e|0------ 0---0-- ----0-- ----0--|2------ ----2-- ----2-- ----2--|
B|1-------1---1-------1-------1--|3-----------3-------3-------3--|
G|0-------0---0-------0-------0--|2-----------2-------2-------2--|
D|-------------------------------|-------------------------------|
A|-------------------------------|-------------------------------|
E|-------------------------------|-------------------------------|
  earth   I   moan   'cause   I   get you alone       you know
      should              when                                I


  G               C           G
e|3------ 3------ 3---3-- 3---3--|3------ 3------ 3---3-- 3---3--|
B|3-------3-------1---1---1---3--|3-------3-------3---3---3---3--|
G|0-------0-------0---0---0---0--|0-------0-------0---0---0---0--|
D|0-------0-------2---2---2---0--|0-------0-------0---0---0---0--|
A|2-------2-------3---3---3---2--|2-------2-------2---2---2---2--|
E|3-------3-------------------3--|3-------3-------3---3---3---3--|

e|------- 3------ ----3-- ----3--|----3-- ----3-- ----3-- ----2--|
B|--------3-----------3-------3--|----3-------3-------3-------3--|
G|--------0-----------0-------0--|----0-------0-------0-------4--|
D|-------------------------------|-------------------------------|
A|-------------------------------|-------------------------------|
E|-------------------------------|-------------------------------|
  feel            O.          K.                  When        home
                                                      I'm


  Bm                          Em
e|2------ 2---2-- 2---2-- 2---0--|0------ 0------ 0---0-- 0---0--|
B|3-------3---3---3---3---3---0--|0-------0-------0---0---0---0--|
G|4-------4---4---4---4---4---0--|0-------0-------0---0---0---0--|
D|4-------4---4---4---4---4------|2-------2-------2---2---2---2--|
A|2-------2---2---2---2---2------|2-------2-------2---2---2---2--|
E|-------------------------------|0-------0-------0---0---0---0--|

e|------- ----2-- ----2-- ----0--|------- ----0-- ----0-- ----0--|
B|------------3-------3-------0--|------------0-------0-------0--|
G|------------4-------4-------0--|------------0-------0-------0--|
D|-------------------------------|-------------------------------|
A|-------------------------------|-------------------------------|
E|-------------------------------|-------------------------------|
                                  everything  seems   to  be  right

  Bm
e|2------ 2------ 2---2-- 2---2--|2------ 2------ 2---2-- 2---3--|
B|3-------3-------3---3---3---3--|3-------3-------3---3---3---3--|
G|4-------4-------4---4---4---4--|4-------4-------4---4---4---0--|
D|4-------4-------4---4---4---4--|4-------4-------4---4---4---0--|
A|2-------2-------2---2---2---2--|2-------2-------2---2---2---2--|
E|-------------------------------|----------------------------3--|

e|2------ 2---2-- ----2-- ----2--|------- 2------ ----2-- ----2--|
B|3-------3---3-------3-------3--|--------3-----------3-------3--|
G|4-------4---4-------4-------4--|--------4-----------4-------4--|
D|-------------------------------|-------------------------------|
A|-------------------------------|-------------------------------|
E|-------------------------------|-------------------------------|
                                                  When        home
                                                      I'm


  G                           Em
e|3------ 3------ 3---3-- 3---0--|0------ 0------ 0---0-- 0---0--|
B|3-------3-------3---3---3---0--|0-------0-------0---0---0---0--|
G|0-------0-------0---0---0---0--|0-------0-------0---0---0---0--|
D|0-------0-------0---0---0---2--|2-------2-------2---2---2---2--|
A|2-------2-------2---2---2---2--|2-------2-------2---2---2---2--|
E|3-------3-------3---3---3---0--|0-------0-------0---0---0---0--|

e|3------ 3---3-- ----3-- ---0---|----0-- ----0-- ----0-- ----0--|
B|3-------3---3-------3------0---|----0-------0-------0-------0--|
G|0-------0---0-------0------0---|----0-------0-------0-------0--|
D|-------------------------------|-------------------------------|
A|-------------------------------|-------------------------------|
E|-------------------------------|-------------------------------|
                                  feeling you holding     me


  C                               D
e|0------ 0------ 0---0-- 0------|2------ 2------ 2---2-- 2---2--|
B|1-------1-------1---1---1------|3-------3-------3---3---3---3--|
G|0-------0-------0---0---0------|2-------2-------2---2---2---2--|
D|2-------2-------2---2---2------|0-------0-------0---0---0---0--|
A|3-------3-------3---3---3------|-------------------------------|
E|3-------3-------3---3---3------|-------------------------------|

e|------- ------- ------- -------|------- ------- ------- -------|
B|1-----------1-------1-------1--|----3-------3-------3-------3--|
G|3-----------3-------3-------3--|----5-------5-------5-------5--|
D|2-----------2-------2-------2--|----4-------4-------4-------4--|
A|3------------------------------|-------------------------------|
E|-------------------------------|-------------------------------|
  tight                       tight,          yeah    It's    a
                                                          been


  G               C           G
e|3------ 3------ 3---3-- 3---3--|3------ 3------ 3---3-- 3---3--|
B|3-------3-------1---1---1---3--|3-------3-------3---3---3---3--|
G|0-------0-------0---0---0---0--|0-------0-------0---0---0---0--|
D|0-------0-------2---2---2---0--|0-------0-------0---0---0---0--|
A|2-------2-------3---3---3---2--|2-------2-------2---2---2---2--|
E|3-------3-------------------3--|3-------3-------3---3---3---3--|

e|3------ 3------ ----3-- ----3--|3---3-- ----3-- ----3-- ----3--|
B|3-------3-----------3-------3--|3---3-------3-------3-------3--|
G|0-------0-----------0-------0--|0---0-------0-------0-------0--|
D|-------------------------------|-------------------------------|
A|-------------------------------|-------------------------------|
E|-------------------------------|-------------------------------|
  hard            day's       night                   and I've
                                                              been


  F9                              G
e|3------ 3------ 3---3-- 3---3--|3------ 3------ 3---3-- 3---3--|
B|1-------1-------1---1---1---1--|3-------3-------3---3---3---3--|
G|2-------2-------2---2---2---2--|0-------0-------0---0---0---0--|
D|1-------1-------1---1---1---1--|0-------0-------0---0---0---0--|
A|3-------3-------3---3---3---3--|2-------2-------2---2---2---2--|
E|1-------1-------1---1---1---1--|3-------3-------3---3---3---3--|

e|1------ ----1-- ----1-- ----1--|3---3-- ----3-- ----3-- ----3--|
B|1-----------1-------1-------1--|3---3-------3-------3-------3--|
G|2-----------2-------2-------2--|0---0-------0-------0-------0--|
D|-------------------------------|-------------------------------|
A|-------------------------------|-------------------------------|
E|-------------------------------|-------------------------------|
  working             like    dog                     It's    a
                          a                               been

  G               C               G
e|3------ 3------ 3---3-- 3---3--|3------ 3------ 3---3-- 3---3--|
B|3-------3-------1---1---1---1--|3-------3-------3---3---3---3--|
G|0-------0-------0---0---0---0--|0-------0-------0---0---0---0--|
D|0-------0-------2---2---2---2--|0-------0-------0---0---0---0--|
A|2-------2-------3---3---3---3--|2-------2-------2---2---2---2--|
E|3-------3----------------------|3-------3-------3---3---3---3--|

e|------- 3---3-- ----3-- ----3--|----3-- 3------ ----3-- ----3--|
B|--------3---3-------3-------3--|----3---3-----------3-------3--|
G|--------0---0-------0-------0--|----0---0-----------0-------0--|
D|-------------------------------|-------------------------------|
A|-------------------------------|-------------------------------|
E|-------------------------------|-------------------------------|
  hard            day's       night                   I   should
                                                              be

  F9                              G
e|3------ 3------ 3---3-- 3---3--|3------ 3------ 3---3-- 3---3--|
B|1-------1-------1---1---1---1--|3-------3-------3---3---3---3--|
G|2-------2-------2---2---2---2--|0-------0-------0---0---0---0--|
D|1-------1-------1---1---1---1--|0-------0-------0---0---0---0--|
A|3-------3-------3---3---3---3--|2-------2-------2---2---2---2--|
E|1-------1-------1---1---1---1--|3-------3-------3---3---3---3--|

e|1------ 1---1-- ----1-- ----1--|3---3-- ----3-- ----3-- ----3--|
B|1-------1---1-------1-------1--|3---3-------3-------3-------3--|
G|2-------2---2-------2-------2--|0---0-------0-------0-------0--|
D|-------------------------------|-------------------------------|
A|-------------------------------|-------------------------------|
E|-------------------------------|-------------------------------|
  sleeping            like    log                     But when
                          a                                   I


  C                               D
e|0------ 0------ 0---0-- 0---0--|2------ 2------ 2---2-- 2---3--|
B|1-------1-------1---1---1---1--|3-------3-------3---3---3---3--|
G|0-------0-------0---0---0---0--|2-------2-------2---2---2---0--|
D|2-------2-------2---2---2---2--|0-------0-------0---0---0---0--|
A|3-------3-------3---3---3---3--|-------------------------------|
E|3-------3-------3---3---3---3--|-------------------------------|

e|----0-- ----0-- ------- 0------|2------ ----2-- ----2-- ----3--|
B|----1-------1-----------1------|3-----------3-------3-------3--|
G|----0-------0-----------0------|2-----------2-------2-------0--|
D|-------------------------------|-------------------------------|
A|-------------------------------|-------------------------------|
E|-------------------------------|-------------------------------|
  get home    you     I'll    the things  you do      will    me
          to              find        that                make


  G               C           G
e|3------ 3------ 3---3-- 3---3--|3------ 3------ 3---3-- 3---3--|
B|3-------3-------1---1---1---3--|3-------3-------3---3---3---3--|
G|0-------0-------0---0---0---0--|0-------0-------0---0---0---0--|
D|0-------0-------2---2---2---0--|0-------0-------0---0---0---0--|
A|2-------2-------3---3---3---2--|2-------2-------2---2---2---2--|
E|3-------3-------------------3--|3-------3-------3---3---3---3--|

e|------- 3------ 3---3-- ----3--|----3-- ----3-- ----3-- 3---3--|
B|--------0-------1---1-------0--|----3-------3-------3---3---3--|
G|--------0-------0---0-------0--|----0-------0-------0---0---0--|
D|-------------------------------|-------------------------------|
A|-------------------------------|-------------------------------|
E|-------------------------------|-------------------------------|
  feel            allright

  SOLO
  G               C               G
e|------- ------- ------- -------|------- ------- ------- -------|
B|-------------------------------|-------------------------------|
G|-------------------------------|-------------------------------|
D|-------------------------------|-------------------------------|
A|----------------1---3---1--3/5-|-------------------------------|
E|3-----------3------------------|-------------------------------|

e|------- ------- ------- -------|------- ------- ------- -------|
B|----------------11-13---1113/15|-------------------------------|
G|12----------12-----------------|-------------------------------|
D|-------------------------------|-------------------------------|
A|-------------------------------|-------------------------------|
E|-------------------------------|-------------------------------|

  F9                              G
e|------- ------- ------- -------|------- ------- ------- -------|
B|-------------------------------|-------------------------------|
G|-------------------------------|-------------------------------|
D|--0H3---0H3---0H3---0H3--------|-------------------------------|
A|3-----3-----3-----3-----3P1----|-------------------------------|
E|----------------------------3--|3------------------------------|

e|--1013--1013--1013- 1013 ------|------- ------- ------- -------|
B|13----13----13----13----1311---|-------------------------------|
G|----------------------------12-|12-----------------------------|
D|-------------------------------|-------------------------------|
A|-------------------------------|-------------------------------|
E|-------------------------------|-------------------------------|

  G               C               G
e|------- ------- ------- -------|------- ------- ------- -------|
B|-------------------------------|-------------------------------|
G|-------------------------------|-------------------------------|
D|-------------------------------|-------------------------------|
A|----------------1---3---1--3/5-|-------------------------------|
E|3-----------3------------------|-------------------------------|

e|------- ------- ------- -------|------- ------- ------- -------|
B|----------------11-13---1113/15|-------------------------------|
G|12----------12-----------------|-------------------------------|
D|-------------------------------|-------------------------------|
A|-------------------------------|-------------------------------|
E|-------------------------------|-------------------------------|

  F9                              G
e|------- ------- ------- -------|------- ------- ------- -------|
B|-------------------------------|-------------------------------|
G|-------------------------------|-------------------------------|
D|--0H3---0H3---0H3---0H3--------|-------------------------------|
A|3-----3-----3-----3-----3P1----|------------------------0---2--|
E|----------------------------3--|3-------------------3----------|
                                                      So  why on
e|--1013--1013--1013- 1013 ------|------- ------- ------- -------|
B|13----13----13----13----1311---|-------------------------------|
G|----------------------------12-|12-----------------------------|
D|-------------------------------|-------------------------------|
A|-------------------------------|-------------------------------|
E|-------------------------------|-------------------------------|

  C                               D
e|0------ 0------ 0---0-- 0---0--|2------ 2------ 2---2-- 2---3--|
B|1-------1-------1---1---1---1--|3-------3-------3---3---3---3--|
G|0-------0-------0---0---0---0--|2-------2-------2---2---2---0--|
D|2-------2-------2---2---2---2--|0-------0-------0---0---0---0--|
A|3-------3-------3---3---3---3--|-------------------------------|
E|3-------3-------3---3---3---3--|-------------------------------|

e|------- ----0-- ----0-- ----0--|------- ----2-- ----2-- ----2--|
B|------------1-------1-------1--|------------3-------3-------3--|
G|------------0-------0-------0--|------------2-------2-------2--|
D|-------------------------------|-------------------------------|
A|3------------------------------|-------------------------------|
E|-------------------------------|-------------------------------|
  earth   I   moan   'cause   I   get you alone       you know
      should              when                                I


  G               C           G
e|3------ 3------ 3---3-- 3---3--|3------ 3------ 3---3-- 3---3--|
B|3-------3-------1---1---1---3--|3-------3-------3---3---3---3--|
G|0-------0-------0---0---0---0--|0-------0-------0---0---0---0--|
D|0-------0-------2---2---2---0--|0-------0-------0---0---0---0--|
A|2-------2-------3---3---3---2--|2-------2-------2---2---2---2--|
E|3-------3-------------------3--|3-------3-------3---3---3---3--|

e|3------ 3------ ----3-- ----3--|----3-- ----3-- ----3-- ----2--|
B|3-------3-----------1-------3--|----3-------3-------3-------3--|
G|0-------0-----------0-------0--|----0-------0-------0-------4--|
D|-------------------------------|-------------------------------|
A|-------------------------------|-------------------------------|
E|-------------------------------|-------------------------------|
  feel            O.          K.                  When        home
                                                      I'm


  Bm                          Em
e|2------ 2---2-- 2---2-- 2---0--|0------ 0------ 0---0-- 0---0--|
B|3-------3---3---3---3---3---0--|0-------0-------0---0---0---0--|
G|4-------4---4---4---4---4---0--|0-------0-------0---0---0---0--|
D|4-------4---4---4---4---4------|2-------2-------2---2---2---2--|
A|2-------2---2---2---2---2------|2-------2-------2---2---2---2--|
E|-------------------------------|0-------0-------0---0---0---0--|

e|------- 2---2-- ----2-- ----0--|------- 0---0-- ----0-- ----2--|
B|--------3---3-------3-------0--|--------0---0-------0-------3--|
G|--------4---4-------4-------0--|--------0---0-------0-------4--|
D|-------------------------------|-------------------------------|
A|-------------------------------|-------------------------------|
E|-------------------------------|-------------------------------|
                                  everything  seems   to  be  right

  Bm
e|2------ 2------ 2---2-- 2---2--|2------ 2------ 2---2-- 2---3--|
B|3-------3-------3---3---3---3--|3-------3-------3---3---3---3--|
G|4-------4-------4---4---4---4--|4-------4-------4---4---4---0--|
D|4-------4-------4---4---4---4--|4-------4-------4---4---4---0--|
A|2-------2-------2---2---2---2--|2-------2-------2---2---2---2--|
E|-------------------------------|----------------------------3--|

e|------- 2---2-- ----2-- ----2--|------- 2---2-- ----2-- ----2--|
B|--------3---3-------3-------3--|--------3---3-------3-------3--|
G|--------4---4-------4-------4--|--------4---4-------4-------4--|
D|-------------------------------|-------------------------------|
A|-------------------------------|-------------------------------|
E|-------------------------------|-------------------------------|
                                                  When        home
                                                      I'm


  G                           Em
e|3------ 3------ 3---3-- 3---0--|0------ 0------ 0---0-- 0---0--|
B|3-------3-------3---3---3---0--|0-------0-------0---0---0---0--|
G|0-------0-------0---0---0---0--|0-------0-------0---0---0---0--|
D|0-------0-------0---0---0---2--|2-------2-------2---2---2---2--|
A|2-------2-------2---2---2---2--|2-------2-------2---2---2---2--|
E|3-------3-------3---3---3---0--|0-------0-------0---0---0---0--|

e|3------ 3---3-- ----3-- ---0---|----0-- ----0-- ----0-- ----0--|
B|3-------3---3-------3------0---|----0-------0-------0-------0--|
G|0-------0---0-------0------0---|----0-------0-------0-------0--|
D|-------------------------------|-------------------------------|
A|-------------------------------|-------------------------------|
E|-------------------------------|-------------------------------|
                                  feeling you holding     me

  C                               D
e|0------ 0------ 0---0-- 0------|2------ 2------ 2---2-- 2---2--|
B|1-------1-------1---1---1------|3-------3-------3---3---3---3--|
G|0-------0-------0---0---0------|2-------2-------2---2---2---2--|
D|2-------2-------2---2---2------|0-------0-------0---0---0---0--|
A|3-------3-------3---3---3------|-------------------------------|
E|3-------3-------3---3---3------|-------------------------------|

e|------- ------- ------- -------|------- ------- ------- -------|
B|1-------1---1-------1-------1--|----3-------3-------3-------3--|
G|0-------0---0-------0-------0--|----5-------5-------5-------5--|
D|2-------2---2-------2-------2--|----4-------4-------4-------4--|
A|3------------------------------|-------------------------------|
E|-------------------------------|-------------------------------|
  tight                       tight,          yeah    It's    a
                                                          been


  G               C           G
e|3------ 3------ 3---3-- 3---3--|3------ 3------ 3---3-- 3---3--|
B|3-------3-------1---1---1---3--|3-------3-------3---3---3---3--|
G|0-------0-------0---0---0---0--|0-------0-------0---0---0---0--|
D|0-------0-------2---2---2---0--|0-------0-------0---0---0---0--|
A|2-------2-------3---3---3---2--|2-------2-------2---2---2---2--|
E|3-------3-------------------3--|3-------3-------3---3---3---3--|

e|3------ 3------ ----3-- ----3--|3---3-- ----3-- ----3-- ----3--|
B|3-------3-----------3-------3--|3---3-------3-------3-------3--|
G|0-------0-----------0-------0--|0---0-------0-------0-------0--|
D|-------------------------------|-------------------------------|
A|-------------------------------|-------------------------------|
E|-------------------------------|-------------------------------|
  hard            day's       night                   and I've
                                                              been


  F9                              G
e|3------ 3------ 3---3-- 3---3--|3------ 3------ 3---3-- 3---3--|
B|1-------1-------1---1---1---1--|3-------3-------3---3---3---3--|
G|2-------2-------2---2---2---2--|0-------0-------0---0---0---0--|
D|1-------1-------1---1---1---1--|0-------0-------0---0---0---0--|
A|3-------3-------3---3---3---3--|2-------2-------2---2---2---2--|
E|1-------1-------1---1---1---1--|3-------3-------3---3---3---3--|

e|1------ ----1-- ----1-- ----1--|----3-- ----3-- ----3-- ----3--|
B|1-----------1-------1-------1--|----3-------3-------3-------3--|
G|2-----------2-------2-------2--|----0-------0-------0-------0--|
D|-------------------------------|-------------------------------|
A|-------------------------------|-------------------------------|
E|-------------------------------|-------------------------------|
  working             like    dog                     It's    a
                          a                               been


  G               C               G
e|3------ 3------ 3---3-- 3---3--|3------ 3------ 3---3-- 3---3--|
B|3-------3-------1---1---1---1--|3-------3-------3---3---3---3--|
G|0-------0-------0---0---0---0--|0-------0-------0---0---0---0--|
D|0-------0-------2---2---2---2--|0-------0-------0---0---0---0--|
A|2-------2-------3---3---3---3--|2-------2-------2---2---2---2--|
E|3-------3----------------------|3-------3-------3---3---3---3--|

e|3------ 3---3-- ----3-- ----3--|----3-- 3------ ----3-- ----3--|
B|3-------3---3-------3-------3--|----3---3-----------3-------3--|
G|0-------0---0-------0-------0--|----0---0-----------0-------0--|
D|-------------------------------|-------------------------------|
A|-------------------------------|-------------------------------|
E|-------------------------------|-------------------------------|
  hard            day's       night                   I   should
                                                              be


  F9                              G
e|3------ 3------ 3---3-- 3---3--|3------ 3------ 3---3-- 3---3--|
B|1-------1-------1---1---1---1--|3-------3-------3---3---3---3--|
G|2-------2-------2---2---2---2--|0-------0-------0---0---0---0--|
D|1-------1-------1---1---1---1--|0-------0-------0---0---0---0--|
A|3-------3-------3---3---3---3--|2-------2-------2---2---2---2--|
E|1-------1-------1---1---1---1--|3-------3-------3---3---3---3--|

e|------- 3---3-- ----3-- ----3--|----3-- ----3-- ----3-- ----3--|
B|1-------1---1-------1-------3--|----3-------3-------3-------3--|
G|2-------2---2-------2-------0--|----0-------0-------0-------0--|
D|3------------------------------|-------------------------------|
A|-------------------------------|-------------------------------|
E|-------------------------------|-------------------------------|
  sleeping            like    log                     But when
                          a                                   I


  C                               D
e|0------ 0------ 0---0-- 0---0--|2------ 2------ 2---2-- 2---3--|
B|1-------1-------1---1---1---1--|3-------3-------3---3---3---3--|
G|0-------0-------0---0---0---0--|2-------2-------2---2---2---0--|
D|2-------2-------2---2---2---2--|0-------0-------0---0---0---0--|
A|3-------3-------3---3---3---3--|-------------------------------|
E|3-------3-------3---3---3---3--|-------------------------------|

e|0------ ----0-- 0---0-- 0------|2------ 2------ ----2-- ----3--|
B|1-----------1---1---1---1------|3-------3-----------3-------3--|
G|0-----------0---0---0---0------|2-------2-----------2-------0--|
D|-------------------------------|-------------------------------|
A|-------------------------------|-------------------------------|
E|-------------------------------|-------------------------------|
  get home    you     I'll    the things  you do      will    me
          to              find        that                make


  G               C           G
e|3------ 3------ 3---3-- 3---3--|3------ 3------ 3---3-- 3---3--|
B|3-------3-------1---1---1---3--|3-------3-------3---3---3---3--|
G|0-------0-------0---0---0---0--|0-------0-------0---0---0---0--|
D|0-------0-------2---2---2---0--|0-------0-------0---0---0---0--|
A|2-------2-------3---3---3---2--|2-------2-------2---2---2---2--|
E|3-------3-------------------3--|3-------3-------3---3---3---3--|
  feel            allright                            You know
                                                              I
e|------- 3------ 3---3-- ----3--|----3-- 3---3-- ----3-- 3------|
B|--------0-------1---1-------0--|----3---3---3-------3---3------|
G|--------0-------0---0-------0--|----0---0---0-------0---0------|
D|-------------------------------|-------------------------------|
A|-------------------------------|-------------------------------|
E|-------------------------------|-------------------------------|


  G               C           G
e|3------ 3------ 3---3-- 3---3--|3------ 3------ 3---3-- 3---3--|
B|3-------3-------1---1---1---3--|3-------3-------3---3---3---3--|
G|0-------0-------0---0---0---0--|0-------0-------0---0---0---0--|
D|0-------0-------2---2---2---0--|0-------0-------0---0---0---0--|
A|2-------2-------3---3---3---2--|2-------2-------2---2---2---2--|
E|3-------3-------------------3--|3-------3-------3---3---3---3--|

e|3------ 3------ 3---3-- ----3--|----3-- ----3-- ----3-- 3------|
B|3-------0-------1---1-------3--|----3-------3-------3---3------|
G|0-------0-------0---0-------0--|----0-------0-------0---0------|
D|-------------------------------|-------------------------------|
A|-------------------------------|-------------------------------|
E|-------------------------------|-------------------------------|
  feel            allright                            You know
                                                              I


                                  (.
  G               C               D7sus4
e|3------ 3------ 3---3-- 3---3--|3------ ------- ------- -------|
B|3-------3-------1---1---1---1--|1------------------------------|
G|0-------0-------0---0---0---2--|2------------------------------|
D|0-------0-------2---2---2---0--|0------------------------------|
A|2-------2-------3---3---3---0--|0------------------------------|
E|3-------3----------------------|-------------------------------|
  feel            all.........right
e|3------ 3------ 3---3-- -------|3------ ------- 1------ -------|
B|3-------3-------3---3----------|----1-------1-------1-------1--|
G|0-------0-------0---0----------|--------2---------------2------|
D|-------------------------------|-------------------------------|
A|-------------------------------|-------------------------------|
E|-------------------------------|-------------------------------|

e|3------ ------- 1------ -------|3------ ------- 1------ ----1--|
B|----1-------1-------1-------1--|----1-------1-------1----------|
G|--------2---------------2------|--------2---------------2------|
D|-------------------------------|-------------------------------|
A|-------------------------------|-------------------------------|
E|-------------------------------|-------------------------------|
  .............................Fade..............................

e|3------ ------- 1------ -------|3------ ------- 1------ ----1--|
B|----1-------1-------1-------1--|----1-------1-------1----------|
G|--------2---------------2------|--------2---------------2------|
D|-------------------------------|-------------------------------|
A|-------------------------------|-------------------------------|
E|-------------------------------|-------------------------------|
  ...............................................................


        B  Bend
        R  Release
        /  slide up
        \  slide down
        H  hammer-on
        P  pull-off
        ~  vibrato
        +  harmonic
        x  Mute note
        . - play note like a dot in standard notation
        ^ - ties two notes together
        (. Pause


  --------------------------------------------------------------------

  THE BEATLES - I SHOULD HAVE KNOWN BETTER (Lennon & McCartney) from
                A HARD DAY'S NIGHT album. Released on 20th March 1964.

  --------------------------------------------------------------------

  Tabbed by:PJVillanueva


  I should have known better with a girl like you
  That I would love everything that you do
  And I do, hey, hey, hey, and I do

  Whoa, woah, I never realized what a kiss could be
  This could only happen to me
  Can't you see, can't you see?

  That when I tell you that I love you, oh,
  You're gonna say you love me too, hoo, hoo, hoo, hoo, oh,
  And when I ask you to be mine,
  You're gonna say you love me too.

  So, oh, I should have realized a lof of things before
  If this is love you've got to give me more
  Give me more, hey hey hey, give me more

  Whoa, whoa, I never realized what a kiss could be
  This could only happen to me
  Can't you see, can't you see?

  And when I tell you that I love you, oh
  You're gonna say you love me too, oh
  And when I ask you to be mine,
  You're gonna say you love me too,
  You love me too
  You love me too

  G               D           G                   D
e|3------ 3------ 2---2-- 2---3--|3------ 3------ 2---2-- 2---2--|
B|3-------3-------3---3---3---3--|3-------3-------3---3---3---3--|
G|0-------0-------2---2---2---0--|0-------0-------2---2---2---2--|
D|0-------0-------0---0---0---0--|0-------0-------0---0---0---0--|
A|2-------2-------------------2--|2-------2----------------------|
E|3-------3-------------------3--|3-------3----------------------|


  G               D           G                   D
e|3------ 3------ 2---2-- 2---3--|3------ 3------ 2---2-- 2---2--|
B|3-------3-------3---3---3---3--|3-------3-------3---3---3---3--|
G|0-------0-------2---2---2---0--|0-------0-------2---2---2---2--|
D|0-------0-------0---0---0---0--|0-------0-------0---0---0---0--|
A|2-------2-------------------2--|2-------2----------------------|
E|3-------3-------------------3--|3-------3----------------------|
                                                              I

  G               D               G               D
e|3------ 3---3-- 2---2-- 2---2--|3---3-- 3------ 2---2-- 2------|
B|3-------3---3---3---3---3---3--|3---3---3-------3---3---3------|
G|0-------0---0---2---2---2---2--|0---0---0-------2---2---2------|
D|0-------0---0---0---0---0---0--|0---0---0-------0---0---0------|
A|2-------2---2------------------|2---2---2----------------------|
E|3-------3---3------------------|3---3---3----------------------|
                                                  should  known
                                                      have


  G               D           G                   D
e|3------ 3------ 2---2-- 2---3--|----3-- 3---3-- 2---2-- 2---2--|
B|3-------3-------3---3---3---3--|----3---3---3---3---3---3---3--|
G|0-------0-------2---2---2---0--|----0---0---0---2---2---2---2--|
D|0-------0-------0---0---0---0--|----0---0---0---0---0---0---0--|
A|2-------2-------------------2--|----2---2---2------------------|
E|3-------3-------------------3--|----3---3---3------------------|
  better  with    girl        you                     That    would
               a      like                                I

  G               D           Em
e|3------ 3---3-- 2---2-- 2---0--|0---0-- 0---0-- 0---0-- 0---0--|
B|3-------3---3---3---3---3---0--|0---0---0---0---0---0---0---0--|
G|0-------0---0---2---2---2---0--|0---0---0---0---0---0---0---0--|
D|0-------0---0---0---0---0---2--|2---2---2---2---2---2---2---2--|
A|2-------2---2---------------2--|2---2---2---2---2---2---2---2--|
E|3-------3---3---------------0--|0---0---0---0---0---0---0---0--|
  love    everything  that    do                      And I   do,
                          you


  C                           D                               G
e|0---0-- 0---0-- 0---0-- 0---2--|2---2-- 2------ 2---2-- 2---3--|
B|1---1---1---1---1---1---1---3--|3---3---3-------3---3---3---3--|
G|0---0---0---0---0---0---0---2--|2---2---2-------2---2---2---0--|
D|2---2---2---2---2---2---2---0--|0---0---0-------0---0---0---0--|
A|3---3---3---3---3---3---3------|----------------------------2--|
E|3---3---3---3---3---3---3------|----------------------------3--|
                      hey hey hey,                    and I   do

                  D           G                   D
e|3------ 3------ 2---2-- 2---3--|------- 3------ 2---2-- 2---2--|
B|3-------3-------3---3---3---3--|--------3-------3---3---3---3--|
G|0-------0-------2---2---2---0--|--------0-------2---2---2---2--|
D|0-------0-------0---0---0---0--|--------0-------0---0---0---0--|
A|2-------2-------------------2--|--------2----------------------|
E|3-------3-------------------3--|--------3----------------------|
                                                  Whoa,   whoa

  G               D           G                   D
e|3------ 3------ 2---2-- 2---3--|------- 3------ 2---2-- 2---2--|
B|3-------3-------3---3---3---3--|--------3-------3---3---3---3--|
G|0-------0-------2---2---2---0--|--------0-------2---2---2---2--|
D|0-------0-------0---0---0---0--|--------0-------0---0---0---0--|
A|2-------2-------------------2--|--------2----------------------|
E|3-------3-------------------3--|--------3----------------------|
  I                                               never   realized

  G               D           G                   D
e|3------ 3------ 2---2-- 2---3--|3---3-- 3------ 2---2-- 2------|
B|3-------3-------3---3---3---3--|3---3---3-------3---3---3------|
G|0-------0-------2---2---2---0--|0---0---0-------2---2---2------|
D|0-------0-------0---0---0---0--|0---0---0-------0---0---0------|
A|2-------2-------------------2--|2---2---2----------------------|
E|3-------3-------------------3--|3---3---3----------------------|
          what    kiss        be                          This could
              a       could


  G               D           Em
e|3------ 3------ 2---2-- 2---0--|----0-- 0---0-- 0------ 0---0--|
B|3-------3-------3---3---3---0--|----0---0---0---0-------0---0--|
G|0-------0-------2---2---2---0--|----0---0---0---0-------0---0--|
D|0-------0-------0---0---0---0--|----2---2---2---2-------2---2--|
A|2-------2-------------------2--|----2---2---2---2-------2---2--|
E|3-------3-------------------0--|----0---0---0---0-------0---0--|
  only            happen  to  me                      Can't   see
                                                          you


  C                           B7
e|0------ 0------ 0---0-- 0---2--|2---2-- 2------ 2---2-- 2------|
B|1-------1-------1---1---1---0--|0---0---0-------0---0---0------|
G|0-------0-------0---0---0---2--|2---2---2-------2---2---2------|
D|2-------2-------2---2---2---1--|1---1---1-------1---1---1------|
A|3-------3-------3---3---3---2--|2---2---2-------2---2---2------|
E|3-------3-------3---3---3------|-------------------------------|

e|------- ------- ------- -------|7------ ------- ------- -------|
B|-------------------------------|7------------------------------|
G|-------------------------------|8------------------------------|
D|-------------------------------|9------------------------------|
A|-------------------------------|9------------------------------|
E|-------------------------------|7------------------------------|
                      can't   see?
                          you


  Em                              C
e|0------ 0---0-- 0------ 0---0--|0---0-- 0------ 0------ 0---0--|
B|0-------0---0---0-------0---0--|1---1---1-------1-------1---1--|
G|0-------0---0---0-------0---0--|0---0---0-------0-------0---0--|
D|2-------2---2---2-------2---2--|2---2---2-------2-------2---2--|
A|2-------2---2---2-------2---2--|3---3---3-------3-------3---3--|
E|0-------0---0---0-------0---0--|3---3---3-------3-------3---3--|

e|7------ ------- ------- -------|-8----- ------- ------- -------|
B|8------------------------------|-8-----------------------------|
G|9------------------------------|-9-----------------------------|
D|9------------------------------|10-----------------------------|
A|7------------------------------|10-----------------------------|
E|-------------------------------|-8-----------------------------|
          That    when    I       tell    you     that        love
                                                      I


  G                               B7
e|3------ 3---3-- 3---3-- 3---3--|2-----2 2---2-- 2---2-- 2---2--|
B|3-------3---3---3---3---3---3--|0-----0-0---0---0---0---0---0--|
G|0-------0---0---0---0---0---0--|2-----2-2---2---2---2---2---2--|
D|0-------0---0---0---0---0---0--|1-----1-1---1---1---1---1---1--|
A|2-------2---2---2---2---2---2--|2-----2-2---2---2---2---2---2--|
E|3-------3---3---3---3---3---3--|-------------------------------|
      you                     oh
e|3------ ------- ------- -------|7------ ------- ------- -------|
B|3------------------------------|7------------------------------|
G|4------------------------------|8------------------------------|
D|5------------------------------|9------------------------------|
A|5------------------------------|9------------------------------|
E|3------------------------------|7------------------------------|

  Em
e|0------ 0---0-- 0---0-- 0---0--|0---0-- 0---0-- 0---0-- 0------|
B|0-------0---0---0---0---0---0--|0---0---0---0---0---0---0------|
G|0-------0---0---0---0---0---0--|0---0---0---0---0---0---0------|
D|2-------2---2---2---2---2---2--|2---2---2---2---2---2---2------|
A|2-------2---2---2---2---2---2--|2---2---2---2---2---2---2------|
E|0-------0---0---0---0---0---0--|0---0---0---0---0---0---0------|

e|7------ ------- ------- -------|7------ ------- ------- -------|
B|8------------------------------|8------------------------------|
G|9------------------------------|9------------------------------|
D|9------------------------------|9------------------------------|
A|7------------------------------|7------------------------------|
E|-------------------------------|-------------------------------|
          You're  gonna       say         you     love        too
                                                      me


  G
e|3---3-- 3---3-- 3---3-- 3------|3---3-3 3---3-- 3---3-- 3---3--|
B|3---3---3---3---3---3---3------|3---3-3-3---3---3---3---3---3--|
G|0---0---0---0---0---0---0------|0---0-0-0---0---0---0---0---0--|
D|0---0---0---0---0---0---0------|0---0-0-0---0---0---0---0---0--|
A|2---2---2---2---2---2---2------|2---2-2-2---2---2---2---2---2--|
E|3---3---3---3---3---3---3------|3---3-3-3---3---3---3---3---3--|
          hoo,    hoo,    hoo,    hoo,        oh,
e|3------ ------- ------- -------|3------ ------- ------- -------|
B|3------------------------------|6------------------------------|
G|4------------------------------|4------------------------------|
D|5------------------------------|3------------------------------|
A|5------------------------------|5------------------------------|
E|3------------------------------|3------------------------------|


  C                               D
e|0------ 0---0-- 0---0-- 0---0--|2------ 2---2-- 2---2-- 2------|
B|1-------1---1---1---1---1---1--|3-------3---3---3---3---3------|
G|0-------0---0---0---0---0---0--|2-------2---2---2---2---2------|
D|2-------2---2---2---2---2---2--|0-------0---0---0---0---0------|
A|3-------3---3---3---3---3---3--|-------------------------------|
E|3-------3---3---3---3---3---3--|-------------------------------|

e|-8----- ------- ------- -------|10----- ------- ------- -------|
B|-8-----------------------------|10-----------------------------|
G|-9-----------------------------|11-----------------------------|
D|10-----------------------------|12-----------------------------|
A|10-----------------------------|12-----------------------------|
E|-8-----------------------------|10-----------------------------|
          And     when    I       ask     you     to      be  mi..

  G                           Em
e|3---3-- 3---3-- ----3-- ----0--|----0-- ----0-- ----0-- 0---0--|
B|3---3---3---3-------3-------0--|----0-------0-------0---0---0--|
G|0---0---0---0-------0-------0--|----0-------0-------0---0---0--|
D|0---0---0---0-------0-------2--|----2-------2-------2---2---2--|
A|2---2---2---2-------2-------2--|----2-------2-------2---2---2--|
E|3---3---3---3-------3-------0--|----0-------0-------0---0---0--|

e|3------ ------- ------- -------|7------ ------- ------- -------|
B|3------------------------------|8------------------------------|
G|4------------------------------|9------------------------------|
D|5------------------------------|9------------------------------|
A|5------------------------------|7------------------------------|
E|3------------------------------|-------------------------------|
  ................... hi  hi  hi..............................ne

  C                               D
e|0---0-- 0------ 0---0-- 0---0--|2---2-- 2------ 2---2-- 2---2--|
B|1---1---1-------1---1---1---1--|3---3---3-------3---3---3---3--|
G|0---0---0-------0---0---0---0--|2---2---2-------2---2---2---2--|
D|2---2---2-------2---2---2---2--|0---0---0-------0---0---0---0--|
A|3---3---3-------3---3---3---3--|-------------------------------|
E|3---3---3-------3---3---3---3--|-------------------------------|

e|-8----- ------- ------- -------|10----- ------- ------- -------|
B|-8-----------------------------|10-----------------------------|
G|-9-----------------------------|11-----------------------------|
D|10-----------------------------|12-----------------------------|
A|10-----------------------------|12-----------------------------|
E|-8-----------------------------|10-----------------------------|
          You're  gonna       say         you     love    me  too

  G               D           G                   D
e|3------ 3------ 2---2-- 2---3--|------- 3------ 2---2-- 2---2--|
B|3-------3-------3---3---3---3--|--------3-------3---3---3---3--|
G|0-------0-------2---2---2---0--|--------0-------2---2---2---2--|
D|0-------0-------0---0---0---0--|--------0-------0---0---0---0--|
A|2-------2-------------------2--|--------2----------------------|
E|3-------3-------------------3--|--------3----------------------|
                                                  So

  G               D           G                   D
e|3------ 3------ 2---2-- 2---3--|----3-- 3---3-- 2---2-- 2---2--|
B|3-------3-------3---3---3---3--|----3---3---3---3---3---3---3--|
G|0-------0-------2---2---2---0--|----0---0---0---2---2---2---2--|
D|0-------0-------0---0---0---0--|----0---0---0---0---0---0---0--|
A|2-------2-------------------2--|----2---2---2------------------|
E|3-------3-------------------3--|----3---3---3------------------|
  I                                               should have rea..

  G               D           G                   D           G
e|3------ 3---3-- 2---2-- 2---3--|----3-- 3---3-- 2---2-- 2---3--|
B|3-------3---3---3---3---3---3--|----3---3---3---3---3---3---3--|
G|0-------0---0---2---2---2---0--|----0---0---0---2---2---2---0--|
D|0-------0---0---0---0---0---0--|----0---0---0---0---0---0---0--|
A|2-------2---2---------------2--|----2---2---2---------------2--|
E|3-------3---3---------------3--|----3---3---3---------------3--|
  lized   lot of  things                              If  this
      a               before                                  is

                  D           Em
e|3---3-- 3------ 2---2-- 2---0--|----0-- ----0-- ----0-- ----0--|
B|3---3---3-------3---3---3---0--|----0-------0-------0-------0--|
G|0---0---0-------2---2---2---0--|----0-------0-------0-------0--|
D|0---0---0-------0---0---0---2--|----2-------2-------2-------2--|
A|2---2---2-------------------2--|----2-------2-------2-------2--|
E|3---3---3-------------------0--|----0-------0-------0-------0--|
  love    got to  give        more                    Give    more
      you've          me                                  me

  C                           D                               G
e|0------ 0---0-- 0---0-- 0---2--|----2-- 2---2-- 2---2-- 2---3--|
B|1-------1---1---1---1---1---3--|----3---3---3---3---3---3---3--|
G|0-------0---0---0---0---0---2--|----2---2---2---2---2---2---0--|
D|2-------2---2---2---2---2---0--|----0---0---0---0---0---0---0--|
A|3-------3---3---3---3---3------|----------------------------2--|
E|3-------3---3---3---3---3------|----------------------------3--|
                      hey hey hey                     Give    more
                                                          me

                  D           G                   D
e|3---3-- 3---3-- 2---2-- 2---3--|----3-- 3---3-- 2---2-- 2---2--|
B|3---3---3---3---3---3---3---3--|----3---3---3---3---3---3---3--|
G|0---0---0---0---2---2---2---0--|----0---0---0---2---2---2---2--|
D|0---0---0---0---0---0---0---0--|----0---0---0---0---0---0---0--|
A|2---2---2---2---------------2--|----2---2---2------------------|
E|3---3---3---3---------------3--|----3---3---3------------------|


  SOLO

  G               D           G                   D
e|3------ 3------ 2---2-- 2---3--|----3-- 3------ 2---2-- 2---2--|
B|3-------3-------3---3---3---3--|----3---3-------3---3---3---3--|
G|0-------0-------2---2---2---0--|----0---0-------2---2---2---2--|
D|0-------0-------0---0---0---0--|----0---0-------0---0---0---0--|
A|2-------2-------------------2--|----2---2----------------------|
E|3-------3-------------------3--|----3---3----------------------|

e|10----- ------- ------- -------|------- ----12- ----10- 10-----|
B|-------------------------------|----------------------------12-|
G|-7-----------------------------|-------------9-------7---7-----|
D|-------------------------------|-----------------------------9-|
A|-------------------------------|-------------------------------|
E|-------------------------------|-------------------------------|

  G               D           G                   D           G
e|3------ 3------ 2---2-- 2---3--|----3-- 3------ 2---2-- 2---3--|
B|3-------3-------3---3---3---3--|----3---3-------3---3---3---3--|
G|0-------0-------2---2---2---0--|----0---0-------2---2---2---0--|
D|0-------0-------0---0---0---0--|----0---0-------0---0---0---0--|
A|2-------2-------------------2--|----2---2-------------------2--|
E|3-------3-------------------3--|----3---3-------------------3--|

e|10----- 10----- 10--10- ----12-|------- ------- ----10- 10-----|
B|------------12-----------------|----------------------------12-|
G|-7-------7-------7---7-------9-|---------------------7---7-----|
D|-------------9-----------------|-----------------------------9-|
A|-------------------------------|-------------------------------|
E|-------------------------------|-------------------------------|

  G               D           Em
e|3------ 3------ 2---2-- 2---0--|------- 0---0-- 0---0-- 0---0--|
B|3-------3-------3---3---3---0--|--------0---0---0---0---0---0--|
G|0-------0-------2---2---2---0--|--------0---0---0---0---0---0--|
D|0-------0-------0---0---0---2--|--------2---2---2---2---2---2--|
A|2-------2-------------------2--|--------2---2---2---2---2---2--|
E|3-------3-------------------0--|--------0---0---0---0---0---0--|

e|10----- 10----- 10----- 10--12-|------- ------- ----10- 11--12-|
B|------------12------12---------|-------------------------------|
G|-7-------7-------7-------7---7-|---------------------7---8---9-|
D|-------------9-------9---------|---------------------8---9--10-|
A|-------------------------------|-------------------------------|
E|-------------------------------|-------------------------------|

  C                           D                               G
e|0------ 0------ 0---0-- 0---2--|----2-- 2---2-- 2---2-- 2---3--|
B|1-------1-------1---1---1---3--|----3---3---3---3---3---3---3--|
G|0-------0-------0---0---0---2--|----2---2---2---2---2---2---0--|
D|2-------2-------2---2---2---0--|----0---0---0---0---0---0---0--|
A|3-------3-------3---3---3------|----------------------------2--|
E|3-------3-------3---3---3------|----------------------------3--|

e|------- ------- ----11- 1212/14|------- ------- ----13- 14-----|
B|-------------------------------|-------------------------------|
G|---------------------8---9-9/11|--------------------10--11-----|
D|---------------------9--1010/12|--------------------11--12-----|
A|-------------------------------|-------------------------------|
E|-------------------------------|-------------------------------|

                  D           G                   D
e|----3-- 3---3-- 2---2-- 2---3--|----3-- 3------ 2---2-- 2---2--|
B|----3---3---3---3---3---3---3--|----3---3-------3---3---3---3--|
G|----0---0---0---2---2---2---0--|----0---0-------2---2---2---2--|
D|----0---0---0---0---0---0---0--|----0---0-------0---0---0---0--|
A|----2---2---2---------------2--|----2---2----------------------|
E|----3---3---3---------------3--|----3---3----------------------|
                                                  Whoa,   whoa,
e|12----- ------- ------- -------|------- ------- ------- -------|
B|12-----------------------------|-------------------------------|
G|12-----------------------------|-------------------------------|
D|-------------------------------|-------------------------------|
A|-------------------------------|-------------------------------|
E|-------------------------------|-------------------------------|


  G               D           G                   D
e|3------ 3------ 2---2-- 2---3--|------- 3------ 2---2-- 2---2--|
B|3-------3-------3---3---3---3--|--------3-------3---3---3---3--|
G|0-------0-------2---2---2---0--|--------0-------2---2---2---2--|
D|0-------0-------0---0---0---0--|--------0-------0---0---0---0--|
A|2-------2-------------------2--|--------2----------------------|
E|3-------3-------------------3--|--------3----------------------|
  I                                                never  rea....

  G               D           G                   D
e|3------ 3------ 2---2-- 2---3--|----3-- 3---3-- 2---2-- 2---2--|
B|3-------3-------3---3---3---3--|----3---3---3---3---3---3---3--|
G|0-------0-------2---2---2---0--|----0---0---0---2---2---2---2--|
D|0-------0-------0---0---0---0--|----0---0---0---0---0---0---0--|
A|2-------2-------------------2--|----2---2---2------------------|
E|3-------3-------------------3--|----3---3---3------------------|
  lized   what    kiss        be                          This could
              a       could


  G               D           Em
e|3------ 3------ 2---2-- 2---0--|----0-- 0---0-- 0---0-- 0---0--|
B|3-------3-------3---3---3---0--|----0---0---0---0---0---0---0--|
G|0-------0-------2---2---2---0--|----0---0---0---0---0---0---0--|
D|0-------0-------0---0---0---2--|----2---2---2---2---2---2---2--|
A|2-------2-------------------2--|----2---2---2---2---2---2---2--|
E|3-------3-------------------0--|----0---0---0---0---0---0---0--|
  only            happen  to  me                      Can't   see,
                                                          you

  C                           B7
e|0------ 0------ 0---0-- 0---2--|----2-- 2------ 2---2-- 2---2--|
B|1-------1-------1---1---1---0--|----0---0-------0---0---0---0--|
G|0-------0-------0---0---0---2--|----2---2-------2---2---2---2--|
D|2-------2-------2---2---2---1--|----1---1-------1---1---1---1--|
A|3-------3-------3---3---3---2--|----2---2-------2---2---2---2--|
E|3-------3-------3---3---3------|-------------------------------|

e|------- ------- ------- -------|7------ ------- ------- -------|
B|-------------------------------|7------------------------------|
G|-------------------------------|8------------------------------|
D|-------------------------------|9------------------------------|
A|-------------------------------|9------------------------------|
E|-------------------------------|7------------------------------|
                      can't   see?
                          you


  Em                                  C
e|0------ 0------ 0---0-- 0---0--|----0-- 0------ 0---0-- 0------|
B|0-------0-------0---0---0---1--|----1---1-------1---1---1------|
G|0-------0-------0---0---0---0--|----0---0-------0---0---0------|
D|2-------2-------2---2---2---2--|----2---2-------2---2---2------|
A|2-------2-------2---2---2---2--|----3---3-------3---3---3------|
E|0-------0-------0---0---0---0--|----3---3-------3---3---3------|

e|7------ ------- ------- -------|-8----- ------- ------- -------|
B|8------------------------------|-8-----------------------------|
G|9------------------------------|-9-----------------------------|
D|9------------------------------|10-----------------------------|
A|7------------------------------|10-----------------------------|
E|-------------------------------|-8-----------------------------|
          That    when    I       tell    you     that        love
                                                      I

  G                               B7
e|3------ 3---3-- ----3-- ----3--|2---2-2 2---2-- 2---2-- 2---2--|
B|3-------3---3-------3-------3--|0---0-0-0---0---0---0---0---0--|
G|0-------0---0-------0-------0--|2---2-2-2---2---2---2---2---2--|
D|0-------0---0-------0-------0--|1---1-1-1---1---1---1---1---1--|
A|2-------2---2-------2-------2--|2---2-2-2---2---2---2---2---2--|
E|3-------3---3-------3-------3--|-------------------------------|

e|3------ ------- ------- -------|7------ ------- ------- -------|
B|3------------------------------|7------------------------------|
G|4------------------------------|8------------------------------|
D|5------------------------------|9------------------------------|
A|5------------------------------|9------------------------------|
E|3------------------------------|7------------------------------|
      you,                    oh

  Em
e|0-----0 0---0-- 0---0-- 0---0--|0---0-- 0------ 0---0-- 0------|
B|0-----0-0---0---0---0---0---0--|0---0---0-------0---0---0------|
G|0-----0-0---0---0---0---0---0--|0---0---0-------0---0---0------|
D|2-----2-2---2---2---2---2---2--|2---2---2-------2---2---2------|
A|2-----2-2---2---2---2---2---2--|2---2---2-------2---2---2------|
E|0-----0-0---0---0---0---0---0--|0---0---0-------0---0---0------|

e|7------ ------- ------- -------|7------ ------- ------- -------|
B|8------------------------------|8------------------------------|
G|9------------------------------|9------------------------------|
D|9------------------------------|9------------------------------|
A|7------------------------------|7------------------------------|
E|-------------------------------|-------------------------------|
          You're  gonna       say         you     love        too
                                                      me

  G
e|3------ 3---3-- 3---3-- 3---3--|3-----3 3---3-- 3---3-- 3------|
B|3-------3---3---3---3---3---3--|3-----3-3---3---3---3---3------|
G|0-------0---0---0---0---0---0--|0-----0-0---0---0---0---0------|
D|0-------0---0---0---0---0---0--|0-----0-0---0---0---0---0------|
A|2-------2---2---2---2---2---2--|2-----2-2---2---2---2---2------|
E|3-------3---3---3---3---3---3--|3-----3-3---3---3---3---3------|

e|3------ ------- ------- -------|3------ ------- ------- -------|
B|3------------------------------|6------------------------------|
G|4------------------------------|4------------------------------|
D|5------------------------------|3------------------------------|
A|5------------------------------|5------------------------------|
E|3------------------------------|3------------------------------|
          hoo,    hoo,    hoo,    hoo,        oh


  C                               D                           G
e|0---0-- 0------ 0------ 0---0--|2------ 2---2-- 2---2-- 2---3--|
B|1---1---1-------1-------1---1--|3-------3---3---3---3---3---3--|
G|0---0---0-------0-------0---0--|2-------2---2---2---2---2---0--|
D|2---2---2-------2-------2---2--|0-------0---0---0---0---0---0--|
A|3---3---3-------3-------3---3--|----------------------------2--|
E|3---3---3-------3-------3---3--|----------------------------3--|

e|-8----- ------- ------- -------|10----- ------- ------- -------|
B|-8-----------------------------|10-----------------------------|
G|-9-----------------------------|11-----------------------------|
D|10-----------------------------|12-----------------------------|
A|10-----------------------------|12-----------------------------|
E|-8-----------------------------|10-----------------------------|
          And     when    I       ask     you     to      be mi..


                              Em
e|----3-- 3---3-- ----3-- ----0--|----0-- 0------ 0---0-- 0------|
B|----3---3---3-------3-------0--|----0---0-------0---0---0------|
G|----0---0---0-------0-------0--|----0---0-------0---0---0------|
D|----0---0---0-------0-------2--|----2---2-------2---2---2------|
A|----2---2---2-------2-------2--|----2---2-------2---2---2------|
E|----3---3---3-------3-------0--|----0---0-------0---0---0------|

e|3------ ------- ------- -------|7------ ------- ------- -------|
B|3------------------------------|8------------------------------|
G|4------------------------------|9------------------------------|
D|5------------------------------|9------------------------------|
A|5------------------------------|7------------------------------|
E|3------------------------------|-------------------------------|
                      hi  hi  hi..........................ne


  C                               D                           G
e|0------ 0---0-- 0---0-- 0---0--|2------ 2---2-- 2---2-- 2---3--|
B|1-------1---1---1---1---1---1--|3-------3---3---3---3---3---3--|
G|0-------0---0---0---0---0---0--|2-------2---2---2---2---2---0--|
D|2-------2---2---2---2---2---2--|0-------0---0---0---0---0---0--|
A|3-------3---3---3---3---3---3--|----------------------------2--|
E|3-------3---3---3---3---3---3--|----------------------------3--|

e|-8----- ------- ------- -------|10----- ------- ------- -------|
B|-8-----------------------------|10-----------------------------|
G|-9-----------------------------|11-----------------------------|
D|10-----------------------------|12-----------------------------|
A|10-----------------------------|12-----------------------------|
E|-8-----------------------------|10-----------------------------|
          You're  gonna       say         you     love    me  too

                  D           G                   D           G
e|----3-- 3------ 2---2-- 2---3--|----3-- 3------ 2---2-- 2---3--|
B|----3---3-------3---3---3---3--|----3---3-------3---3---3---3--|
G|----0---0-------2---2---2---0--|----0---0-------2---2---2---0--|
D|----0---0-------0---0---0---0--|----0---0-------0---0---0---0--|
A|----2---2-------------------2--|----2---2-------------------2--|
E|----3---3-------------------3--|----3---3-------------------3--|
                                              You love        too
                                                      me


                  D           G                   D
e|----3-- 3------ 2---2-- 2---3--|----3-- 3------ 2---2-- 2---2--|
B|----3---3-------3---3---3---3--|----3---3-------3---3---3---3--|
G|----0---0-------2---2---2---0--|----0---0-------2---2---2---2--|
D|----0---0-------0---0---0---0--|----0---0-------0---0---0---0--|
A|----2---2-------------------2--|----2---2----------------------|
E|----3---3-------------------3--|----3---3----------------------|
                                              You love        too
                                                      me


      G           D           G                   D
e|----3-- 3---3-- 2---2-- 2---3--|----3-- 3------ 2---2-- 2---2--|
B|----3---3---3---3---3---3---3--|----3---3-------3---3---3---3--|
G|----0---0---0---2---2---2---0--|----0---0-------2---2---2---2--|
D|----0---0---0---0---0---0---0--|----0---0-------0---0---0---0--|
A|----2---2---2---------------2--|----2---2----------------------|
E|----3---3---3---------------3--|----3---3----------------------|
                                              You love        too
                                                      me
  ..............................Fade.............................




        B  Bend
        R  Release
        /  slide up
        \  slide down
        H  hammer-on
        P  pull-off
        ~  vibrato
        +  harmonic
        x  Mute note
        . - play note like a dot in standard notation
        ^ - ties two notes together
        (.

  --------------------------------------------------------------------

  THE BEATLES - IF I FELL (Lennon & McCartney) From A HARD DAY'S NIGHT
                album. Released March 20th 1964.

  --------------------------------------------------------------------

  Tabbed by:PJVillanueva


  If I fell in love with you
  Would you promise to be true
  And help me understand
 'cause I've been in love before
  And I found that love was more
  Than just holding hands

  If I give my heart to you
  I must be sure
  From the very start
  That you would love me more than her

  If I trust in you oh please
  Don't run and hide
  If I love you too oh please
  Don't hurt my pride like her
 'cause I couldn't stand the pain
  And I would be sad if our new love was in vain

  So I hope you see that I
  Would love to love you
  And that she will cry
  When she learns we are two

  If I fell in love with you


e|------- ------- ------- -------|------- ------- ------- -------|
B|-------------------------------|-------------------------------|
G|-------------------------------|-------------------------------|
D|-------------------------------|-------------------------------|
A|-------------------------------|-------------------------------|
E|-------------------------------|-------------------------------|
                                                          If  I

  Ebm                             D
e|2------ 2------ 2---2-- 2------|2------ 2------ 2---2-- 2------|
B|4-------4-------4---4---4------|3-------3-------3---3---3------|
G|3-------3-------3---3---3------|2-------2-------2---2---2------|
D|-------------------------------|-------------------------------|
A|-------------------------------|-------------------------------|
E|-------------------------------|-------------------------------|

e|------- ------- ------- -------|------- ------- ------- -------|
B|-------------------------------|-------------------------------|
G|8------------------------------|7------------------------------|
D|8------------------------------|7------------------------------|
A|6------------------------------|5------------------------------|
E|-------------------------------|-------------------------------|
  fell    love    you     would   promise to  be  true        and
      in      with            you

  C#                              Bbm
e|1------ 1---1-- 1---1-- 1------|1---1-- 1---1-- 1---1-- 1------|
B|2-------2---2---2---2---2------|2---2---2---2---2---2---2------|
G|1-------1---1---1---1---1------|3---3---3---3---3---3---3------|
D|-------------------------------|-------------------------------|
A|-------------------------------|-------------------------------|
E|-------------------------------|-------------------------------|

e|------- ------- ------- -------|------- ------- ------- -------|
B|-------------------------------|2------------------------------|
G|6------------------------------|3------------------------------|
D|6------------------------------|3------------------------------|
A|4------------------------------|1------------------------------|
E|-------------------------------|-------------------------------|
  help    me                      understand             'cause I've
                                                              I've

  Ebm                             D
e|2------ 2------ 2------ 2------|2------ 2------ 2---2-- 2------|
B|4-------4-------4-------4------|3-------3-------3---3---3------|
G|3-------3-------3-------3------|2-------2-------2---2---2------|
D|-------------------------------|-------------------------------|
A|-------------------------------|-------------------------------|
E|-------------------------------|-------------------------------|

e|------- ------- ------- -------|------- ------- ------- -------|
B|-------------------------------|-------------------------------|
G|8------------------------------|7------------------------------|
D|8------------------------------|7------------------------------|
A|6------------------------------|5------------------------------|
E|6------------------------------|5------------------------------|
  been    love            and     found   love    more        than
      in      before        I         that    was

  Em                              A
e|0------ 0---0-- 0------ 0------|0------ 0--0--- 0---0-- 0------|
B|0-------0---0---0-------0------|2-------2--2----2---2---2------|
G|0-------0---0---0-------0------|2-------2--2----2---2---2------|
D|2-------2---2---2-------2------|2-------2--2----2---2---2------|
A|2-------2---2---2-------2------|0-------0--0----0---0---0------|
E|0-------0---0---0-------0------|-------------------------------|

e|0------ ------- 2------ 3------|5------ ------- ------- -------|
B|0------------------------------|-------------------------------|
G|0------------------------------|2------------------------------|
D|2---------------4-------5------|-------------------------------|
A|2------------------------------|-------------------------------|
E|0------------------------------|-------------------------------|
  just            holding     hands                       If  I


  D               Em              F#m
e|2------ 2------ 0------ 0------|2------ 2------ 2---2-- 2------|
B|3-------3-------0-------0------|2-------2-------2---2---2------|
G|2-------2-------0-------0------|2-------2-------2---2---2------|
D|0-------0-------2-------2------|4-------4-------4---4---4------|
A|----------------2-------2------|4-------4-------4---4---4------|
E|----------------0-------0------|2-------2-------2---2---2------|

e|------- 2------ ------- 0------|------- 2------ ------- 2------|
B|----3-------3-------0-------0--|----2-------2-------2-------2--|
G|-------------------------------|-------------------------------|
D|0---------------2--------------|4---------------4--------------|
A|-------------------------------|-------------------------------|
E|-------------------------------|-------------------------------|
  give            my              heart                   to

  Em                              A
e|0------ 0------ 0------ 0------|0------ 0------ 0---0-- 0------|
B|0-------0-------0-------0------|2-------2-------2---2---2------|
G|0-------0-------0-------0------|2-------2-------2---2---2------|
D|2-------2-------2-------2------|2-------2-------2---2---2------|
A|2-------2-------2-------2------|0-------0-------0---0---0------|
E|0-------0-------0-------0------|-------------------------------|

e|------- ------- ------- -------|------- ------- ------- -------|
B|-------------------------------|-------------------------------|
G|--------4---------------4------|--------2---------------2------|
D|----2-------2-------2-------2--|----2-------2-------2-------2--|
A|2---------------2--------------|0---------------0--------------|
E|-------------------------------|-------------------------------|
  you                         I   must    be      sure    from
                                                              the

  D               Em              F#m
e|2------ 2------ 0------ 0------|2---2-- 2------ 2------ 2--------|
B|3-------3-------0-------0------|2---2---2-------2-------2--------|
G|2-------2-------0-------0------|2---2---2-------2-------2--------|
D|0-------0-------2-------2------|4---4---4-------4-------4--------|
A|----------------2-------2------|4---4---4-------4-------4--------|
E|----------------0-------0------|2---2---2-------2-------2--------|

e|------- 2------ ------- 0------|------- 2------ ------- 2------|
B|----3-------3-------0-------0--|----2-------2-------2-------2--|
G|-------------------------------|-------------------------------|
D|0---------------2--------------|4---------------4--------------|
A|-------------------------------|-------------------------------|
E|-------------------------------|-------------------------------|
  very                            start                   that

  Em                              A
e|0------ 0------ 0------ 0------|0------ 0------ 0------ 0------|
B|0-------0-------0-------0------|2-------2-------2-------2------|
G|0-------0-------0-------0------|2-------2-------2-------2------|
D|2-------2-------2-------2------|2-------2-------2-------2------|
A|2-------2-------2-------2------|0-------0-------0-------0------|
E|0-------0-------0-------0------|-------------------------------|

e|------- ------- ------- -------|------- ------- ------- -------|
B|-------------------------------|-------------------------------|
G|--------4---------------4------|--------2---------------2------|
D|----2-------2-------2-------2--|----2-------2-------2-------2--|
A|2---------------2--------------|0---------------0--------------|
E|-------------------------------|-------------------------------|
  you                         will        me      more    than
                                  love

  D                               Gm              A
e|2------ 2------ 2---2-- 2------|3---3-- 3------ 0---0-- 0------|
B|3-------3-------3---3---3------|3---3---3-------2---2---2------|
G|2-------2-------2---2---2------|3---3---3-------2---2---2------|
D|0-------0-------0---0---0------|5---5---5-------2---2---2------|
A|-------------------------------|5---5---5-------0---0---0------|
E|-------------------------------|3---3---3----------------------|

e|------- 2------ 2------ 2------|6------ ----6-- 5------ ----5--|
B|----3-------3-------3----------|----3---------------5----------|
G|-------------------------------|-------------------------------|
D|0------------------------------|-------------------------------|
A|-------------------------------|-------------------------------|
E|-------------------------------|-------------------------------|
  her                                                     If  I


  D               Em              F#m
e|2------ 2------ 0------ 0------|2------ 2------ 2---2-- 2------|
B|3-------3-------0-------0------|2-------2-------2---2---2------|
G|2-------2-------0-------0------|2-------2-------2---2---2------|
D|0-------0-------2-------2------|4-------4-------4---4---4------|
A|----------------2-------2------|4-------4-------4---4---4------|
E|----------------0-------0------|2-------2-------2---2---2------|

e|------- 2------ ------- 0------|------- 2------ ------- 2------|
B|----3-------3-------0-------0--|----2-------2-------2-------2--|
G|-------------------------------|-------------------------------|
D|0---------------2--------------|4---------------4--------------|
A|-------------------------------|-------------------------------|
E|-------------------------------|-------------------------------|
  trust           in              you                         oh


  Em                              A
e|0------ 0------ 0------ 0------|0------ 0------ 0---0-- 0------|
B|0-------0-------0-------0------|2-------2-------2---2---2------|
G|0-------0-------0-------0------|2-------2-------2---2---2------|
D|2-------2-------2-------2------|2-------2-------2---2---2------|
A|2-------2-------2-------2------|0-------0-------0---0---0------|
E|0-------0-------0-------0------|-------------------------------|

e|------- ------- ------- -------|------- ------- ------- -------|
B|-------------------------------|-------------------------------|
G|--------4---------------4------|--------2---------------2------|
D|----2-------2-------2-------2--|----2-------2-------2-------2--|
A|2---------------2--------------|0---------------0--------------|
E|-------------------------------|-------------------------------|
  please                      don't       and     hide    If  I
                                  run

  D               Em              F#m
e|2------ 2------ 0------ 0------|2------ 2---2-- 2------ 2------|
B|3-------3-------0-------0------|2-------2---2---2-------2------|
G|2-------2-------0-------0------|2-------2---2---2-------2------|
D|0-------0-------2-------2------|4-------4---4---4-------4------|
A|----------------2-------2------|4-------4---4---4-------4------|
E|----------------0-------0------|2-------2---2---2-------2------|

e|------- 2------ ------- 0------|------- 2------ ------- 2------|
B|----3-------3-------0-------0--|----2-------2-------2-------2--|
G|-------------------------------|-------------------------------|
D|0---------------2--------------|4---------------4--------------|
A|-------------------------------|-------------------------------|
E|-------------------------------|-------------------------------|
  love            you             too                         oh


  Em                              A
e|0------ 0------ 0------ 0------|0------ 0------ 0---0-- 0------|
B|0-------0-------0-------0------|2-------2-------2---2---2------|
G|0-------0-------0-------0------|2-------2-------2---2---2------|
D|2-------2-------2-------2------|2-------2-------2---2---2------|
A|2-------2-------2-------2------|0-------0-------0---0---0------|
E|0-------0-------0-------0------|-------------------------------|

e|------- ------- ------- -------|------- ------- ------- -------|
B|-------------------------------|-------------------------------|
G|--------4---------------4------|--------2---------------2------|
D|----2-------2-------2-------2--|----2-------2-------2-------2--|
A|2---------------2--------------|0---------------0--------------|
E|-------------------------------|-------------------------------|
  please                      don't       my      pride   like
                                  hurt

  D
e|2------ 2------ 2---2-- 2------|2------ 2------ 2---2-- 2------|
B|3-------3-------3---3---3------|3-------3-------3---3---3------|
G|2-------2-------2---2---2------|2-------2-------2---2---2------|
D|0-------0-------0---0---0------|0-------0-------0---0---0------|
A|-------------------------------|-------------------------------|
E|-------------------------------|-------------------------------|

e|------- ------- ------- -------|------- ------- ------- -------|
B|-------------------------------|-------------------------------|
G|--------2---------------2------|--------2---------------2------|
D|----0-------0-------0-------0--|----0-------0-------0-------0--|
A|0---------------0--------------|0---------------0--------------|
E|-------------------------------|-------------------------------|
  her                    'cause   couldn't        stand   the
                              I                               pain

  G                               Gm
e|3------ 3---3-- 3---3-- 3------|3------ 3------ 3---3-- 3------|
B|3-------3---3---3---3---3------|3-------3-------3---3---3------|
G|4-------4---4---4---4---4------|3-------3-------3---3---3------|
D|5-------5---5---5---5---5------|5-------5-------5---5---5------|
A|5-------5---5---5---5---5------|5-------5-------5---5---5------|
E|3-------3---3---3---3---3------|3-------3-------3---3---3------|

e|------- ------- ------- -------|------- ------- ------- -------|
B|-------------------------------|-------------------------------|
G|--------0---------------0------|-------------------------------|
D|----0-------0-------0----------|--------3---------------3------|
A|-------------------------------|----5-------5-------5----------|
E|3---------------3--------------|3---------------3--------------|
                          and I                           would
                                                              be

                                  D
e|3------ 3---3-- 3---3-- 3------|2------ 2---2-- 2------ 2------|
B|3-------3---3---3---3---3------|3-------3---3---3-------3------|
G|3-------3---3---3---3---3------|2-------2---2---2-------2------|
D|5-------5---5---5---5---5------|0-------0---0---0-------0------|
A|5-------5---5---5---5---5------|-------------------------------|
E|3-------3---3---3---3---3------|-------------------------------|

e|------- ------- ------- -------|------- 2------ 2------ -------|
B|-------------------------------|------------3------------------|
G|-------------------------------|----2--------------------------|
D|--------3---------------3------|0------------------------------|
A|----5-------5-------5-------5--|-------------------------------|
E|3---------------3--------------|-------------------------------|
  sad     If      our     new     love                    was in


  A                               D               Em
e|0------ 0---0-- 0---0-- 0------|2------ 2---2-- 0---0-- 0------|
B|2-------2---2---2---2---2------|3-------3---3---0---0---0------|
G|2-------2---2---2---2---2------|2-------2---2---0---0---0------|
D|2-------2---2---2---2---2------|0-------0---0---2---2---2------|
A|0-------0---0---0---0---0------|----------------2---2---2------|
E|-------------------------------|----------------0---0---0------|

e|------- ------- ------- -------|------- 2------ ------- 0------|
B|-------------------------------|----3-------3-------0-------0--|
G|-------------------------------|-------------------------------|
D|-------------------------------|0---------------2--------------|
A|-------------------------------|-------------------------------|
E|-------------------------------|-------------------------------|
  vain                    So  I   hope            you


  F#m                             Em
e|2------ 2---2-- 2------ 2------|0------ 0---0-- 0---0-- 0------|
B|2-------2---2---2-------2------|0-------0---0---0---0---0------|
G|2-------2---2---2-------2------|0-------0---0---0---0---0------|
D|4-------4---4---4-------4------|2-------2---2---2---2---2------|
A|4-------4---4---4-------4------|2-------2---2---2---2---2------|
E|2-------2---2---2-------2------|0-------0---0---0---0---0------|

e|------- 2------ ------- 2------|------- ------- ------- -------|
B|----2-------2-------2-------2--|-------------------------------|
G|-------------------------------|--------4---------------4------|
D|4---------------4--------------|----2-------2-------2-------2--|
A|-------------------------------|2---------------2--------------|
E|-------------------------------|-------------------------------|
  see                     that    I                           would


  A                               D               Em
e|0------ 0------ 0------ 0------|2------ 2------ 0------ 0------|
B|2-------2-------2-------2------|3-------3-------0-------0------|
G|2-------2-------2-------2------|2-------2-------0-------0------|
D|2-------2-------2-------2------|0-------0-------2-------2------|
A|0-------0-------0-------0------|----------------2-------2------|
E|-------------------------------|----------------0-------0------|

e|------- ------- ------- -------|------- 2------ ------- 0------|
B|-------------------------------|----3-------3-------0-------0--|
G|--------2---------------2------|-------------------------------|
D|----2-------2-------2-------2--|0---------------2--------------|
A|0---------------0--------------|-------------------------------|
E|-------------------------------|-------------------------------|
  love    to      love    you     and             that


  F#m                             Em
e|2------ 2---2-- 2---2-- 2------|0------ 0---0-- 0---0-- 0------|
B|2-------2---2---2---2---2------|0-------0---0---0---0---0------|
G|2-------2---2---2---2---2------|0-------0---0---0---0---0------|
D|4-------4---4---4---4---4------|2-------2---2---2---2---2------|
A|4-------4---4---4---4---4------|2-------2---2---2---2---2------|
E|2-------2---2---2---2---2------|0-------0---0---0---0---0------|

e|------- 2------ ------- 2------|------- ------- ------- -------|
B|----2-------2-------2-------2--|-------------------------------|
G|-------------------------------|--------4---------------4------|
D|4---------------4--------------|----2-------2-------2-------2--|
A|-------------------------------|2---------------2--------------|
E|-------------------------------|-------------------------------|
  she                     will    cry                        when


                                                                                         
    A                               D
e|0------ 0------ 0---0-- 0------|2------ 2---2-- 2---2-- 2------|
B|2-------2-------2---2---2------|3-------3---3---3---3---3------|
G|2-------2-------2---2---2------|2-------2---2---2---2---2------|
D|2-------2-------2---2---2------|0-------0---0---0---0---0------|
A|0-------0-------0---0---0------|-------------------------------|
E|-------------------------------|-------------------------------|

e|------- ------- ------- -------|------- ------- ------- -------|
B|-------------------------------|-------------------------------|
G|--------2---------------2------|--------2---------------2------|
D|----2-------2-------2-------2--|----0-------0-------0-------0--|
A|0---------------0--------------|0---------------0--------------|
E|-------------------------------|-------------------------------|
  she     learns  we  are     two                         'cause I


                                  G
e|2------ 2---2-- 2---2-- 2------|3------ 3------ 3---3-- 3------|
B|3-------3---3---3---3---3------|3-------3-------3---3---3------|
G|2-------2---2---2---2---2------|4-------4-------4---4---4------|
D|0-------0---0---0---0---0------|5-------5-------5---5---5------|
A|-------------------------------|5-------5-------5---5---5------|
E|-------------------------------|3-------3-------3---3---3------|

e|------- ------- ------- -------|------- ------- ------- -------|
B|-------------------------------|-------------------------------|
G|--------2---------------2------|--------0---------------0------|
D|----0-------0-------0-------0--|----0-------0-------0-------0--|
A|0---------------0--------------|-------------------------------|
E|-------------------------------|3---------------3--------------|
  couldn't        stand   the pain                        and I


  Gm
e|3------ 3------ 3---3-- 3---3--|3------ 3------ 3---3-- 3------|
B|3-------3-------3---3---3---3--|3-------3------ 3---3---3------|
G|3-------3-------3---3---3---3--|3-------3-------3---3---3------|
D|5-------5-------5---5---5---5--|3-------3-------3---3---3------|
A|5-------5-------5---5---5---5--|5-------5-------5---5---5------|
E|3-------3-------3---3---3---3--|3-------3-------3---3---3------|

e|------- ------- ------- -------|------- ------- ------- -------|
B|-------------------------------|-------------------------------|
G|-------------------------------|-------------------------------|
D|--------3---------------3------|--------3---------------3------|
A|----5-------5-------5-------5--|----5-------5-------5-------5--|
E|3---------------3--------------|3---------------3--------------|
                         would    sad     If      our     new
                              be

  D                               A
e|2------ 2---2-- 2---2-- 2------|0---0-- 0---0-- 0------ -------|
B|3-------3---3---3---3---3------|2---2---2---2---2--------------|
G|2-------2---2---2---2---2------|2---2---2---2---2--------------|
D|0-------0---0---0---0---0------|2---2---2---2---2--------------|
A|-------------------------------|0---0---0---0---0--------------|
E|-------------------------------|-------------------------------|

e|------- 2------ 2------ -------|----0-- ----0-- ------- -------|
B|-----3------3------------------|--------2-------2--------------|
G|-------------------------------|-------------------------------|
D|0------------------------------|-------------------------------|
A|-------------------------------|0------------------------------|
E|-------------------------------|-------------------------------|
  love                    was in  vain                    So  I


  D               Em              F#m
e|2------ 2------ 0------ 0------|2------ 2------ 2---2-- 2------|
B|3-------3-------0-------0------|2-------2-------2---2---2------|
G|2-------2-------0-------0------|2-------2-------2---2---2------|
D|0-------0-------2-------2------|4-------4-------4---4---4------|
A|----------------2-------2------|4-------4-------4---4---4------|
E|----------------0-------0------|2-------2-------2---2---2------|

e|------- 2------ ------- 0------|------- 2------ ------- 2------|
B|----3-------3-------0-------0--|----2-------2-------2-------2--|
G|-------------------------------|-------------------------------|
D|0---------------2--------------|4---------------4--------------|
A|-------------------------------|-------------------------------|
E|-------------------------------|-------------------------------|
  hope            you             see                     that


  Em                              A
e|0------ 0------ 0------ 0------|0------ 0------ 0---0-- 0------|
B|0-------0-------0-------0------|2-------2-------2---2---2------|
G|0-------0-------0-------0------|2-------2-------2---2---2------|
D|2-------2-------2-------2------|2-------2-------2---2---2------|
A|2-------2-------2-------2------|0-------0-------0---0---0------|
E|0-------0-------0-------0------|-------------------------------|

e|------- ------- ------- -------|------- ------- ------- -------|
B|-------------------------------|-------------------------------|
G|--------4---------------4------|--------2---------------2------|
D|----2-------2-------2-------2--|----2-------2-------2-------2--|
A|2---------------2--------------|0---------------0--------------|
E|-------------------------------|-------------------------------|
  I                           would       to      love    you
                                  love

  D               Em              F#m
e|2------ 2------ 0------ 0------|2------ 2------ 2---2-- 2------|
B|3-------3-------0-------0------|2-------2-------2---2---2------|
G|2-------2-------0-------0------|2-------2-------2---2---2------|
D|0-------0-------2-------2------|4-------4-------4---4---4------|
A|----------------2-------2------|4-------4-------4---4---4------|
E|----------------0-------0------|2-------2-------2---2---2------|

e|------- 2------ ------- 0------|------- 2------ ------- 2------|
B|----3-------3-------0-------0--|----2-------2-------2-------2--|
G|-------------------------------|-------------------------------|
D|0---------------2--------------|4---------------4--------------|
A|-------------------------------|-------------------------------|
E|-------------------------------|-------------------------------|
  and             that            she                     will


  Em                              A
e|0------ 0------ 0------ 0------|0------ 0------ 0---0-- 0------|
B|0-------0-------0-------0------|2-------2-------2---2---2------|
G|0-------0-------0-------0------|2-------2-------2---2---2------|
D|2-------2-------2-------2------|2-------2-------2---2---2------|
A|2-------2-------2-------2------|0-------0-------0---0---0------|
E|0-------0-------0-------0------|-------------------------------|

e|------- ------- ------- -------|------- ------- ------- -------|
B|-------------------------------|-------------------------------|
G|--------4---------------4------|--------2---------------2------|
D|----2-------2-------2-------2--|----2-------2-------2-------2--|
A|2---------------2--------------|0---------------0--------------|
E|-------------------------------|-------------------------------|
  cry                         when        learns  we  are     two
                                  she

  D                               Gm
e|2------ 2------ 2---2-- 2------|3------ 3---3-- 3---3-- 3------|
B|3-------3-------3---3---3------|3-------3---3---3---3---3------|
G|2-------2-------2---2---2------|3-------3---3---3---3---3------|
D|0-------0-------0---0---0------|5-------5---5---5---5---5------|
A|-------------------------------|5-------5---5---5---5---5------|
E|-------------------------------|3-------3---3---3---3---3------|

e|------- 2------ ------- 5------|------- ------- ------- -------|
B|----3-------3-------3----------|-------------------------------|
G|-------------------------------|--------0---------------0------|
D|----------------------------0--|----0-------0-------0----------|
A|0---------------0--------------|-------------------------------|
E|-------------------------------|3---------------3--------------|
                          If  I   fell    in      love    with
                                                              you

  D                               Gm
e|2------ 2------ 2------ -------|3------ 3------ 3---3-- 3------|
B|3-------3-------3--------------|3-------3-------3---3---3------|
G|2-------2-------2--------------|3-------3-------3---3---3------|
D|0-------0-------0--------------|5-------5-------5---5---5------|
A|-------------------------------|5-------5-------5---5---5------|
E|-------------------------------|3-------3-------3---3---3------|

e|------- 2------ 2------ -------|------- ------- 10----- 12-----|
B|------------3-----------10-----|11------13---------------------|
G|----2--------------------------|-----------------7-------9-----|
D|0------------------------7-----|-8------10---------------------|
A|-------------------------------|-------------------------------|
E|-------------------------------|-------------------------------|


  (.
  D
e|2------ ------- ------- -------|------- ------- ------- -------|
B|3------------------------------|-------------------------------|
G|2------------------------------|-------------------------------|
D|0------------------------------|-------------------------------|
A|-------------------------------|-------------------------------|
E|-------------------------------|-------------------------------|


e|14----- ------- ------- -------|------- ------- ------- -------|
B|-------------------------------|-------------------------------|
G|11-----------------------------|-------------------------------|
D|-------------------------------|-------------------------------|
A|-------------------------------|-------------------------------|
E|-------------------------------|-------------------------------|




        B  Bend
        R  Release
        /  slide up
        \  slide down
        H  hammer-on
        P  pull-off
        ~  vibrato
        +  harmonic
        x  Mute note
        . - play note like a dot in standard notation
        ^ - ties two notes together
        (. Pause

  -------------------------------------------------------------------

  THE BEATLES - I'M HAPPY JUST TO DANCE WITH YOU (Lennon & McCartney)
                From A HARD DAY'S NIGHT album. Released March 20th
                1964.

  -------------------------------------------------------------------

  Tabbed by:PJVillanueva



  Before this dance is through
  I think I'll love you too
  I'm so happy when you dance with me
  I don't want to kiss or hold your hand
  If its funny try and understand
  There is really nothing else I'd rather do
  'cause I'm happy just to dance with you

  I don't need to hug or hold you tight
  I just want to dance with you all night
  In this world there's nothing I would rather do
  'cause I'm happy just to dance with you

  Just to dance with you
  Is everything I need
  Before this dance is through
  I think I'll love you too
  I'm so happy when you dance with me

  If somebody tries to take my place
  Let's pretend we just can't see his face
  In this world there's nothing I would rather do
  'cause I'm happy just to dance with you

  Just to dance with you
  Is everything I need
  Before this dance is through
  I think I'll love you too
  I'm so happy when you dance with me

  If somebody tries to take my place
  Let's pretend we just can't see his face
  In this world there's nothing I would rather do
  I discovered I'm in love with you
  'cause I'm happy just to dance with you




  C#m                             F#m         Ab
e|4------ ----4-- ------- -------|2------ ----4-- ----4-- ----4--|
B|5-----------5------------------|2-----------4-------4-------4--|
G|6-----------6------------------|2-----------5-------5-------5--|
D|6-----------6------------------|4-----------6-------6-------6--|
A|4-----------4------------------|4-----------6-------6-------6--|
E|-------------------------------|2-----------4-------4-------4--|


  C#m                             F#m         Ab
e|4------ ----4-- ----4-- 4------|2------ ----4-- ----4-- ----4--|
B|5-----------5-------5---5------|2-----------4-------4-------4--|
G|6-----------6-------6---6------|2-----------5-------5-------5--|
D|6-----------6-------6---6------|4-----------6-------6-------6--|
A|4-----------4-------4---4------|4-----------6-------6-------6--|
E|-------------------------------|2-----------4-------4-------4--|
                                                      Before  this

  C#m                             F#m               Ab
e|4-----4 4---4-- ------- -------|2-----2 2---2-- --4-4-- 4------|
B|5-----5-5---5------------------|2-----2-2---2-----4-4---4------|
G|6-----6-6---6------------------|2-----2-2---2-----5-5---5------|
D|6-----6-6---6------------------|4-----4-4---4-----6-6---6------|
A|4-----4-4---4------------------|4-----4-4---4-----6-6---6------|
E|-------------------------------|2-----2-2---2-----4-4---4------|
  dance is    through I   think   love  you   too         I'm so
                              I'll


  A6                B6            E                 B
e|2-----2 2---2-- --4-4-- 4---4--|4-----4 4---4-- --2-2-- 2------|
B|2-----2-2---2-----4-4---4---4--|5-----5-5---5-----4-4---4------|
G|2-----2-2---2-----4-4---4---4--|4-----4-4---4-----4-4---4------|
D|2-----2-2---2-----4-4---4---4--|6-----6-6---6-----4-4---4------|
A|0-----0-0---0-----2-2---2---2--|7-----7-7---7-----2-2---2------|
E|-------------------------------|-------------------------------|
  happy   when    dance       with                        I   don't
              you                 me


  E                 Abm           F#m               B
e|4-----4 4---4-- --4-4-- 4------|2-----2 2---2-- --2-2-- 2------|
B|5-----5-5---5-----4-4---4------|2-----2-2---2-----4-4---4------|
G|4-----4-4---4-----4-4---4------|2-----2-2---2-----4-4---4------|
D|6-----6-6---6-----6-6---6------|4-----4-4---4-----4-4---4------|
A|7-----7-7---7-----6-6---6------|4-----4-4---4-----2-2---2------|
E|-------------------------------|-------------------------------|
  want    kiss    hold        hand                        If  it's
      to      or      your

  E                 Abm           F#m               B
e|4-----4 4---4-- --4-4-- 4------|2-----2 2---2-- --2-2-- 2------|
B|5-----5-5---5-----4-4---4------|2-----2-2---2-----4-4---4------|
G|4-----4-4---4-----4-4---4------|2-----2-2---2-----4-4---4------|
D|6-----6-6---6-----6-6---6------|4-----4-4---4-----4-4---4------|
A|7-----7-7---7-----6-6---6------|4-----4-4---4-----2-2---2------|
E|-------------------------------|-------------------------------|
  funny   try and under.......stand                       there is


  A                 F#m           E                 C#m
e|0-----0 0---0-- --2-2-- 2------|4-----4 4---4-- --4-4-- 4------|
B|2-----2-2---2-----2-2---2------|5-----5-5---5-----5-5---5------|
G|2-----2-2---2-----2-2---2------|4-----4-4---4-----6-6---6------|
D|2-----2-2---2-----4-4---4------|6-----6-6---6-----6-6---6------|
A|0-----0-0---0-----4-4---4------|7-----7-7---------4-4---4------|
E|-------------------------------|------------7------------------|
  really  nothing else    rather  do                     'cause
                      I'd                                     I'm


  A                 B             E                 B
e|0-----0 0---0-- --2-2-- 2------|4-----4 4---4-- --2-2-- 2------|
B|2-----2-2---2-----4-4---4------|5-----5-5---5-----4-4---4------|
G|2-----2-2---2-----4-4---4------|4-----4-4---4-----4-4---4------|
D|2-----2-2---2-----4-4---4------|6-----6-6---6-----4-4---4------|
A|0-----0-0---0-----2-2---2------|7-----7-7---7-----2-2---2------|
E|-------------------------------|-------------------------------|
                  Baug5
e|------- ------- 3------ -------|------- ------- ------- -------|
B|----------------4--------------|-------------------------------|
G|----------------4--------------|-------------------------------|
D|----------------5--------------|-------------------------------|
  happy   just    dance       with                        I   don't
              to                  you


  E                 Ab            F#m               B
e|4-----4 4---4-- --4-4-- 4------|2-----2 2---2-- --2-2-- 2------|
B|5-----5-5---5-----4-4---4------|2-----2-2---2-----4-4---4------|
G|4-----4-4---4-----4-4---4------|2-----2-2---2-----4-4---4------|
D|6-----6-6---6-----6-6---6------|4-----4-4---4-----4-4---4------|
A|7-----7-7---7-----6-6---6------|4-----4-4---4-----2-2---2------|
E|-------------------------------|-------------------------------|
  need    hug or  hold        tight                       I   just
      to              you


  E                 Ab            F#m               B
e|4-----4 4---4-- --4-4-- 4------|2-----2 2---2-- --2-2-- 2------|
B|5-----5-5---5-----4-4---4------|2-----2-2---2-----4-4---4------|
G|4-----4-4---4-----4-4---4------|2-----2-2---2-----4-4---4------|
D|6-----6-6---6-----6-6---6------|4-----4-4---4-----4-4---4------|
A|7-----7-7---7-----6-6---6------|4-----4-4---4-----2-2---2------|
E|-------------------------------|-------------------------------|
  want    dance   you all     night                       In  this
      to      with


  A                 F#m           E                 Ab
e|0-----0 0---0-- --2-2-- 2------|4-----4 4---4-- --4-4-- 4------|
B|2-----2-2---2-----2-2---2------|5-----5-5---5-----5-5---5------|
G|2-----2-2---2-----2-2---2------|4-----4-4---4-----6-6---6------|
D|2-----2-2---2-----4-4---4------|6-----6-6---6-----6-6---6------|
A|0-----0-0---0-----4-4---4------|7-----7-7---------4-4---4------|
E|-------------------------------|------------7------------------|
  world   nothing I   would       do                     'cause
      there's             rather                              I'm


  A                 B             C#m
e|0-----0 0---0-- --2-2-- 2------|4------ ----4-- --4-4-- 4------|
B|2-----2-2---2-----4-4---4------|5-----------5-----5-5---5------|
G|2-----2-2---2-----4-4---4------|6-----------6-----6-6---6------|
D|2-----2-2---2-----4-4---4------|6-----------6-----6-6---6------|
A|0-----0-0---0-----2-2---2------|4-----------4-----4-4---4------|
E|-------------------------------|-------------------------------|
  happy   just    dance       with                        Just
              to                  you                         to


                                  F#m         Ab
e|4------ ----4-- ------- 4------|2------ ----4-- ----4-- 4------|
B|5-----------5-----------5------|2-----------4-------4---4------|
G|6-----------6-----------6------|2-----------5-------5---5------|
D|6-----------6-----------6------|4-----------6-------6---6------|
A|4-----------4-----------4------|4-----------6-------6---6------|
E|-------------------------------|2-----------4-------4---4------|
  dance       with                                            is
                  you


  C#m                             F#m         Ab
e|4------ ----4-- ------- 4------|2------ ----4-- ----4-- 4------|
B|5-----------5-----------5------|2-----------4-------4---4------|
G|6-----------6-----------6------|2-----------5-------5---5------|
D|6-----------6-----------6------|4-----------6-------6---6------|
A|4-----------4-----------4------|4-----------6-------6---6------|
E|-------------------------------|2-----------4-------4---4------|
  everything              I       need                Before  this

  C#m                             F#m         Ab
e|4------ ----4-- ----4-- 4------|2------ ----4-- ----4-- 4------|
B|5-----------5-------5---5------|2-----------4-------4---4------|
G|6-----------6-------6---6------|2-----------5-------5---5------|
D|6-----------6-------6---6------|4-----------6-------6---6------|
A|4-----------4-------4---4------|4-----------6-------6---6------|
E|-------------------------------|2-----------4-------4---4------|
  dance       through     think   love        too         I'm so
      is              I       I'll    you


  A6          B6                  E           B
e|2------ ----4-- ------- 4------|4------ ----2-- ----2-- 2------|
B|2-----------4-----------4------|5-----------4-------4---4------|
G|2-----------4-----------4------|4-----------4-------4---4------|
D|2-----------4-----------4------|6-----------4-------4---4------|
A|0-----------2-----------2------|7-----------2-------2---2------|
E|-------------------------------|-------------------------------|
  happy   when    dance       with                        If  somebody
              you                 me


  E                 Abm           F#m               B
e|4-----4 4---4-- --4-4-- 4------|2-----2 2---2-- --2-2-- 2------|
B|5-----5-5---5-----4-4---4------|2-----2-2---2-----4-4---4------|
G|4-----4-4---4-----4-4---4------|2-----2-2---2-----4-4---4------|
D|6-----6-6---6-----6-6---6------|4-----4-4---4-----4-4---4------|
A|7-----7-7---7-----6-6---6------|4-----4-4---4-----2-2---2------|
E|-------------------------------|-------------------------------|
          tries   take        place                       Let's
              to      my                                      pretend


  E                 Abm           F#m               B
e|4-----4 4---4-- --4-4-- 4------|2-----2 2---2-- --2-2-- 2------|
B|5-----5-5---5-----4-4---4------|2-----2-2---2-----4-4---4------|
G|4-----4-4---4-----4-4---4------|2-----2-2---2-----4-4---4------|
D|6-----6-6---6-----6-6---6------|4-----4-4---4-----4-4---4------|
A|7-----7-7---7-----6-6---6------|4-----4-4---4-----2-2---2------|
E|-------------------------------|-------------------------------|
      we  just    see his     face                        In  this
              can't


  A                 F#m           E                 C#m
e|0-----0 0---0-- --2-2-- 2------|4-----4 4---4-- --4-4-- 4------|
B|2-----2-2---2-----2-2---2------|5-----5-5---5-----5-5---5------|
G|2-----2-2---2-----2-2---2------|4-----4-4---4-----6-6---6------|
D|2-----2-2---2-----4-4---4------|6-----6-6---6-----6-6---6------|
A|0-----0-0---0-----4-4---4------|7-----7-7---------4-4---4------|
E|-------------------------------|------------7------------------|
  world   nothibg I   would       do                     'cause
      there's             rather                              I'm


  A                 B             C#m
e|0-----0 0---0-- --2-2-- 2------|4------ ----4-- --4-4-- 4------|
B|2-----2-2---2-----4-4---4------|5-----------5-----5-5---5------|
G|2-----2-2---2-----4-4---4------|6-----------6-----6-6---6------|
D|2-----2-2---2-----4-4---4------|6-----------6-----6-6---6------|
A|0-----0-0---0-----2-2---2------|4-----------4-----4-4---4------|
E|-------------------------------|-------------------------------|
                  Baug5
e|------- ------- 3------ -------|------- ------- ------- -------|
B|----------------4--------------|-------------------------------|
G|----------------4--------------|-------------------------------|
D|----------------5--------------|-------------------------------|
  happy   just    dance       with                        Just
              to                  you                         to


                                  F#m         Ab
e|4------ ----4-- ------- 4------|2------ ----4-- ----4-- 4------|
B|5-----------5-----------5------|2-----------4-------4---4------|
G|6-----------6-----------6------|2-----------5-------5---5------|
D|6-----------6-----------6------|4-----------6-------6---6------|
A|4-----------4-----------4------|4-----------6-------6---6------|
E|-------------------------------|2-----------4-------4---4------|
  dance       with                                            is
                  you


  C#m                             F#m         Ab
e|4------ ----4-- ------- 4------|2------ ----4-- ----4-- 4------|
B|5-----------5-----------5------|2-----------4-------4---4------|
G|6-----------6-----------6------|2-----------5-------5---5------|
D|6-----------6-----------6------|4-----------6-------6---6------|
A|4-----------4-----------4------|4-----------6-------6---6------|
E|-------------------------------|2-----------4-------4---4------|
  everything              I       need                Before  this

  C#m                             F#m         Ab
e|4------ ----4-- ----4-- 4------|2------ ----4-- ----4-- 4------|
B|5-----------5-------5---5------|2-----------4-------4---4------|
G|6-----------6-------6---6------|2-----------5-------5---5------|
D|6-----------6-------6---6------|4-----------6-------6---6------|
A|4-----------4-------4---4------|4-----------6-------6---6------|
E|-------------------------------|2-----------4-------4---4------|
  dance       through I   think   love        too         I'm so
      is                      I'll    you


  A6          B6                  E           B
e|2------ ----4-- ------- 4------|4------ ----2-- --2-2-- 2------|
B|2-----------4-----------4------|5-----------4-----4-4---4------|
G|2-----------4-----------4------|4-----------4-----4-4---4------|
D|2-----------4-----------4------|6-----------4-----4-4---4------|
A|0-----------2-----------2------|7-----------2-----2-2---2------|
E|-------------------------------|-------------------------------|
  happy   when    dance       with                        If  somebody
              you                 me


  E                 Abm           F#m               B
e|4-----4 4---4-- --4-4-- 4------|2-----2 2---2-- --2-2-- 2------|
B|5-----5-5---5-----4-4---4------|2-----2-2---2-----4-4---4------|
G|4-----4-4---4-----4-4---4------|2-----2-2---2-----4-4---4------|
D|6-----6-6---6-----6-6---6------|4-----4-4---4-----4-4---4------|
A|7-----7-7---7-----6-6---6------|4-----4-4---4-----2-2---2------|
E|-------------------------------|-------------------------------|
          tries   take        place                       Let's
              to      my                                      pretend


  E                 Abm           F#m               B
e|4-----4 4---4-- --4-4-- 4------|2-----2 2---2-- --2-2-- 2------|
B|5-----5-5---5-----4-4---4------|2-----2-2---2-----4-4---4------|
G|4-----4-4---4-----4-4---4------|2-----2-2---2-----4-4---4------|
D|6-----6-6---6-----6-6---6------|4-----4-4---4-----4-4---4------|
A|7-----7-7---7-----6-6---6------|4-----4-4---4-----2-2---2------|
E|-------------------------------|-------------------------------|
      we  just    see his     face                        In  this
              can't


  A                 F#m           E                 Abm
e|0-----0 0---0-- --2-2-- 2------|4-----4 4---4-- --4-4-- 4------|
B|2-----2-2---2-----2-2---2------|5-----5-5---5-----5-5---5------|
G|2-----2-2---2-----2-2---2------|4-----4-4---4-----6-6---6------|
D|2-----2-2---2-----4-4---4------|6-----6-6---6-----6-6---6------|
A|0-----0-0---0-----4-4---4------|7-----7-7---------4-4---4------|
E|-------------------------------|------------7------------------|
  world   nothibg I   would       do                      I   discovered
      there's             rather

  A                 Baug5         C#m
e|0-----0 0---0-- --3-3-- 3------|4------ ----4-- ------- 4------|
B|2-----2-2---2-----4-4---4------|5-----------5-----------5------|
G|2-----2-2---2-----4-4---4------|6-----------6-----------6------|
D|2-----2-2---2-----5-5---5------|6-----------6-----------6------|
A|0-----0-0---0------------------|4-----------4-----------4------|
E|-------------------------------|-------------------------------|
          I'm in love         with                       'cause
                                  you                         I'm


  A               Baug5           C#m
e|0------ ------- 3------ 3------|4------ ----4-- --4-4-- 4------|
B|2---------------4-------4------|5-----------5-----5-5---5------|
G|2---------------4-------4------|6-----------6-----6-6---6------|
D|2---------------5-------5------|6-----------6-----6-6---6------|
A|0------------------------------|4-----------4-----4-4---4------|
E|-------------------------------|-------------------------------|
  happy   just    dance       with
              to                  you


  F#m         Ab                  A6          B6
e|2------ ----4-- ------- -------|5------ ----7-- ----7-- 7------|
B|2-----------4------------------|7-----------9-------9---9------|
G|2-----------5------------------|6-----------8-------8---8------|
D|4-----------6------------------|7-----------9-------9---9------|
A|4-----------6------------------|0------------------------------|
E|2-----------4------------------|------------7-------7---7------|

  (.
  E
e|9------ ------- ------- -------|------- ------- ------- -------|
B|9------------------------------|-------------------------------|
G|9------------------------------|-------------------------------|
D|9------------------------------|-------------------------------|
A|7------------------------------|-------------------------------|
E|-------------------------------|-------------------------------|




        B  Bend
        R  Release
        /  slide up
        \  slide down
        H  hammer-on
        P  pull-off
        ~  vibrato
        +  harmonic
        x  Mute note
        . - play note like a dot in standard notation
        ^ - ties two notes together
        (. Pause


  -----------------------------------------------------------------

  THE BEATLES - AND I LOVE HER (Lennon/McCartney) From A HARD DAY'S
                NIGHT album. Released 20th March 1964.

  -----------------------------------------------------------------

  Tabbed by:PJVillanueva



  I give her all my love
  That's all I do
  And if you saw my love
  You'd love her too
  I love her

  She gives me ev'rything
  And tenderly
  The kiss my lover brings
  She brings to me
  And I love her

  A love like ours
  Could never die
  As long as I
  Have you near me

  Bright are the stars that shine
  Dark is the sky
  I know this love of mine
  Will never die
  And I love her

  Bright are the stars that shine
  Dark is the sky
  I know this love of mine
  Will never die
  And I love her



e|------- ------- ------- -------|------- ------- ------- -------|
B|-------------------------------|-------------------------------|
G|-------------------------------|-------------------------------|
D|-------------------------------|------------------------2---1--|
A|-------------------------------|--------------------2----------|
E|-------------------------------|-------------------------------|

  F#m
e|2------ 2------ 2---2-- 2---2--|2------ 2------ 2---2-- 2------|
B|2-------2-------2---2---2---2--|2-------2-------2---2---2------|
G|2-------2-------2---2---2---2--|2-------2-------2---2---2------|
D|4-------4-------4---4---4---4--|4-------4-------4---4---4------|
A|4-------4-------4---4---4---4--|4-------4-------4---4---4------|
E|2-------2-------2---2---2---2--|2-------2-------2---2---2------|

e|------- ------- ------- -------|------- ------- ------- -------|
B|-------------------------------|-------------------------------|
G|-------------------------------|-------------------------------|
D|-------------------------------|------------------------2---1--|
A|4------------------------------|--------------------2----------|
E|-------------------------------|-------------------------------|


  E6
e|0------ 0------ 0---0-- 0---0--|0------ 0------ 0---0-- 0------|
B|2-------2-------2---2---2---2--|2-------2-------2---2---2------|
G|1-------1-------1---1---1---1--|1-------1-------1---1---1------|
D|2-------2-------2---2---2---2--|2-------2-------2---2---2------|
A|2-------2-------2---2---2---2--|2-------2-------2---2---2------|
E|0-------0-------0---0---0---0--|0-------0-------0---0---0------|

e|------- ------- ------- -------|------- ------- ------- -------|
B|-------------------------------|-------------------------------|
G|-------------------------------|-------------------------------|
D|-------------------------------|------------------------2---1--|
A|4------------------------------|--------------------2----------|
E|-------------------------------|-------------------------------|


  F#m                             C#m
e|2------ 2------ 2---2-- 2------|4------ 4---4-- 4---4-- 4------|
B|2-------2-------2---2---2------|5-------5---5---5---5---5------|
G|2-------2-------2---2---2------|6-------6---6---6---6---6------|
D|4-------4-------4---4---4------|6-------6---6---6---6---6------|
A|4-------4-------4---4---4------|4-------4---4---4---4---4------|
E|2-------2-------2---2---2------|-------------------------------|

e|------- ------- ------- -------|------- ------- ------- -------|
B|-------------------------------|-------------------------------|
G|-------------------------------|-------------------------------|
D|-------------------------------|-------------------------------|
A|4------------------------------|-------------------------------|
E|-------------------------------|-------------------------------|
          I       give        all     my      love
                      her


  F#m                             C#m
e|2------ 2------ 2---2-- 2------|4------ 4------ 4---4-- 4------|
B|2-------2-------2---2---2------|5-------5-------5---5---5------|
G|2-------2-------2---2---2------|6-------6-------6---6---6------|
D|4-------4-------4---4---4------|6-------6-------6---6---6------|
A|4-------4-------4---4---4------|4-------4-------4---4---4------|
E|2-------2-------2---2---2------|-------------------------------|
          That's  all I       do

  F#m                             C#m
e|2------ 2------ 2---2-- 2------|4------ 4---4-- 4---4-- 4---0--|
B|2-------2-------2---2---2------|5-------5---5---5---5---5---0--|
G|2-------2-------2---2---2------|6-------6---6---6---6---6------|
D|4-------4-------4---4---4------|6-------6---6---6---6---6------|
A|4-------4-------4---4---4------|4-------4---4---4---4---4------|
E|2-------2-------2---2---2------|-------------------------------|
          And     If  you     saw     my      love

  A                               B
e|0------ 0------ 0---0-- 0------|2------ 2------ 2---2-- 2------|
B|2-------2-------2---2---2------|4-------4-------4---4---4------|
G|2-------2-------2---2---2------|4-------4-------4---4---4------|
D|2-------2-------2---2---2------|4-------4-------4---4---4------|
A|0-------0-------0---0---0------|2-------2-------2---2---2------|
E|-------------------------------|-------------------------------|
          You'd   love        too                     I       love
                      her


  E
e|0------ 0------ 0---0-- 0---0--|0------ 0------ 0---0-- 0------|
B|0-------0-------0---0---0---0--|0-------0-------0---0---0------|
G|1-------1-------1---1---1---1--|1-------1-------1---1---1------|
D|2-------2-------2---2---2---2--|2-------2-------2---2---2------|
A|2-------2-------2---2---2---2--|2-------2-------2---2---2------|
E|0-------0-------0---0---0---0--|0-------0-------0---0---0------|
      her

  F#m                             C#m
e|2------ 2------ 2---2-- 2------|4------ 4---4-- 4---4-- 4------|
B|2-------2-------2---2---2------|5-------5---5---5---5---5------|
G|2-------2-------2---2---2------|6-------6---6---6---6---6------|
D|4-------4-------4---4---4------|6-------6---6---6---6---6------|
A|4-------4-------4---4---4------|4-------4---4---4---4---4------|
E|2-------2-------2---2---2------|-------------------------------|

e|------- -9----- ------- -9-----|------- 9------ ------- 9------|
B|----10------10------10------10-|----9-------9-------9-------9--|
G|11--------------11-------------|9---------------9--------------|
D|-------------------------------|-------------------------------|
A|-------------------------------|-------------------------------|
E|-------------------------------|-------------------------------|
          She     gives           everything
                      me


  F#m                             C#m
e|2------ 2------ 2---2-- 2------|4------ 4------ 4---4-- 4------|
B|2-------2-------2---2---2------|5-------5-------5---5---5------|
G|2-------2-------2---2---2------|6-------6-------6---6---6------|
D|4-------4-------4---4---4------|6-------6-------6---6---6------|
A|4-------4-------4---4---4------|4-------4-------4---4---4------|
E|2-------2-------2---2---2------|-------------------------------|
          And     tenderly
e|------- -9----- ------- -9-----|------- 9------ ------- 9------|
B|----10------10------10------10-|----9-------9-------9-------9--|
G|11--------------11-------------|9---------------9--------------|
D|-------------------------------|-------------------------------|
A|-------------------------------|-------------------------------|
E|-------------------------------|-------------------------------|
          And     tenderly

  F#m                             C#m
e|2------ 2------ 2---2-- 2------|4------ 4---4-- 4---4-- 4------|
B|2-------2-------2---2---2------|5-------5---5---5---5---5------|
G|2-------2-------2---2---2------|6-------6---6---6---6---6------|
D|4-------4-------4---4---4------|6-------6---6---6---6---6------|
A|4-------4-------4---4---4------|4-------4---4---4---4---4------|
E|2-------2-------2---2---2------|-------------------------------|

e|------- -9----- ------- -9-----|------- 9------ ------- 9------|
B|----10------10------10------10-|----9-------9-------9-------9--|
G|11--------------11-------------|9---------------9--------------|
D|-------------------------------|-------------------------------|
A|-------------------------------|-------------------------------|
E|-------------------------------|-------------------------------|
          The     kiss    my      lover        brings

  A                               B
e|0------ 0------ 0---0-- 0------|2------ 2------ 2---2-- 2------|
B|2-------2-------2---2---2------|4-------4-------4---4---4------|
G|2-------2-------2---2---2------|4-------4-------4---4---4------|
D|2-------2-------2---2---2------|4-------4-------4---4---4------|
A|0-------0-------0---0---0------|2-------2-------2---2---2------|
E|-------------------------------|-------------------------------|

e|------- -9----- ------- -9-----|------- 11----- ------- 11-----|
B|----10------10------10------10-|----10------10------10------10-|
G|-9---------------9-------------|11--------------11-------------|
D|-------------------------------|-------------------------------|
A|-------------------------------|-------------------------------|
E|-------------------------------|-------------------------------|
          She             to  me                      and I   love
              brings


  E
e|0------ 0------ 0---0-- 0---0--|0------ 0------ 0---0-- 0------|
B|0-------0-------0---0---0---0--|0-------0-------0---0---0------|
G|1-------1-------1---1---1---1--|1-------1-------1---1---1------|
D|2-------2-------2---2---2---2--|2-------2-------2---2---2------|
A|2-------2-------2---2---2---2--|2-------2-------2---2---2------|
E|0-------0-------0---0---0---0--|0-------0-------0---0---0------|

e|------- 9------ ------- 9------|------- 9------ ------- -------|
B|----9-------9-------9-------9--|----9-------9-----------9------|
G|9---------------9--------------|9---------------9--------------|
D|-------------------------------|-------------------------------|
A|-------------------------------|-------------------------------|
E|-------------------------------|-------------------------------|
      her

  C#m                             B
e|4------ 4------ 4---4-- 4------|7------ 7------ 7---7-- 7------|
B|5-------5-------5---5---5------|7-------7-------7---7---7------|
G|6-------6-------6---6---6------|8-------8-------8---8---8------|
D|6-------6-------6---6---6------|9-------9-------9---9---9------|
A|4-------4-------4---4---4------|9-------9-------9---9---9------|
E|-------------------------------|7-------7-------7---7---7------|

e|4------ ------- ------- -------|2------ ------- ------- -------|
B|5------------------------------|4------------------------------|
G|6------------------------------|4------------------------------|
D|6------------------------------|4------------------------------|
A|4------------------------------|2------------------------------|
E|-------------------------------|-------------------------------|
              A   love        ours
                      like


  C#m                             G#m
e|4------ 4------ 4---4-- 4------|4------ 4------ 4---4-- 4------|
B|5-------5-------5---5---5------|4-------4-------4---4---4------|
G|6-------6-------6---6---6------|4-------4-------4---4---4------|
D|6-------6-------6---6---6------|6-------6-------6---6---6------|
A|4-------4-------4---4---4------|6-------6-------6---6---6------|
E|-------------------------------|4-------4-------4---4---4------|

e|4------ ------- ------- -------|4------ ------- ------- -------|
B|5------------------------------|4------------------------------|
G|6------------------------------|4------------------------------|
D|6------------------------------|6------------------------------|
A|4------------------------------|6------------------------------|
E|-------------------------------|4------------------------------|
          Could   never       dye

  C#m                             G#m
e|4------ 4------ 4---4-- 4------|4------ 4------ 4---4-- 4------|
B|5-------5-------5---5---5------|4-------4-------4---4---4------|
G|6-------6-------6---6---6------|4-------4-------4---4---4------|
D|6-------6-------6---6---6------|6-------6-------6---6---6------|
A|4-------4-------4---4---4------|6-------6-------6---6---6------|
E|-------------------------------|4-------4-------4---4---4------|

e|4------ ------- ------- -------|4------ ------- ------- -------|
B|5------------------------------|4------------------------------|
G|6------------------------------|4------------------------------|
D|6------------------------------|6------------------------------|
A|4------------------------------|6------------------------------|
E|-------------------------------|4------------------------------|
          As      long as     I                   have    you near
                      as


  B                               B7
e|7------ 7------ 7---7-- 7------|2------ 2------ 2------ 2------|
B|7-------7-------7---7---7------|0-------0-------0-------0------|
G|8-------8-------8---8---8------|2-------2-------2-------2------|
D|9-------9-------9---9---9------|1-------1-------1-------1------|
A|9-------9-------9---9---9------|2-------2-------2-------2------|
E|7-------7-------7---7---7------|-------------------------------|

e|2------ ------- ------- -------|2------ ------- ------- -------|
B|4------------------------------|4------------------------------|
G|4------------------------------|4------------------------------|
D|4------------------------------|4-----------------------2---1--|
A|2------------------------------|2-------------------2----------|
E|-------------------------------|-------------------------------|
      me

  F#m                             C#m
e|2------ 2------ 2---2-- 2------|4------ 4---4-- 4---4-- 4------|
B|2-------2-------2---2---2------|5-------5---5---5---5---5------|
G|2-------2-------2---2---2------|6-------6---6---6---6---6------|
D|4-------4-------4---4---4------|6-------6---6---6---6---6------|
A|4-------4-------4---4---4------|4-------4---4---4---4---4------|
E|2-------2-------2---2---2------|-------------------------------|

e|------- ------- ------- -------|------- 9------ ------- 9------|
B|-------------------------------|----9-------9-------9-------9--|
G|-------------------------------|9---------------9--------------|
D|-------------------------------|-------------------------------|
A|4------------------------------|-------------------------------|
E|-------------------------------|-------------------------------|
          Bright  are     the stars       that
                                              shine


  F#m                             C#m
e|2------ 2------ 2---2-- 2------|4------ 4------ 4---4-- 4------|
B|2-------2-------2---2---2------|5-------5-------5---5---5------|
G|2-------2-------2---2---2------|6-------6-------6---6---6------|
D|4-------4-------4---4---4------|6-------6-------6---6---6------|
A|4-------4-------4---4---4------|4-------4-------4---4---4------|
E|2-------2-------2---2---2------|-------------------------------|

e|------- -9----- ------- -9-----|------- 9------ ------- 9------|
B|----10------10------10------10-|----9-------9-------9-------9--|
G|11--------------11-------------|9---------------9--------------|
D|-------------------------------|-------------------------------|
A|-------------------------------|-------------------------------|
E|-------------------------------|-------------------------------|
          Dark    is  the     sky

  F#m                             C#m
e|2------ 2------ 2---2-- 2------|4------ 4---4-- 4---4-- 4------|
B|2-------2-------2---2---2------|5-------5---5---5---5---5------|
G|2-------2-------2---2---2------|6-------6---6---6---6---6------|
D|4-------4-------4---4---4------|6-------6---6---6---6---6------|
A|4-------4-------4---4---4------|4-------4---4---4---4---4------|
E|2-------2-------2---2---2------|-------------------------------|

e|------- -9----- ------- -9-----|------- 9------ ------- 9------|
B|----10------10------10------10-|----9-------9-------9-------9--|
G|11--------------11-------------|9---------------9--------------|
D|-------------------------------|-------------------------------|
A|-------------------------------|-------------------------------|
E|-------------------------------|-------------------------------|
          I       know    this    love        mine
                                      of


  A                               B
e|0------ 0------ 0---0-- 0------|2------ 2------ 2---2-- 2------|
B|2-------2-------2---2---2------|4-------4-------4---4---4------|
G|2-------2-------2---2---2------|4-------4-------4---4---4------|
D|2-------2-------2---2---2------|4-------4-------4---4---4------|
A|0-------0-------0---0---0------|2-------2-------2---2---2------|
E|-------------------------------|-------------------------------|

e|------- -9----- ------- -9-----|------- 11----- ------- 11-----|
B|----10------10------10------10-|----10------10------10------10-|
G|-9---------------9-------------|11--------------11-------------|
D|-------------------------------|-------------------------------|
A|-------------------------------|-------------------------------|
E|-------------------------------|-------------------------------|
          will    never       dye                     and I   love

  E
e|0------ 0------ 0---0-- 0---0--|0------ 0------ 0---0-- 0------|
B|0-------0-------0---0---0---0--|0-------0-------0---0---0------|
G|1-------1-------1---1---1---1--|1-------1-------1---1---1------|
D|2-------2-------2---2---2---2--|2-------2-------2---2---2------|
A|2-------2-------2---2---2---2--|2-------2-------2---2---2------|
E|0-------0-------0---0---0---0--|0-------0-------0---0---0------|

e|------- 9------ ------- 9------|------- 9------ ------- -------|
B|----9-------9-------9-------9--|----9-------9-----------9------|
G|9---------------9--------------|9---------------9--------------|
D|-------------------------------|-------------------------------|
A|-------------------------------|-------------------------------|
E|-------------------------------|-------------------------------|
      her

  SOLO

  Gm                              Dm
e|3------ 3------ 3---3-- 3------|1------ 1------ 1---1-- 1------|
B|3-------3-------3---3---3------|3-------3-------3---3---3------|
G|3-------3-------3---3---3------|2-------2-------2---2---2------|
D|5-------5-------5---5---5------|0-------0-------0---0---0------|
A|5-------5-------5---5---5------|-------------------------------|
E|3-------3-------3---3---3------|-------------------------------|

e|------- ------- ------- -------|------- ------- ------- -------|
B|-----------------------------5-|----3------/----6--------------|
G|------------0---2---3----------|-------------------------------|
D|-------------------------------|-------------------------------|
A|-------------------------------|-------------------------------|
E|-------------------------------|-------------------------------|


  Gm                              Dm
e|3------ 3------ 3---3-- 3------|1------ 1------ 1---1-- 1------|
B|3-------3-------3---3---3------|3-------3-------3---3---3------|
G|3-------3-------3---3---3------|2-------2-------2---2---2------|
D|5-------5-------5---5---5------|0-------0-------0---0---0------|
A|5-------5-------5---5---5------|-------------------------------|
E|3-------3-------3---3---3------|-------------------------------|

e|------- ------- ------- -------|------- ------- ------- -------|
B|-------------------------------|5-----5\3----------------------|
G|--------0-------2-------3------|-------------------------------|
D|-------------------------------|-------------------------------|
A|-------------------------------|-------------------------------|
E|-------------------------------|-------------------------------|


  Gm                              Dm
e|3------ 3------ 3---3-- 3------|1------ 1------ 1---1-- 1------|
B|3-------3-------3---3---3------|3-------3-------3---3---3------|
G|3-------3-------3---3---3------|2-------2-------2---2---2------|
D|5-------5-------5---5---5------|0-------0-------0---0---0------|
A|5-------5-------5---5---5------|-------------------------------|
E|3-------3-------3---3---3------|-------------------------------|

e|------- ------- ------- -------|------- ------- ------- -------|
B|----------------------------5--|--------3---/---6--------------|
G|--------0-------2---3----------|-------------------------------|
D|-------------------------------|-------------------------------|
A|-------------------------------|-------------------------------|
E|-------------------------------|-------------------------------|


  Bb                              C
e|1------ 1------ 1---1-- 1------|3------ 3------ 3---3-- 3------|
B|3-------3-------3---3---3------|5-------5-------5---5---5------|
G|3-------3-------3---3---3------|5-------5-------5---5---5------|
D|3-------3-------3---3---3------|5-------5-------5---5---5------|
A|1-------1-------1---1---1------|3-------3-------3---3---3------|
E|-------------------------------|-------------------------------|

e|------- ------- ------- -------|------- ------- ------- -------|
B|--------6----------------------|-------------------------------|
G|----------------7--------------|-------------------------------|
D|------------------------8------|7-----7\5----------------------|
A|-------------------------------|--------------------3-------3--|
E|-------------------------------|-------------------------------|


  F6
e|1------ 1------ 1---1-- 1---1--|1------ 1------ 1---1-- 1------|
B|3-------3-------3---3---3---3--|3-------3-------3---3---3------|
G|2-------2-------2---2---2---2--|2-------2-------2---2---2------|
D|x-------x-------x---x---x---x--|x-------x-------x---x---x------|
A|3-------3-------3---3---3---3--|3-------3-------3---3---3------|
E|1-------1-------1---1---1---1--|1-------1-------1---1---1------|

e|------- ------- ------- -------|------- ------- ------- -------|
B|-------------------------------|---------------------------------|
G|-------------------------------|---------------------------------|
D|--------7----------------------|---------------------------------|
A|5------------------------------|------------3-------0------------|
E|-------------------------------|------------------------3---1-1--|


  Gm                              Dm
e|3------ 3------ 3---3-- 3------|5------ 5---5-- 5---5-- 5------|
B|3-------3-------3---3---3------|6-------6---6---6---6---6------|
G|3-------3-------3---3---3------|7-------7---7---7---7---7------|
D|5-------5-------5---5---5------|7-------7---7---7---7---7------|
A|5-------5-------5---5---5------|5-------5---5---5---5---5------|
E|3-------3-------3---3---3------|-------------------------------|

e|------- ------- ------- -------|------- 10----- ------- 10-----|
B|-------------------------------|----10------10------10------10-|
G|-------------------------------|10--------------10-------------|
D|-------------------------------|-------------------------------|
A|-------------------------------|-------------------------------|
E|3------------------------------|-------------------------------|
          Bright  are     the stars       that
                                              shine

  Gm                              Dm
e|3------ 3------ 3---3-- 3------|5------ 5---5-- 5---5-- 5------|
B|3-------3-------3---3---3------|6-------6---6---6---6---6------|
G|3-------3-------3---3---3------|7-------7---7---7---7---7------|
D|5-------5-------5---5---5------|7-------7---7---7---7---7------|
A|5-------5-------5---5---5------|5-------5---5---5---5---5------|
E|3-------3-------3---3---3------|-------------------------------|

e|------- 10----- ------- 10-----|------- 10----- ------- 10-----|
B|----11------11------11------11-|----10------10------10------10-|
G|12--------------12-------------|10--------------10-------------|
D|-------------------------------|-------------------------------|
A|-------------------------------|-------------------------------|
E|-------------------------------|-------------------------------|
          Dark    is  the     sky

  Gm                              Dm
e|3------ 3------ 3---3-- 3------|5------ 5---5-- 5---5-- 5------|
B|3-------3-------3---3---3------|6-------6---6---6---6---6------|
G|3-------3-------3---3---3------|7-------7---7---7---7---7------|
D|5-------5-------5---5---5------|7-------7---7---7---7---7------|
A|5-------5-------5---5---5------|5-------5---5---5---5---5------|
E|3-------3-------3---3---3------|-------------------------------|

e|------- 10----- ------- 10-----|------- 10----- ------- 10-----|
B|----11------11------11------11-|----10------10------10------10-|
G|12--------------12-------------|10--------------10-------------|
D|-------------------------------|-------------------------------|
A|-------------------------------|-------------------------------|
E|-------------------------------|-------------------------------|
          I       know    this    love        mine
                                      of


  Bb                              C
e|1------ 1------ 1---1-- 1------|3------ 3------ 3---3-- 3------|
B|3-------3-------3---3---3------|5-------5-------5---5---5------|
G|3-------3-------3---3---3------|5-------5-------5---5---5------|
D|3-------3-------3---3---3------|5-------5-------5---5---5------|
A|1-------1-------1---1---1------|3-------3-------3---3---3------|
E|-------------------------------|-------------------------------|

e|------- 10----- ------- 10-----|------- 12----- ------- 12-----|
B|----11------11------11------11-|----11------11------11------11-|
G|10--------------10-------------|12--------------12-------------|
D|-------------------------------|-------------------------------|
A|-------------------------------|-------------------------------|
E|-------------------------------|-------------------------------|
          will    never       dye                     and I   love

  F6
e|1------ 1------ 1---1-- 1---1--|1------ 1------ 1---1-- 1------|
B|3-------3-------3---3---3---3--|3-------3-------3---3---3------|
G|2-------2-------2---2---2---2--|2-------2-------2---2---2------|
D|x-------x-------x---x---x---x--|x-------x-------x---x---x------|
A|3-------3-------3---3---3---3--|3-------3-------3---3---3------|
E|1-------1-------1---1---1---1--|1-------1-------1---1---1------|

e|------- 10----- ------- 10-----|------- 10----- ------- -------|
B|----10------10------10------10-|----10------10-----------------|
G|10--------------10-------------|10--------------10-------------|
D|-------------------------------|------------------------3---2--|
A|-------------------------------|--------------------3----------|
E|-------------------------------|-------------------------------|
      her

  Gm
e|3------ 3------ 3---3-- 3---3--|3------ 3------ 3---3-- 3------|
B|3-------3-------3---3---3---3--|3-------3-------3---3---3------|
G|3-------3-------3---3---3---3--|3-------3-------3---3---3------|
D|5-------5-------5---5---5---5--|5-------5-------5---5---5------|
A|5-------5-------5---5---5---5--|5-------5-------5---5---5------|
E|3-------3-------3---3---3---3--|3-------3-------3---3---3------|

e|------- ------- ------- -------|------- ------- ------- -------|
B|-------------------------------|-------------------------------|
G|-------------------------------|-------------------------------|
D|-------------------------------|------------------------3---2--|
A|5------------------------------|--------------------3----------|
E|-------------------------------|-------------------------------|

  F6
e|1------ 1------ 1---1-- 1---1--|1------ 1------ 1---1-- 1------|
B|3-------3-------3---3---3---3--|3-------3-------3---3---3------|
G|2-------2-------2---2---2---2--|2-------2-------2---2---2------|
D|x-------x-------x---x---x---x--|x-------x-------x---x---x------|
A|3-------3-------3---3---3---3--|3-------3-------3---3---3------|
E|1-------1-------1---1---1---1--|1-------1-------1---1---1------|

e|------- ------- ------- -------|------- ------- ------- -------|
B|-------------------------------|-------------------------------|
G|-------------------------------|-------------------------------|
D|-------------------------------|------------------------3---2--|
A|5------------------------------|--------------------3----------|
E|-------------------------------|-------------------------------|


  Gm
e|3------ 3------ 3---3-- 3---3--|3------ 3------ 3---3-- 3------|
B|3-------3-------3---3---3---3--|3-------3-------3---3---3------|
G|3-------3-------3---3---3---3--|3-------3-------3---3---3------|
D|5-------5-------5---5---5---5--|5-------5-------5---5---5------|
A|5-------5-------5---5---5---5--|5-------5-------5---5---5------|
E|3-------3-------3---3---3---3--|3-------3-------3---3---3------|

e|------- ------- ------- -------|------- ------- ------- -------|
B|-------------------------------|-------------------------------|
G|-------------------------------|-------------------------------|
D|-------------------------------|------------------------3---2--|
A|5------------------------------|--------------------3----------|
E|-------------------------------|-------------------------------|

 (.
  D
e|2------ ------- ------- -------|------- ------- ------- -------|
B|3------------------------------|-------------------------------|
G|2------------------------------|-------------------------------|
D|0------------------------------|-------------------------------|
A|-------------------------------|-------------------------------|
E|-------------------------------|-------------------------------|

e|------- ------- ------- -------|------- ------- ------- -------|
B|-------------------------------|-------------------------------|
G|-------------------------------|-------------------------------|
D|0------------------------------|-------------------------------|
A|0------------------------------|-------------------------------|
E|-------------------------------|-------------------------------|




        B  Bend
        R  Release
        /  slide up
        \  slide down
        H  hammer-on
        P  pull-off
        ~  vibrato
        +  harmonic
        x  Mute note
        . - play note like a dot in standard notation
        ^ - ties two notes together
        (. Pause


    ----------------------------------------------------------

    THE BEATLES - TELL ME WHY (Lennon & McCartney) From A HARD
                  DAY'S NIGHT album. Released on March, 20th,
                  1964.

    ----------------------------------------------------------

    Tabbed by:PJVillanueva

    Tell me why you cried, and why you lied to me
    Tell me why you cried, and why you lied to me

    Well I gave you everything I had
    But you left me sitting on my own
    Did you have to treat me oh so bad
    All I do is hang my head and moan

    Tell me why you cried and why you lied to me
    Tell me why you cried and why you lied to me

    If there's something I have said or done
    Tell me what and I'll apologize
    If you don't really can't go on
    Holding back these tears in my eyes

    Tell me why you cried and why you lied to me
    Tell me why you cried and why you lied to me

    Well I beg you on my bended knees
    If you'll only listen to my pleas
    IF it's there something that I can do
   'cause I really can't stand it I'm so in love with you.

    Tell me why you cried and why you lied to me

    12/8

    INTRO
                                                          x X  X  x

  e|------- ------- ------- -------|------- ------- ------- -------|
  B|-------------------------------|-------------------------------|
  G|-------------------------------|-------------------------------|
  D|-------------------------------|-------------------------------|
  A|-------------------------------|-------------------------------|
  E|-------------------------------|-------------------------------|

    X             X       x X  X  x X             X       x X  X  x
    Em            A7                Em            A7
  e|7------ ------5 ------- -------|7------ ------5 ------- -------|
  B|8-------------8----------------|8-------------8----------------|
  G|9-------------6----------------|9-------------6----------------|
  D|9-------------5----------------|9-------------5----------------|
  A|7-------------7----------------|7-------------7----------------|
  E|--------------5----------------|--------------5----------------|

  e10------ ------9 ------- -------10------ ------9 ------- -------|
  B|8-------------8----------------|8-------------8----------------|
  G|9-------------9----------------|9-------------9----------------|
  D|-------------------------------|-------------------------------|
  A|-------------------------------|-------------------------------|
  E|-------------------------------|-------------------------------|

    X             X       x X  X  x X             X       x x     x
    Em            A7                Em            A7
  e|7------ ------5 ------- -------|7------ ------5 ------- -------|
  B|8-------------8----------------|8-------------8----------------|
  G|9-------------6----------------|9-------------6----------------|
  D|9-------------5----------------|9-------------5----------------|
  A|7-------------7----------------|7-------------7----------------|
  E|--------------5----------------|--------------5----------------|

  e10------ ------9 ------- -------10------ ------9 ------- -------|
  B|8-------------8----------------|8-------------8----------------|
  G|9-------------9----------------|9-------------9----------------|
  D|-------------------------------|-------------------------------|
  A|-------------------------------|-------------------------------|
  E|-------------------------------|-------------------------------|
                                                  Tell      me

    CHORUS
    00:06
    D                               Bm                            Em
  e|2------ 2-----2 2------ 2------|2------ 2------ 2-----2 2-----0|
  B|3-------3-----3-3-------3------|3-------3-------3-----3-3-----0|
  G|2-------2-----2-2-------2------|4------ 4------ 4-----4 4-----0|
  D|0-------0-----0-0-------0------|4-------4-------4-----4-4-----2|
  A|-------------------------------|2-------2-------2-----2-2-----2|
  E|-------------------------------|------------------------------0|
    why                                     you   cried


  e|0-----0 0------ 0------ 0-----0|0------ 0-----0 0------ 0-----2|
  B|3-----3-0-------0-------0-----0|2-------2-----2-2-------2-----3|
  G|0-----0-0-------0-------0-----0|2-------2-----2-2-------2-----2|
  D|2-----2-2-------2-------2-----2|2-------2-----2-2-------2-----0|
  A|2-----2-2-------2-------2-----2|0-------0-----0-0-------0------|
  E|0-----0-0-------0-------0-----0|-------------------------------|
            and     why     you   lied                      to


  e|2------ 2-----2 2-----2 2------|0------ ------0 ------0 0------|
  B|3-------3-----3-3-----3-3------|3-------------2-------2-2------|
  G|2-------2-----2-2-----2-2------|0-------------2-------2-2------|
  D|0-------0-----0-0-----0-0------|2-------------2-------2-2------|
  A|-------------------------------|2-------------0-------0-0------|
  E|-------------------------------|0------------------------------|
    me                                            Tell      me


    00:16

  e|2------ 2-----2 2------ 2------|2------ 2------ 2-----2 2-----0|
  B|3-------3-----3-3-------3------|3-------3-------3-----3-3-----0|
  G|2-------2-----2-2-------2------|4------ 4------ 4-----4 4-----0|
  D|0-------0-----0-0-------0------|4-------4-------4-----4-4-----2|
  A|-------------------------------|2-------2-------2-----2-2-----2|
  E|-------------------------------|------------------------------0|
    why                                     you   cried


  e|0-----0 0-----0 0------ 0-----3|3------ 3------ 3------ 3------|
  B|3-----3-0-----0-0-------0-----2|2-------2-------2-------2------|
  G|0-----0-0-----0-0-------0-----2|2-------2-------2-------2------|
  D|2-----2-2-----2-2-------2-----2|2-------2-------2-------2------|
  A|2-----2-2-----2-2-------2-----0|0-------0-------0-------0------|
  E|0-----0-0-----0-0-------0------|-------------------------------|
            and     why     you   lied                      to    me


  e|2------ 2-----2 2-----2 2------|0------ ------3 ------3 3------|
  B|3-------3-----3-3-----3-3------|3-------------2-------2-2------|
  G|2-------2-----2-2-----2-2------|0-------------2-------2-2------|
  D|0-------0-----0-0-----0-0------|2-------------2-------2-2------|
  A|-------------------------------|2-------------0-------0-0------|
  E|-------------------------------|0------------------------------|
                                                          Well    gave
                                                            I
    VERSE
    00:25

  e|------2 ------2 ------2 2-----2|2------ 2-----2 2-----2 2-----0|
  B|------3-------3-------3-3-----3|3-------3-----3-3-----3-3-----3|
  G|------2-------2-------2-2-----4|4-------4-----4-4-----4-4-----0|
  D|------0-------0-------0-0-----4|4-------4-----4-4-----4-4-----2|
  A|------------------------------2|2-------2-----2-2-----2-2-----2|
  E|-------------------------------|------------------------------0|
          you             I       had                       but   you
            everything

  e|0------ 0-----0 0-----0 0------|3------ 3-----3 ------3 3-----2|
  B|3-------3-----3-3-----3-3------|2-------2-----2-------2-2-----3|
  G|0-------0-----0-0-----0-0------|2-------2-----2-------2-2-----2|
  D|2-------2-----2-2-----2-2------|2-------2-----2-------2-2-----0|
  A|2-------2-----2-2-----2-2------|0-------0-----0-------0-0------|
  E|0-------0-----0-0-----0-0------|-------------------------------|
    left  me        on    my      own                     Did     have
            sitting                                         you

  e|------2 ------2 ------2 ------2|2------ 2-----2 ------2 2-----0|
  B|------3-------3-------3-------3|3-------3-----3-------3-3-----3|
  G|------2-------2-------2-------4|4-------4-----4-------4-4-----0|
  D|------0-------0-------0-------4|4-------4-----4-------4-4-----2|
  A|------------------------------2|2-------2-----2-------2-2-----2|
  E|-------------------------------|------------------------------0|
          to      me      so      bad                       All   I
            treat   oh

  e|0------ 0-----0 0-----0 0------|3------ 3-----3 3------ 3-----2|
  B|3-------3-----3-3-----3-3------|2-------2-----2-2-------2-----3|
  G|0-------0-----0-0-----0-0------|2-------2-----2-2-------2-----2|
  D|2-------2-----2-2-----2-2------|2-------2-----2-2-------2-----0|
  A|2-------2-----2-2-----2-2------|0-------0-----0-0-------0------|
  E|0-------0-----0-0-----0-0------|-------------------------------|
    do    is      my      and     moan              Tell    me
            hang    head

    CHORUS
    00:37

  e|2------ 2-----2 2------ 2------|2------ 2------ 2-----2 2-----0|
  B|3-------3-----3-3-------3------|3-------3-------3-----3-3-----0|
  G|2-------2-----2-2-------2------|4------ 4------ 4-----4 4-----0|
  D|0-------0-----0-0-------0------|4-------4-------4-----4-4-----2|
  A|-------------------------------|2-------2-------2-----2-2-----2|
  E|-------------------------------|------------------------------0|
    why                                     you   cried


  e|0-----0 0-----0 0------ 0-----0|0------ 0-----3 0------ 0-----2|
  B|3-----3-0-----0-3-------0-----0|2-------2-----2-2-------2-----3|
  G|0-----0-0-----0-0-------0-----0|2-------2-----2-2-------2-----2|
  D|2-----2-2-----2-2-------2-----2|2-------2-----2-2-------2-----0|
  A|2-----2-2-----2-2-------2-----2|0-------0-----0-0-------0------|
  E|0-----0-0-----0-0-------0-----0|-------------------------------|
            and     why     you   lied                      to


  e|2------ 2-----2 2-----2 2------|0------ ------0 ------0 0------|
  B|3-------3-----3-3-----3-3------|3-------------2-------2-2------|
  G|2-------2-----2-2-----2-2------|0-------------2-------2-2------|
  D|0-------0-----0-0-----0-0------|2-------------2-------2-2------|
  A|-------------------------------|2-------------0-------0-0------|
  E|-------------------------------|0------------------------------|
    me                                            Tell      me


    00:16

  e|2------ 2-----2 2------ 2------|2------ 2------ 2-----2 2-----0|
  B|3-------3-----3-3-------3------|3-------3-------3-----3-3-----0|
  G|2-------2-----2-2-------2------|4------ 4------ 4-----4 4-----0|
  D|0-------0-----0-0-------0------|4-------4-------4-----4-4-----2|
  A|-------------------------------|2-------2-------2-----2-2-----2|
  E|-------------------------------|------------------------------0|
    why                                     you   cried


  e|0-----0 0------ 0------ 0-----3|3------ 3------ 3-----3 3------|
  B|3-----3-0-------0-------0-----2|2-------2-------2-----2-2------|
  G|0-----0-0-------0-------0-----2|2-------2-------2-----2-2------|
  D|2-----2-2-------2-------2-----2|2-------2-------2-----2-2------|
  A|2-----2-2-------2-------2-----0|0-------0-------0-----0-0------|
  E|0-----0-0-------0-------0------|-------------------------------|
            and     why     you   lied                      to    me


  e|2------ 2-----2 ------2 2------|0------ ------0 ------0 0------|
  B|3-------3-----3-------3-3------|3-------------2-------2-2------|
  G|2-------2-----2-------2-2------|0-------------2-------2-2------|
  D|0-------0-----0-------0-0------|2-------------2-------2-2------|
  A|-------------------------------|2-------------0-------0-0------|
  E|-------------------------------|0------------------------------|
                                                          If      some..
                                                            there's

    VERSE
    00:56
    ... thing I have said or done
    Tell me what and I'll apologize
    If you don't really can't go on
    Holding back these tears in my eyes

    CHORUS
    01:08
    Tell me why you cried and why you lied to me
    Tell me why you cried and why you lied to ..

  e|2------ 2-----2 ------2 2------|2--2--2 2--2--2 2------ -------|
  B|3-------3-----3-------3-3------|1--1--1-1--1--1-1--------------|
  G|2-------2-----2-------2-2------|2--2--2-2--2--2-2--------------|
  D|0-------0-----0-------0-0------|0--0--0-0--0--0-0--------------|
  A|-------------------------------|-------------------------------|
  E|-------------------------------|-------------------------------|
    me                                                    Well    I

    MIDDLE
    01:27

  e|3-----3 ------3 3-----3 ------3|3-----3 ------3 ------3 3------|
  B|6-----6-------6-6-----6-------6|6-----6-------6-------6-6------|
  G|4-----4-------4-4-----4-------4|4-----4-------4-------4-4------|
  D|3-----3-------3-3-----3-------3|3-----3-------3-------3-3------|
  A|5-----5-------5-5-----5-------5|5-----5-------5-------5-5------|
  E|3-----3-------3-3-----3-------3|3-----3-------3-------3-3------|
    beg   you     my             knees                      If    you'll
            on      bended

  e|5-----5 ------5 ------5 ------5|------5 ------5 ------5 5------|
  B|8-----8-------8-------8-------8|------8-------8-------8-8------|
  G|6-----6-------6-------6-------6|------6-------6-------6-6------|
  D|5-----5-------5-------5-------5|------5-------5-------5-5------|
  A|7-----7-------7-------7-------7|------7-------7-------7-7------|
  E|5-----5-------5-------5-------5|------5-------5-------5-5------|
    only    listen  to    my      pleas                  If is    there


  e|2-----2 ------2 ------- 2------|2------ ------2 ------2 2------|
  B|3-----3-------3---------3------|3-------------3-------3-3------|
  G|4-----4-------4---------4------|4-------------4-------4-4------|
  D|4-----4-------4---------4------|4-------------4-------4-4------|
  A|2-----2-------2---------2------|2-------------2-------2-2------|
  E|-------------------------------|-------------------------------|
    something       I       could   do                      'cause
            that                                                  I'm

  e|0------ 0-----0 ------0 0-----3|3------ 3-----3 3-----3 3------|
  B|3-------3-----3-------3-3-----2|2-------2-----2-2-----2-2------|
  G|0-------0-----0-------0-0-----2|2-------2-----2-2-----2-2------|
  D|2-------2-----2-------2-2-----2|2-------2-----2-2-----2-2------|
  A|2-------2-----2-------2-2-----0|0-------0-----0-0-----0-0------|
  E|0-------0-----0-------0-0------|-------------------------------|
    really  can't   stand it        so      in      love    with
                            I'm


                                    x  x  x x  x  x X  X  X X  X  X

  e|2------ ------2 ------2 2------|------- ------- ------- -------|
  B|3-------------3-------3-3------|-------------------------------|
  G|2-------------2-------2-2------|-------------------------------|
  D|0-------------0-------0-0------|-------------------------------|
  A|-------------------------------|-------------------------------|
  E|-------------------------------|-------------------------------|
    you                                             Tell    me

    CHORUS
    01:43

  e|2------ 2-----2 2------ 2------|2------ 2------ 2-----2 2-----0|
  B|3-------3-----3-3-------3------|3-------3-------3-----3-3-----0|
  G|2-------2-----2-2-------2------|4------ 4------ 4-----4 4-----0|
  D|0-------0-----0-0-------0------|4-------4-------4-----4-4-----2|
  A|-------------------------------|2-------2-------2-----2-2-----2|
  E|-------------------------------|------------------------------0|
    why                                     you   cried


  e|0-----0 ------0 ------- 0------|3------ 3-----3 3------ 3------|
  B|3-----3-------3---------3------|2-------2-----2-2-------2------|
  G|0-----0-------0---------0------|2-------2-----2-2-------2------|
  D|2-----2-------2---------2------|2-------2-----2-2-------2------|
  A|2-----2-------2---------2------|0-------0-----0-0-------0------|
  E|0-----0-------0---------0------|-------------------------------|
            and     why     you   lied                      to


  e|2------ 2-----2 2-----2 2------|0------ ------0 ------- -------|
  B|3-------3-----3-3-----3-3------|3-------------2----------------|
  G|2-------2-----2-2-----2-2------|0-------------2----------------|
  D|0-------0-----0-0-----0-0------|2-------------2----------------|
  A|-------------------------------|2-------------0----------------|
  E|-------------------------------|0------------------------------|
    me                                            Tell      me


    00:16

  e|2------ 2-----2 2------ 2------|2------ 2------ 2------ 2------|
  B|3-------3-----3-3-------3------|3-------3-------3-------3------|
  G|2-------2-----2-2-------2------|4------ 4------ 4------ 4------|
  D|0-------0-----0-0-------0------|4-------4-------4-------4------|
  A|-------------------------------|2-------2-------2-------2------|
  E|-------------------------------|-------------------------------|
    why                                     you   cried


  e|0------ 0-----0 ------0 0------|3------ 3-----3 3-----3 3------|
  B|3-------3-----3-------3-3------|2-------2-----2-2-----2-2------|
  G|0-------0-----0-------0-0------|2-------2-----2-2-----2-2------|
  D|2-------2-----2-------2-2------|2-------2-----2-2-----2-2------|
  A|2-------2-----2-------2-2------|0-------0-----0-0-----0-0------|
  E|0-------0-----0-------0-0------|-------------------------------|
            and     why     you   lied                      to    me


  e|2------ ------2 ------- -------|1------ ------1 ------- -------|
  B|3-------------3----------------|3-------------3----------------|
  G|4-------------4----------------|3-------------3----------------|
  D|4-------------4----------------|3-------------3----------------|
  A|2-------------2----------------|1-------------1----------------|
  E|-------------------------------|-------------------------------|

  e|7------ ------7 ------- -------|6------ ------6 ------- -------|
  B|7-------------7----------------|6-------------9----------------|
  G|7-------------7----------------|7-------------7----------------|
  D|9-------------9----------------|8-------------6----------------|
  A|9-------------9----------------|8-------------8----------------|
  E|7-------------7----------------|6-------------6----------------|

                                   (.

  e|0------ ------2 ------- -------|2------ ------- ------- -------|
  B|3-------------2----------------|3------------------------------|
  G|0-------------2----------------|2------------------------------|
  D|2-------------2----------------|0------------------------------|
  A|2-------------0----------------|-------------------------------|
  E|0------------------------------|-------------------------------|

  e|5------ ------5 ------- -------|5------ ------- ------- -------|
  B|5-------------7----------------|7------------------------------|
  G|7-------------6----------------|7------------------------------|
  D|5-------------5----------------|7------------------------------|
  A|7-------------7----------------|5------------------------------|
  E|5-------------5----------------|-------------------------------|




        B  Bend
        R  Release
        /  Slide up
        \  Slide down
        H  Hammer-on
        P  Pull-off
        ~  Vibrato
        +  Harmonic
        x  Mute note
        .  Play note like a dot in standard notation
        ^  Ties two notes together
        (. Pause


  --------------------------------------------------------------------

  THE BEATLES - CAN'T BUY ME LOVE (Lennon/McCartney) From A HARD DAY'S
                NIGHT album. Released on 20th March 1964.

  --------------------------------------------------------------------

  Tabbed by:PJVillanueva


  Can't buy me love, love
  Can't buy me love

  I'll buy you a diamond ring, my friend,
  If it makes you feel alright
  I'll get you anything, my friend,
  If it makes you feel alright
 'Cause I don't care too much for money,
  Money can't buy me love

  I'll give you all I got to give
  If you say you love me too
  I may not have a lot to give,
  But what I got I'll give to you
  I don't care too much for money,
  Money can't buy me love

  Can't buy me love, everybody tells me so
  Can't buy me love, no no no, no

  Say you don't need no diamond ring
  And I'll be satisfied
  Tell me that you want that kind of thing
  That money just can't buy
  I don't care too much for money,
  Money can't buy me love



                                                         Em
  e|------ ------ ------ ------|------ ------ ------ ----0-|
  B|---------------------------|-------------------------0-|
  G|---------------------------|-------------------------0-|
  D|---------------------------|-------------------------2-|
  A|---------------------------|-------------------------2-|
  E|---------------------------|-------------------------0-|
                                       Can't  buy me     love


                                Am
  e|0----- 0----- 0---0- 0---0-|0----- 0----- 0---0- 0-----|
  B|0------0------0---0--0---0-|1------1------1---1--1-----|
  G|0------0------0---0--0---0-|2------2------2---2--2-----|
  D|2------2------2---2--2---2-|2------2------2---2--2-----|
  A|2------2------2---2--2---2-|0------0------0---0--0-----|
  E|0------0------0---0--0---0-|---------------------------|
                                                         Love
  e|7----- ---7-- ------ ------|5----- ---5-- ------ ------|
  B|8---------8----------------|5---------5----------------|
  G|9---------9----------------|5---------5----------------|
  D|9---------9----------------|7---------7----------------|
  A|7---------7----------------|7---------7----------------|
  E|---------------------------|5---------5----------------|

    Em                          Am
  e|0----- 0----- 0---0- 0---0-|0----- 0----- 0---0- 0-----|
  B|0------0------0---0--0---0-|1------1------1---1--1-----|
  G|0------0------0---0--0---0-|2------2------2---2--2-----|
  D|2------2------2---2--2---2-|2------2------2---2--2-----|
  A|2------2------2---2--2---2-|0------0------0---0--0-----|
  E|0------0------0---0--0---0-|---------------------------|
                                       Can't  buy me     love
  e|7----- ---7-- ------ ------|5----- ---5-- ------ ------|
  B|8---------8----------------|5---------5----------------|
  G|9---------9----------------|5---------5----------------|
  D|9---------9----------------|7---------7----------------|
  A|7---------7----------------|7---------7----------------|
  E|---------------------------|5---------5----------------|

    Dm                          G6
  e|5----- 5----- 5---5- 5-----|3----- 3----- 3---3- 3-----|
  B|6------6------6---6--6-----|5------5------5---5--5-----|
  G|7------7------7---7--7-----|4------4------4---4--4-----|
  D|7------7------7---7--7-----|3------3------3---3--3-----|
  A|5------5------5---5--5-----|5------5------5---5--5-----|
  E|---------------------------|3------3------3---3--3-----|
                                                         I'll
  e|5----- ---5-- ------ ------|3----- ---3-- ------ ------|
  B|6---------6----------------|5---------5----------------|
  G|7---------7----------------|4---------4----------------|
  D|7---------7----------------|3---------3----------------|
  A|5---------5----------------|5---------5----------------|
  E|---------------------------|3---------3----------------|


    00:09
    C7
  e|0----- 0----- 0----- 0-----|0----- 0----- 0---0- 0-----|
  B|1------1------1------1-----|1------1------1---1--1-----|
  G|3------3------3------3-----|3------3------3---3--3-----|
  D|2------2------2------2-----|2------2------2---2--2-----|
  A|3------3------3------3-----|3------3------3---3--3-----|
  E|---------------------------|---------------------------|
    buy    you a  diamond    ring,  my     friend    If  it

  e|0----- 0----- 0----- 0-----|0----- 0---0- ----0- 0-----|
  B|1------1------1------1-----|1------1---1------1--1-----|
  G|3------3------3------3-----|3------3---3------3--3-----|
  D|2------2------2------2-----|2------2---2------2--2-----|
  A|3------3------3------3-----|3------3---3------3--3-----|
  E|---------------------------|---------------------------|
    makes  you    feel                                   I'll
                      allright
    00:14
    F7
  e|1----- 1----- 1----- 1-----|1----- 1----- 1---1- 1-----|
  B|4------4------4------4-----|4------4------4---4--4-----|
  G|2------2------2------2-----|2------2------2---2--2-----|
  D|1------1------1------1-----|1------1------1---1--1-----|
  A|3------3------3------3-----|3------3------3---3--3-----|
  E|1------1------1------1-----|1------1------1---1--1-----|
    get    you    anything,         my     friend    If  it


    C7
  e|0----- 0----- 0----- 0-----|0----- 0---0- ----0- 0-----|
  B|1------1------1------1-----|1------1---1------1--1-----|
  G|3------3------3------3-----|3------3---3------3--3-----|
  D|2------2------2------2-----|2------2---2------2--2-----|
  A|3------3------3------3-----|3------3---3------3--3-----|
  E|---------------------------|---------------------------|
    makes  you    feel                                  'cause
                      allright
    00:20
    G                           F
  e|3----- 3----- 3----- 3-----|1----- ------ ------ ------|
  B|3------3------3------3-----|1--------------------------|
  G|4------4------4------4-----|2--------------------------|
  D|5------5------5------5-----|3--------------------------|
  A|5------5------5------5-----|3--------------------------|
  E|3------3------3------3-----|1--------------------------|
    I      don't  care   too        much   for
                                              money

                                C7
  e|1----- 1----- 1---1- 1-----|------ ------ ------ ------|
  B|1------1------1---1--1-----|1------1------1------1-----|
  G|2------2------2---2--2-----|3------3------3------3-----|
  D|3------3------3---3--3-----|2------2------2------2-----|
  A|3------3------3---3--3-----|3------3------3------3-----|
  E|1------1------1---1--1-----|---------------------------|
    Money  can't  buy me,    love                        I'll

    00:25

  e|0----- 0---0- 0---0- 0-----|0----- 0----- 0----- 0-----|
  B|1------1---1--1---1--1-----|1------1------1------1-----|
  G|3------3---3--3---3--3-----|3------3------3------3-----|
  D|2------2---2--2---2--2-----|2------2------2------2-----|
  A|3------3---3--3---3--3-----|3------3------3------3-----|
  E|---------------------------|---------------------------|
    give   you    all I've   got    to     give      If  you

  e|0----- 0----- 0---0- 0-----|0----- 0----- ----0- 0-----|
  B|1------1------1---1--1-----|1------1----------1--1-----|
  G|3------3------3---3--3-----|3------3----------3--3-----|
  D|2------2------2---2--2-----|2------2----------2--2-----|
  A|3------3------3---3--3-----|3------3----------3--3-----|
  E|---------------------------|---------------------------|
    say    you    love       too                         I
                      me
    00:31
    F7
  e|1----- 1----- 1----- 1-----|1----- 1----- 1---1- 1-----|
  B|4------4------4------4-----|4------4------4---4--4-----|
  G|2------2------2------2-----|2------2------2---2--2-----|
  D|1------1------1------1-----|1------1------1---1--1-----|
  A|3------3------3------3-----|3------3------3---3--3-----|
  E|1------1------1------1-----|1------1------1---1--1-----|
    may    not    have a     lot    to     give   but    I've
                                                     what
    C7
  e|0----- 0----- 0----- 0-----|0----- 0---0- ----0- 0-----|
  B|1------1------1------1-----|1------1---1------1--1-----|
  G|3------3------3------3-----|3------3---3------3--3-----|
  D|2------2------2------2-----|2------2---2------2--2-----|
  A|3------3------3------3-----|3------3---3------3--3-----|
  E|---------------------------|---------------------------|
    got    I'll   give   to you                          I

    00:36
    G                           F
  e|3----- 3----- 3----- 3-----|1----- ------ ------ ------|
  B|3------3------3------3-----|1--------------------------|
  G|4------4------4------4-----|2--------------------------|
  D|5------5------5------5-----|3--------------------------|
  A|5------5------5------5-----|3--------------------------|
  E|3------3------3------3-----|1--------------------------|
           don't  care   too        much  for money


                                C7
  e|1----- 1----- 1---1- 1-----|------ ------ ------ ------|
  B|1------1------1---1--1-----|1------1------1---1--1-----|
  G|2------2------2---2--2-----|3------3------3---3--3-----|
  D|3------3------3---3--3-----|2------2------2---2--2-----|
  A|3------3------3---3--3-----|3------3------3---3--3-----|
  E|1------1------1---1--1-----|---------------------------|
    Money  can't  buy me,   love       Can't  buy me     love


    00:42
    Em                          Am
  e|0----- 0----- 0---0- 0---0-|0----- 0----- 0---0- 0-----|
  B|0------0------0---0--0---0-|1------1------1---1--1-----|
  G|0------0------0---0--0---0-|2------2------2---2--2-----|
  D|2------2------2---2--2---2-|2------2------2---2--2-----|
  A|2------2------2---2--2---2-|0------0------0---0--0-----|
  E|0------0------0---0--0---0-|---------------------------|
                                                         everybody
  e|7----- ---7-- ------ ------|5----- ---5-- ------ ------|
  B|8---------8----------------|5---------5----------------|
  G|9---------9----------------|5---------5----------------|
  D|9---------9----------------|7---------7----------------|
  A|7---------7----------------|7---------7----------------|
  E|---------------------------|5---------5----------------|

    C7                                                   Em
  e|------ ------ ------ ------|------ ------ ------ ----0-|
  B|1------1------1---1--1---1-|1------1------1---1--1---0-|
  G|3------3------3---3--3---3-|3------3------3---3--3---0-|
  D|2------2------2---2--2---2-|2------2------2---2------2-|
  A|3------3------3---3--3---3-|3------3------3---3--3---2-|
  E|---------------------------|-------------------------0-|
                  tells me   so        Can't  buy me     love


    00:48
                                Am
  e|0----- 0----- 0---0- 0---0-|0----- 0---0- 0---0- 0-----|
  B|0------0------0---0--0---0-|1------1---1--1---1--1-----|
  G|0------0------0---0--0---0-|2------2---2--2---2--2-----|
  D|2------2------2---2--2---2-|2------2---2--2---2--2-----|
  A|2------2------2---2--2---2-|0------0---0--0---0--0-----|
  E|0------0------0---0--0---0-|---------------------------|

  e|7----- ---7-- ------ ------|5----- ---5-- ------ ------|
  B|8---------8----------------|5---------5----------------|
  G|9---------9----------------|5---------5----------------|
  D|9---------9----------------|7---------7----------------|
  A|7---------7----------------|7---------7----------------|
  E|---------------------------|5---------5----------------|

    Dm                          G6
  e|5----- 5----- 5---5- 5-----|3----- 3----- 3---3- 3-----|
  B|6------6------6---6--6-----|5------5------5---5--5-----|
  G|7------7------7---7--7-----|4------4------4---4--4-----|
  D|7------7------7---7--7-----|3------3------3---3--3-----|
  A|5------5------5---5--5-----|5------5------5---5--5-----|
  E|---------------------------|3------3------3---3--3-----|
    No, no,    no,           no                           Say
  e|5----- ---5-- ------ ------|3----- ---3-- ------ ------|
  B|6---------6----------------|5---------5----------------|
  G|7---------7----------------|4---------4----------------|
  D|7---------7----------------|3---------3----------------|
  A|5---------5----------------|5---------5----------------|
  E|---------------------------|3---------3----------------|


    00:53
    C7
  e|0----- 0---0- 0----- 0---0-|0---0- 0---0- 0---0- 0---0-|
  B|1------1---1--1------1---1-|1---1--1---1--1---1--1---1-|
  G|3------3---3--3------3---3-|3---3--3---3--3---3--3---3-|
  D|2------2---2--2------2---2-|2---2--2---2--2---2--2---2-|
  A|3------3---3--3------3---3-|3---3--3---3--3---3--3---3-|
  E|---------------------------|---------------------------|
           don't  need   no     diamond    ring          and
        you


  e|0----- 0----- 0----- 0-----|0----- 0---0- ----0- 0-----|
  B|1------1------1------1-----|1------1---1------1--1-----|
  G|3------3------3------3-----|3------3---3------3--3-----|
  D|2------2------2------2-----|2------2---2------2--2-----|
  A|3------3------3------3-----|3------3---3------3--3-----|
  E|---------------------------|---------------------------|
    I'll   be     satisfied                              Tell

    00:59
    F7
  e|1----- 1----- 1----- 1-----|1----- 1---1- 1---1- 1-----|
  B|4------4------4------4-----|4------4---4--4---4--4-----|
  G|2------2------2------2-----|2------2---2--2---2--2-----|
  D|1------1------1------1-----|1------1---1--1---1--1-----|
  A|3------3------3------3-----|3------3---3--3---3--3-----|
  E|1------1------1------1-----|1------1---1--1---1--1-----|
        me that   want   that   kind       things        that
               you                  of

    C7
  e|0----- 0----- 0----- 0-----|0----- 0---0- ----0- 0-----|
  B|1------1------1------1-----|1------1---1------1--1-----|
  G|3------3------3------3-----|3------3---3------3--3-----|
  D|2------2------2------2-----|2------2---2------2--2-----|
  A|3------3------3------3-----|3------3---3------3--3-----|
  E|---------------------------|---------------------------|
    money      just   can't  buy                         I

    01:05
    G                           F
  e|3----- 3---3- 3----- 3-----|1----- ------ ------ ------|
  B|3------3---3--3------3-----|1--------------------------|
  G|4------4---4--4------4-----|2--------------------------|
  D|5------5---5--5------5-----|3--------------------------|
  A|5------5---5--5------5-----|3--------------------------|
  E|3------3---3--3------3-----|1--------------------------|
           don't  care   too        much  for money


                                C7
  e|1----- 1----- 1---1- 1-----|------ ------ ------ ------|
  B|1------1------1---1--1-----|1------1---1--1------1---1-|
  G|2------2------2---2--2-----|3------3---3--3------3---3-|
  D|3------3------3---3--3-----|2------2---2--2------2---2-|
  A|3------3------3---3--3-----|3------3---3--3------3---3-|
  E|1------1------1---1--1-----|---------------------------|
    Money  can't  buy me,   love


    SOLO

  e|0----- 0----- 0----- 0---0-|
  B|1------1------1------1---1-|
  G|3------3------3------3---3-|
  D|2------2------2------2---2-|
  A|3------3------3------3---3-|
  E|---------------------------|

  e|------ ------ ------ ------|
  B|---------------------------|
  G|---------------------8-----|
  D|------------------10-------|
  A|---------------------------|
  E|---------------------------|


    01:12

  e|0----- 0----- 0----- 0-----|0----- 0----- 0---0- 0-----|
  B|1------1------1------1-----|1------1------1---1--1-----|
  G|3------3------3------3-----|3------3------3---3--3-----|
  D|2------2------2------2-----|2------2------2---2--2-----|
  A|3------3------3------3-----|3------3------3---3--3-----|
  E|---------------------------|---------------------------|

  e|------ ------ ------ ------|------ ------ ------ ------|
  B|---------------------------|---------------------------|
  G|10B12---------10B12--------|10B12------12R10--8------8-|
  D|---------------------------|---------------------10----|
  A|---------------------------|---------------------------|
  E|---------------------------|---------------------------|


  e|0----- 0----- 0----- 0-----|0----- 0----- 0---0- 0-----|
  B|1------1------1------1-----|1------1------1---1--1-----|
  G|3------3------3------3-----|3------3------3---3--3-----|
  D|2------2------2------2-----|2------2------2---2--2-----|
  A|3------3------3------3-----|3------3------3---3--3-----|
  E|---------------------------|---------------------------|

  e|------ ------ ------ ------|------ ------ ------ ------|
  B|---------------------------|---------------------------|
  G|10B12---------10B12---10B12R10--8----------------------|
  D|---------------------------|-------10--8---------------|
  A|---------------------------|--------------10--8--------|
  E|---------------------------|---------------------11----|


    01:17
    F7
  e|1----- 1----- 1----- 1-----|1----- 1----- 1---1- 1-----|
  B|4------4------4------4-----|4------4------4---4--4-----|
  G|2------2------2------2-----|2------2------2---2--2-----|
  D|1------1------1------1-----|1------1------1---1--1-----|
  A|3------3------3------3-----|3------3------3---3--3-----|
  E|1------1------1------1-----|1------1------1---1--1-----|

  e|------ ------ ------ ------|------ ------ ------ ------|
  B|-------1-------------1-----|1------1------1---1--------|
  G|-------2-------------2-----|2------2------2---2--------|
  D|-------1-------------1-----|1------1------1---1--------|
  A|-------3-------------3-----|3------3------3---3--------|
  E|-------1-------------1-----|1------1------1---1--------|

    C7
  e|0----- 0----- 0----- 0-----|0----- 0----- 0---0- 0-----|
  B|1------1------1------1-----|1------1------1---1--1-----|
  G|3------3------3------3-----|3------3------3---3--3-----|
  D|2------2------2------2-----|2------2------2---2--2-----|
  A|3------3------3------3-----|3------3------3---3--3-----|
  E|---------------------------|---------------------------|

  e|------ ------ ------ ------|------ ------ ------ ------|
  B|---------------------------|---------------------------|
  G|10B12----------10B12-------|10B12------12R10--8--------|
  D|---------------------------|---------------------10----|
  A|---------------------------|---------------------------|
  E|---------------------------|---------------------------|


    01:23
    G                           F
  e|3----- 3----- 3----- 3-----|1----- 1----- 1---1- 1-----|
  B|3------3------3------3-----|1------1------1---1--1-----|
  G|4------4------4------4-----|2------2------2---2--2-----|
  D|5------5------5------5-----|3------3------3---3--3-----|
  A|5------5------5------5-----|3------3------3---3--3-----|
  E|3------3------3------3-----|1------1------1---1--1-----|

  e|------ ------ ------ ------|------ ------ ------ ------|
  B|---------------------------|---------------------------|
  G|---------------------------|---------------------------|
  D|---------------------------|---------------------------|
  A|-----8/10---8/10---------10\8----------6--8---6------8/|
  E|---------------------------|---------------------8-----|

    C7
  e|0----- 0----- 0----- 0-----|0----- 0----- 0---0- 0-----|
  B|1------1------1------1-----|1------1------1---1--1-----|
  G|3------3------3------3-----|3------3------3---3--3-----|
  D|2------2------2------2-----|2------2------2---2--2-----|
  A|3------3------3------3-----|3------3------3---3--3-----|
  E|---------------------------|---------------------------|
                                          Can't buy me   love
  e|------ ------ ------ ------|------ ------ ------ ------|
  B|---------------------------|---------------------------|
  G|---------------------------|---------------------------|
  D|----8----------------------|---------------------------|
  A|10---------10\8---6--------|---------------------------|
  E|---------------------8-----|8--------------------------|


    01:28
    Em                          Am
  e|0----- 0----- 0---0- 0---0-|0----- 0----- 0---0- 0-----|
  B|0------0------0---0--0---0-|1------1------1---1--1-----|
  G|0------0------0---0--0---0-|2------2------2---2--2-----|
  D|2------2------2---2--2---2-|2------2------2---2--2-----|
  A|2------2------2---2--2---2-|0------0------0---0--0-----|
  E|0------0------0---0--0---0-|---------------------------|
                                                         Everybody
  e|7----- ---7-- ------ ------|5----- ---5-- ------ ------|
  B|8---------8----------------|5---------5----------------|
  G|9---------9----------------|5---------5----------------|
  D|9---------9----------------|7---------7----------------|
  A|7---------7----------------|7---------7----------------|
  E|---------------------------|5---------5----------------|

    C7
  e|0----- 0----- 0----- 0-----|0----- 0----- 0---0- 0-----|
  B|1------1------1------1-----|1------1------1---1--1-----|
  G|3------3------3------3-----|3------3------3---3--3-----|
  D|2------2------2------2-----|2------2------2---2--2-----|
  A|3------3------3------3-----|3------3------3---3--3-----|
  E|---------------------------|---------------------------|
                  tells      so        Can't  buy me     love
                      me

    01:34
    Em                          Am
  e|0----- 0----- 0---0- 0---0-|0----- 0----- 0---0- 0-----|
  B|0------0------0---0--0---0-|1------1------1---1--1-----|
  G|0------0------0---0--0---0-|2------2------2---2--2-----|
  D|2------2------2---2--2---2-|2------2------2---2--2-----|
  A|2------2------2---2--2---2-|0------0------0---0--0-----|
  E|0------0------0---0--0---0-|---------------------------|

  e|7----- ---7-- ------ ------|5----- ---5-- ------ ------|
  B|8---------8----------------|5---------5----------------|
  G|9---------9----------------|5---------5----------------|
  D|9---------9----------------|7---------7----------------|
  A|7---------7----------------|7---------7----------------|
  E|---------------------------|5---------5----------------|

    Dm                          G6
  e|5----- 5----- 5---5- 5-----|3----- 3----- 3---3- 3-----|
  B|6------6------6---6--6-----|5------5------5---5--5-----|
  G|7------7------7---7--7-----|4------4------4---4--4-----|
  D|7------7------7---7--7-----|3------3------3---3--3-----|
  A|5------5------5---5--5-----|5------5------5---5--5-----|
  E|---------------------------|3------3------3---3--3-----|
    No, no,    no,           no                          Say
  e|5----- ---5-- ------ ------|3----- ---3-- ------ ------|
  B|6---------6----------------|5---------5----------------|
  G|7---------7----------------|4---------4----------------|
  D|7---------7----------------|3---------3----------------|
  A|5---------5----------------|5---------5----------------|
  E|---------------------------|3---------3----------------|


    01:40
    C7
  e|0----- 0----- 0----- 0-----|0----- 0----- 0---0- 0-----|
  B|1------1------1------1-----|1------1------1---1--1-----|
  G|3------3------3------3-----|3------3------3---3--3-----|
  D|2------2------2------2-----|2------2------2---2--2-----|
  A|3------3------3------3-----|3------3------3---3--3-----|
  E|---------------------------|---------------------------|
           don't  need   no     diamond    ring          and
        you


  e|0----- 0----- 0----- 0-----|0----- 0----- 0---0- 0-----|
  B|1------1------1------1-----|1------1------1---1--1-----|
  G|3------3------3------3-----|3------3------3---3--3-----|
  D|2------2------2------2-----|2------2------2---2--2-----|
  A|3------3------3------3-----|3------3------3---3--3-----|
  E|---------------------------|---------------------------|
    I'll   be     satisfied                              Tell

    01:45
    F7
  e|1----- 1----- 1----- 1-----|1----- 1----- 1---1- 1-----|
  B|4------4------4------4-----|4------4------4---4--4-----|
  G|2------2------2------2-----|2------2------2---2--2-----|
  D|1------1------1------1-----|1------1------1---1--1-----|
  A|3------3------3------3-----|3------3------3---3--3-----|
  E|1------1------1------1-----|1------1------1---1--1-----|
        me that   want   that   kind       things        that
               you                  of

    C7
  e|0----- 0----- 0----- 0-----|0----- 0----- 0---0- 0-----|
  B|1------1------1------1-----|1------1------1---1--1-----|
  G|3------3------3------3-----|3------3------3---3--3-----|
  D|2------2------2------2-----|2------2------2---2--2-----|
  A|3------3------3------3-----|3------3------3---3--3-----|
  E|---------------------------|---------------------------|
    money      just   can't  buy                         I

    01:51
    G                           F
  e|3----- 3----- 3----- 3-----|1----- ------ ------ ----1-|
  B|3------3------3------3-----|1------------------------1-|
  G|4------4------4------4-----|2------------------------2-|
  D|5------5------5------5-----|3------------------------3-|
  A|5------5------5------5-----|3------------------------3-|
  E|3------3------3------3-----|1------------------------1-|
           don't  care   too           much   money      Money
                                           for

                                C7
  e|1----- 1----- 1---1- 1-----|------ ------ ------ ------|
  B|1------1------1---1--1-----|1------1------1---1--1-----|
  G|2------2------2---2--2-----|3------3------3---3--3-----|
  D|3------3------3---3--3-----|2------2------2---2--2-----|
  A|3------3------3---3--3-----|3------3------3---3--3-----|
  E|1------1------1---1--1-----|---------------------------|
           can't  buy me,    love          Can't  me     love
                                              buy

    01:57
    Em                          Am
  e|0----- 0----- 0---0- 0---0-|0----- 0----- 0---0- 0-----|
  B|0------0------0---0--0---0-|1------1------1---1--1-----|
  G|0------0------0---0--0---0-|2------2------2---2--2-----|
  D|2------2------2---2--2---2-|2------2------2---2--2-----|
  A|2------2------2---2--2---2-|0------0------0---0--0-----|
  E|0------0------0---0--0---0-|---------------------------|
                                                         Love
  e|7----- ---7-- ------ ------|5----- ---5-- ------ ------|
  B|8---------8----------------|5---------5----------------|
  G|9---------9----------------|5---------5----------------|
  D|9---------9----------------|7---------7----------------|
  A|7---------7----------------|7---------7----------------|
  E|---------------------------|5---------5----------------|

    Em                          Am
  e|0----- 0----- 0---0- 0---0-|0----- 0----- 0---0- 0-----|
  B|0------0------0---0--0---0-|1------1------1---1--1-----|
  G|0------0------0---0--0---0-|2------2------2---2--2-----|
  D|2------2------2---2--2---2-|2------2------2---2--2-----|
  A|2------2------2---2--2---2-|0------0------0---0--0-----|
  E|0------0------0---0--0---0-|---------------------------|
                                       Can't  buy me     love
  e|7----- ---7-- ------ ------|5----- ---5-- ------ ------|
  B|8---------8----------------|5---------5----------------|
  G|9---------9----------------|5---------5----------------|
  D|9---------9----------------|7---------7----------------|
  A|7---------7----------------|7---------7----------------|
  E|---------------------------|5---------5----------------|


    02:02
    Dm                          G6
  e|5----- 5----- 5---5- 5-----|3----- 3----- 3---3- 3-----|
  B|6------6------6---6--6-----|5------5------5---5--5-----|
  G|7------7------7---7--7-----|4------4------4---4--4-----|
  D|7------7------7---7--7-----|3------3------3---3--3-----|
  A|5------5------5---5--5-----|5------5------5---5--5-----|
  E|---------------------------|3------3------3---3--3-----|

  e|5----- ---5-- ------ ------|3----- ---3-- ------ ------|
  B|6---------6----------------|5---------5----------------|
  G|7---------7----------------|4---------4----------------|
  D|7---------7----------------|3---------3----------------|
  A|5---------5----------------|5---------5----------------|
  E|---------------------------|3---------3----------------|


                               (.
    C7
  e|0----- 0----- 0---0- 0-----|0----- ------ ------ ------|
  B|1------1------1---1--1-----|1--------------------------|
  G|3------3------3---3--3-----|3--------------------------|
  D|2------2------2---2--2-----|2--------------------------|
  A|3------3------3---3--3-----|3--------------------------|
  E|---------------------------|---------------------------|
    (.
  e|------ ------ ------ ------|------ ------ ------ ------|
  B|1--------------------------|---------------------------|
  G|3--------------------------|---------------------------|
  D|2--------------------------|---------------------------|
  A|3--------------------------|---------------------------|
  E|---------------------------|---------------------------|



        B  Bend
        R  Release
        /  slide up
        \  slide down
        H  hammer-on
        P  pull-off
        ~  vibrato
        +  harmonic
        x  Mute note
        . - play note like a dot in standard notation
        ^ - ties two notes together
        (. Pause

  -----------------------------------------------------------------

  THE BEATLES - ANYTIME AT ALL (Lennon/McCartney) From A HARD DAY'S
                NIGHT album. Released March 20th 1964.

  -----------------------------------------------------------------

  Tabbed by:PJVillanueva


  Any time at all, any time at all, any time at all , all
  You've gotta do is call and I'll be there.

  If you need somebody to love, just look into my eyes, I'll
  Be there to make you feel right.
  If you're feeling sorry and sad, I'd really sympathize.
  Don't you be sad, just call me tonight.

  Any time at all, any time at all, any time at all , all
  You've gotta do is call and I'll be there.

  If the sun has faded away, I'll try to make it shine,
  There's nothing I won't do
  If you need a shoulder to cry on I hope it will be mine.
  Call me tonight, and I'll come to you.

  Any time at all, any time at all, any time at all , all
  You've gotta do is call and I'll be there.
  Any time at all, all you've gotta do is call and I'll be there.

                                            X

  e|------- ------- ------- -------|------- ------- ------- -------|
  B|-------------------------------|-------------------------------|
  G|-------------------------------|-------------------------------|
  D|-------------------------------|-------------------------------|
  A|-------------------------------|-------------------------------|
  E|-------------------------------|-------------------------------|
                                                    Anytime   at


    Bm                          D
  e|2------ 2------ 2---2-- 2---2--|------- 2------ 2------ 2------|
  B|3-------3-------3---3---3---3--|--------3-------3-------3------|
  G|4-------4-------4---4---4---2--|--------2-------2-------2------|
  D|4-------4-------4---4---4---0--|--------0-------0-------0------|
  A|2-------2-------2---2---2------|-------------------------------|
  E|-------------------------------|-------------------------------|
    all                                             Anytime     at
  e|------- ------- ------- -------|------- ------- ------- -------|
  B|--------------------3----------|-------------------------------|
  G|------------2---4--------------|-------------------------------|
  D|-------------------------------|-------------------------------|
  A|-------------------------------|-------------------------------|
  E|-------------------------------|-------------------------------|

    A
  e|0------ 0---0-- 0---0-- 0---0--|0---0-- 0------ 0---0-- 0---0--|
  B|2-------2---2---2---2---2---2--|2---2---2-------2---2---2---2--|
  G|2-------2---2---2---2---2---2--|2---2---2-------2---2---2---2--|
  D|2-------2---2---2---2---2---2--|2---2---2-------2---2---2---2--|
  A|0-------0---0---0---0---0---0--|0---0---0-------0---0---0---0--|
  E|-------------------------------|-------------------------------|
    all                                             Anytime     at
  e|------- 0------ ------- ----0--|------- ------- ------- -------|
  B|----------------3---2----------|-------------------------------|
  G|-------------------------------|-------------------------------|
  D|-------------------------------|-------------------------------|
  A|-------------------------------|-------------------------------|
  E|-------------------------------|-------------------------------|

    Bm                              G               A
  e|2------ 2---2-- 2---2-- 2------|3---3-- 3------ 0------ 0------|
  B|3-------3---3---3---3---3------|3---3---3-------2-------2------|
  G|4-------4---4---4---4---4------|0---0---0-------2-------2------|
  D|4-------4---4---4---4---4------|0---0---0-------2-------2------|
  A|2-------2---2---2---2---2------|2---2---2-------0-------0------|
  E|-------------------------------|3---3---3----------------------|
    all         all you've  do  is  call        and             be
                        gotta                     I'll

    D
  e|2------ 2---2-- 2---2-- 2---2--|2------ 2------ 2---2-- 2---2--|
  B|3-------3---3---3---3---3---3--|3-------3-------3---3---3---3--|
  G|2-------2---2---2---2---2---2--|2-------2-------2---2---2---2--|
  D|0-------0---0---0---0---0---0--|0-------0-------0---0---0---0--|
  A|-------------------------------|-------------------------------|
  E|-------------------------------|-------------------------------|
    there
  e|3------ 2------ 0------ ----2--|------- ------- ------- -------|
  B|--------------------3----------|-------------------------------|
  G|-------------------------------|-------------------------------|
  D|-------------------------------|-------------------------------|
  A|-------------------------------|-------------------------------|
  E|-------------------------------|-------------------------------|


    00:14

  e|2------ 2---2-- 2---2-- 2---2--|2------ 2------ 2---2-- 2---2--|
  B|3-------3---3---3---3---3---3--|3-------3-------3---3---3---3--|
  G|2-------2---2---2---2---2---2--|2-------2-------2---2---2---2--|
  D|0-------0---0---0---0---0---0--|0-------0-------0---0---0---0--|
  A|-------------------------------|-------------------------------|
  E|-------------------------------|-------------------------------|
            If  you         somebody        to  love,
                    need
  e|2------ ------- ------- -------|2------ ------- ----2-- -------|
  B|3------------------------------|3-------------------3----------|
  G|2------------------------------|2-------------------2----------|
  D|0------------------------------|-------------------------------|
  A|-------------------------------|4-------------------4----------|
  E|-------------------------------|-------------------------------|

    Bm                              Gm
  e|2------ 2------ 2---2-- 2---2--|3------ 3---3-- 3---3-- 3---3--|
  B|3-------3-------3---3---3---3--|3-------3---3---3---3---3---3--|
  G|4-------4-------4---4---4---4--|3-------3---3---3---3---3---3--|
  D|4-------4-------4---4---4---4--|5-------5---5---5---5---5---5--|
  A|2-------2-------2---2---2---2--|5-------5---5---5---5---5---5--|
  E|-------------------------------|3-------3---3---3---3---3---3--|
        just    into    my      eyes,
            look
  e|2------ ------- ------- -------|3------ ------- ------- -------|
  B|3------------------------------|3------------------------------|
  G|4------------------------------|3------------------------------|
  D|4------------------------------|5------------------------------|
  A|2------------------------------|5------------------------------|
  E|-------------------------------|3------------------------------|

    D                               A
  e|2------ 2---2-- 2---2-- 2---2--|0------ 0---0-- 0---0-- 0------|
  B|3-------3---3---3---3---3---3--|2-------2---2---2---2---2------|
  G|2-------2---2---2---2---2---2--|2-------2---2---2---2---2------|
  D|0-------0---0---0---0---0---0--|2-------2---2---2---2---2------|
  A|-------------------------------|0-------0---0---0---0---0------|
  E|-------------------------------|-------------------------------|
    I'll    be  there           to  make    you         feel    right.
  e|2------ ------- ------- -------|0------ ------- ------- -------|
  B|3------------------------------|2------------------------------|
  G|2------------------------------|2------------------------------|
  D|0------------------------------|2------------------------------|
  A|-------------------------------|0------------------------------|
  E|-------------------------------|-------------------------------|


    00:24
    D
  e|2------ 2------ 2---2-- 2------|2------ 2---2-- 2---2-- 2------|
  B|3-------3-------3---3---3------|3-------3---3---3---3---3------|
  G|2-------2-------2---2---2------|2-------2---2---2---2---2------|
  D|0-------0-------0---0---0------|0-------0---0---0---0---0------|
  A|-------------------------------|-------------------------------|
  E|-------------------------------|-------------------------------|
            If you're               sorry   and sad
                    feeling
  e|2------ ------- ------- -------|2------ ------- ------- -------|
  B|3-------3----------------------|3------------------------------|
  G|2------------------------------|2------------------------------|
  D|0------------------------------|-------------------------------|
  A|-------------------------------|4------------------------------|
  E|-------------------------------|-------------------------------|

    Bm                              Gm
  e|2------ 2------ 2---2-- 2---2--|3------ 3---3-- 3---3-- 3---3--|
  B|3-------3-------3---3---3---3--|3-------3---3---3---3---3---3--|
  G|4-------4-------4---4---4---4--|3-------3---3---3---3---3---3--|
  D|4-------4-------4---4---4---4--|5-------5---5---5---5---5---5--|
  A|2-------2-------2---2---2---2--|5-------5---5---5---5---5---5--|
  E|-------------------------------|3-------3---3---3---3---3---3--|
        I'd really  sympathise
  e|2------ ------- ------- -------|3------ ------- ------- -------|
  B|3------------------------------|3------------------------------|
  G|4------------------------------|3------------------------------|
  D|4------------------------------|5------------------------------|
  A|2------------------------------|5------------------------------|
  E|-------------------------------|3------------------------------|

    D                               A
  e|2------ 2---2-- 2---2-- 2---2--|0------ 0---0-- 0---0-- 0---0--|
  B|3-------3---3---3---3---3---3--|2-------2---2---2---2---2---2--|
  G|2-------2---2---2---2---2---2--|2-------2---2---2---2---2---2--|
  D|0-------0---0---0---0---0---0--|2-------2---2---2---2---2---2--|
  A|-------------------------------|0-------0---0---0---0---0---0--|
  E|-------------------------------|-------------------------------|
    Don't   be  sad,            just        me          tonight
        you                         call
  e|2------ ------- ------- -------|0------ ------- ------- -------|
  B|3------------------------------|2------------------------------|
  G|2------------------------------|2------------------------------|
  D|0------------------------------|2------------------------------|
  A|-------------------------------|0------------------------------|
  E|-------------------------------|-------------------------------|


                                            X
    D
  e|2------ 2------ 2---2-- 2---2--|2------ ------- ------- -------|
  B|3-------3-------3---3---3---3--|3------------------------------|
  G|2-------2-------2---2---2---2--|2------------------------------|
  D|0-------0-------0---0---0---0--|0------------------------------|
  A|-------------------------------|-------------------------------|
  E|-------------------------------|-------------------------------|
                                                    Anytime     at
  e|3------ 2------ 0------ ----2--|------- ------- ------- -------|
  B|--------------------3----------|-------------------------------|
  G|-------------------------------|-------------------------------|
  D|-------------------------------|-------------------------------|
  A|-------------------------------|-------------------------------|
  E|-------------------------------|-------------------------------|


    00:38
    Bm                          D
  e|2------ 2------ 2---2-- 2---2--|2------ 2------ 2---2-- 2---2--|
  B|3-------3-------3---3---3---3--|3-------3-------3---3---3---3--|
  G|4-------4-------4---4---4---2--|2-------2-------2---2---2---2--|
  D|4-------4-------4---4---4---0--|0-------0-------0---0---0---0--|
  A|2-------2-------2---2---2------|-------------------------------|
  E|-------------------------------|-------------------------------|
    all                                             Anytime     at
  e|------- ------- ------- -------|------- ------- ------- -------|
  B|----------------------------3--|-------------------------------|
  G|----------------4---2---4------|-------------------------------|
  D|-------------------------------|-------------------------------|
  A|-------------------------------|-------------------------------|
  E|-------------------------------|-------------------------------|

    A
  e|0------ 0---0-- ----0-- ----0--|0---0-- 0------ 0------ 0------|
  B|2-------2---2-------2-------2--|2---2---2-------2-------2------|
  G|2-------2---2-------2-------2--|2---2---2-------2-------2------|
  D|2-------2---2-------2-------2--|2---2---2-------2-------2------|
  A|0-------0---0-------0-------0--|0---0---0-------0-------0------|
  E|-------------------------------|-------------------------------|
    all                                             Anytime     at
  e|------- 0------ ------- ----0--|------- ------- ----0-- 1---2--|
  B|----------------3---2----------|-------------------------------|
  G|-------------------------------|-------------------------------|
  D|-------------------------------|-------------------------------|
  A|-------------------------------|-------------------------------|
  E|-------------------------------|-------------------------------|

    Bm                              G               A
  e|2------ 2------ 2---2-- 2------|3---3-- 3------ 0---0-- 0---0--|
  B|3-------3-------3---3---3------|3---3---3-------2---2---2---2--|
  G|4-------4-------4---4---4------|0---0---0-------2---2---2---2--|
  D|4-------4-------4---4---4------|0---0---0-------2---2---2---2--|
  A|2-------2-------2---2---2------|2---2---2-------0---0---0---0--|
  E|-------------------------------|3---3---3----------------------|
    all         all you've  do  is  call        and             be
                        gotta                     I'll
  e|------- ------- ------- -------|------- ------- ------- -------|
  B|-------------------------------|3---------------5--------------|
  G|-------------------------------|4---------------6--------------|
  D|-------------------------------|5---------------7--------------|
  A|-------------------------------|-------------------------------|
  E|-------------------------------|-------------------------------|

    D
  e|2------ 2------ 2---2-- 2---2--|2------ 2------ 2---2-- 2---2--|
  B|3-------3-------3---3---3---3--|3-------3-------3---3---3---3--|
  G|2-------2-------2---2---2---2--|2-------2-------2---2---2---2--|
  D|0-------0-------0---0---0---0--|0-------0-------0---0---0---0--|
  A|-------------------------------|-------------------------------|
  E|-------------------------------|-------------------------------|
    there
  e|------- ------- ----0-- ----2--|------- ------- ------- -------|
  B|--------3----------------------|-------------------------------|
  G|-------------------------------|-------------------------------|
  D|-------------------------------|-------------------------------|
  A|-------------------------------|-------------------------------|
  E|-------------------------------|-------------------------------|


    00:52

  e|2------ 2---2-- 2---2-- 2---2--|2------ 2------ 2---2-- 2---2--|
  B|3-------3---3---3---3---3---3--|3-------3-------3---3---3---3--|
  G|2-------2---2---2---2---2---2--|2-------2-------2---2---2---2--|
  D|0-------0---0---0---0---0---0--|0-------0-------0---0---0---0--|
  A|-------------------------------|-------------------------------|
  E|-------------------------------|-------------------------------|
            If  the sun     has     faded   away
  e|2------ ------- ------- -------|2------ ------- ------- -------|
  B|3------------------------------|3------------------------------|
  G|2------------------------------|2------------------------------|
  D|0------------------------------|-------------------------------|
  A|-------------------------------|4------------------------------|
  E|-------------------------------|-------------------------------|

    Bm                              Gm
  e|2------ 2---2-- 2---2-- 2------|3------ 3---3-- 3---3-- 3------|
  B|3-------3---3---3---3---3------|3-------3---3---3---3---3------|
  G|4-------4---4---4---4---4------|3-------3---3---3---3---3------|
  D|4-------4---4---4---4---4------|5-------5---5---5---5---5------|
  A|2-------2---2---2---2---2------|5-------5---5---5---5---5------|
  E|-------------------------------|3-------3---3---3---3---3------|
        I'll    to  make        shine
            try         it
  e|2------ ------- ------- -------|3------ ------- ------- -------|
  B|3------------------------------|3------------------------------|
  G|4------------------------------|3------------------------------|
  D|4------------------------------|5------------------------------|
  A|2------------------------------|5------------------------------|
  E|-------------------------------|3------------------------------|

    D                               A
  e|2------ 2---2-- 2---2-- 2------|0------ 0---0-- 0---0-- 0------|
  B|3-------3---3---3---3---3------|2-------2---2---2---2---2------|
  G|2-------2---2---2---2---2------|2-------2---2---2---2---2------|
  D|0-------0---0---0---0---0------|2-------2---2---2---2---2------|
  A|-------------------------------|0-------0---0---0---0---0------|
  E|-------------------------------|-------------------------------|
            There   nothing     I                       won't   do
                is
  e|2------ ------- ------- -------|0------ ------- ------- -------|
  B|3------------------------------|2------------------------------|
  G|2------------------------------|2------------------------------|
  D|0------------------------------|2------------------------------|
  A|-------------------------------|0------------------------------|
  E|-------------------------------|-------------------------------|


    01:02
    D
  e|2------ 2---2-- 2---2-- 2---2--|2------ 2------ 2---2-- 2---2--|
  B|3-------3---3---3---3---3---3--|3-------3-------3---3---3---3--|
  G|2-------2---2---2---2---2---2--|2-------2-------2---2---2---2--|
  D|0-------0---0---0---0---0---0--|0-------0-------0---0---0---0--|
  A|-------------------------------|-------------------------------|
  E|-------------------------------|-------------------------------|
            If  you need    a       shoulder    cry     on
                                            to
  e|2------ ------- ------- -------|2------ ------- ------- -------|
  B|3------------------------------|3------------------------------|
  G|2------------------------------|2------------------------------|
  D|-------------------------------|-------------------------------|
  A|-------------------------------|4------------------------------|
  E|-------------------------------|-------------------------------|

    Bm                              Gm
  e|2------ 2---2-- 2---2-- 2------|3------ 3---3-- 3---3-- 3------|
  B|3-------3---3---3---3---3------|3-------3---3---3---3---3------|
  G|4-------4---4---4---4---4------|3-------3---3---3---3---3------|
  D|4-------4---4---4---4---4------|5-------5---5---5---5---5------|
  A|2-------2---2---2---2---2------|5-------5---5---5---5---5------|
  E|-------------------------------|3-------3---3---3---3---3------|
        I   hope    will        mine
                it      be
  e|2------ ------- ------- -------|3------ ------- ------- -------|
  B|3------------------------------|3------------------------------|
  G|4------------------------------|3------------------------------|
  D|4------------------------------|5------------------------------|
  A|2------------------------------|5------------------------------|
  E|-------------------------------|3------------------------------|

    D                               A
  e|2------ 2---2-- 2---2-- 2------|0------ 0---0-- 0---0-- 0------|
  B|3-------3---3---3---3---3------|2-------2---2---2---2---2------|
  G|2-------2---2---2---2---2------|2-------2---2---2---2---2------|
  D|0-------0---0---0---0---0------|2-------2---2---2---2---2------|
  A|-------------------------------|0-------0---0---0---0---0------|
  E|-------------------------------|-------------------------------|
    Call    tonight             and I'll    come        to      you
        me
  e|2------ ------- ------- -------|0------ ------- ------- -------|
  B|3------------------------------|2------------------------------|
  G|2------------------------------|2------------------------------|
  D|0------------------------------|2------------------------------|
  A|-------------------------------|0------------------------------|
  E|-------------------------------|-------------------------------|

    D
  e|2------ 2------ 2---2-- 2---2--|2------ ------- ------- -------|
  B|3-------3-------3---3---3---3--|3------------------------------|
  G|2-------2-------2---2---2---2--|2------------------------------|
  D|-------------------------------|-------------------------------|
  A|-------------------------------|-------------------------------|
  E|-------------------------------|-------------------------------|
                                                    Anytime     at
  e|3------ 2------ 0------ ----2--|------- ------- ------- -------|
  B|--------------------3----------|-------------------------------|
  G|-------------------------------|-------------------------------|
  D|-------------------------------|-------------------------------|
  A|-------------------------------|-------------------------------|
  E|-------------------------------|-------------------------------|


    01:15
    Bm                          D
  e|2------ 2------ 2---2-- 2---2--|------- 2------ 2---2-- 2------|
  B|3-------3-------3---3---3---3--|--------3-------3---3---3------|
  G|4-------4-------4---4---4---2--|--------2-------2---2---2------|
  D|4-------4-------4---4---4---0--|--------0-------0---0---0------|
  A|2-------2-------2---2---2------|-------------------------------|
  E|-------------------------------|-------------------------------|
    all                                             Anytime     at
  e|------- ------- ------- -------|------- ------- ------- -------|
  B|----------------------------3--|-------------------------------|
  G|--------------------2---4------|-------------------------------|
  D|-------------------------------|-------------------------------|
  A|-------------------------------|-------------------------------|
  E|-------------------------------|-------------------------------|

    A
  e|0------ 0---0-- 0---0-- 0---0--|------- 0------ 0---0-- 0------|
  B|2-------2---2---2---2---2---2--|--------2-------2---2---2------|
  G|2-------2---2---2---2---2---2--|--------2-------2---2---2------|
  D|2-------2---2---2---2---2---2--|--------2-------2---2---2------|
  A|0-------0---0---0---0---0---0--|--------0-------0---0---0------|
  E|-------------------------------|-------------------------------|
    all                                             Anytime     at
  e|------- 0------ ------- ----0--|------- 0------ ----0-- 1---2--|
  B|----------------3---2----------|-------------------------------|
  G|-------------------------------|-------------------------------|
  D|-------------------------------|-------------------------------|
  A|-------------------------------|-------------------------------|
  E|-------------------------------|-------------------------------|

    Bm                              G               A
  e|2------ 2------ 2------ 2------|3------ 3------ 0------ 0------|
  B|3-------3-------3-------3------|3-------3-------2-------2------|
  G|4-------4-------4-------4------|0-------0-------2-------2------|
  D|4-------4-------4-------4------|0-------0-------2-------2------|
  A|2-------2-------2-------2------|2-------2-------0-------0------|
  E|-------------------------------|3-------3----------------------|
    all         all you've  do   is call        and             be
                        gotta                     I'll

    D
  e|2------ 2---2-- 2---2-- 2---2--|2------ 2------ 2---2-- 2---2--|
  B|3-------3---3---3---3---3---3--|3-------3-------3---3---3---3--|
  G|2-------2---2---2---2---2---2--|2-------2-------2---2---2---2--|
  D|0-------0---0---0---0---0---0--|0-------0-------0---0---0---0--|
  A|-------------------------------|-------------------------------|
  E|-------------------------------|-------------------------------|
    there
  e|3------ 2------ 0------ ----2--|------- ------- ------- -------|
  B|--------------------3----------|-------------------------------|
  G|-------------------------------|-------------------------------|
  D|-------------------------------|-------------------------------|
  A|-------------------------------|-------------------------------|
  E|-------------------------------|-------------------------------|

    01:29
    SOLO
    A
  e|------- ------- ------- -------|------- ------- ------- -------|
  B|-------------------------------|-------------------------------|
  G|-------------------------------|-------------------------------|
  D|-------------------------------|-------------------------------|
  A|-------------------------------|-------------------------------|
  E|0---------------2--------------|3------------------------------|

  e|0------ ------- 2------ -------|3------ ------- ------- -------|
  B|2---------------3--------------|5------------------------------|
  G|0------------------------------|-------------------------------|
  D|----------------4--------------|5------------------------------|
  A|-------------------------------|-------------------------------|
  E|-------------------------------|-------------------------------|


  e|------- ------- ------- -------|------- ------- ------- -------|
  B|-------------------------------|-------------------------------|
  G|-------------------------------|-------------------------------|
  D|-------------------------------|-------------------------------|
  A|-------------------------------|--------------------0-------1--|
  E|0----0----0-----2----2----2----|3------------------------------|

  e|0----0- --0---- 2----2- --2----|3------ ------- ----0-- ----0--|
  B|2----2----2-----3----3----3----|5-------------------2-------2--|
  G|0----0----0--------------------|--------------------2-------2--|
  D|----------------4----4----4----|5------------------------------|
  A|-------------------------------|-------------------------------|
  E|-------------------------------|-------------------------------|

    G                               A
  e|------- ------- ------- -------|------- ------- ------- -------|
  B|-------------------------------|-------------------------------|
  G|-------------------------------|-------------------------------|
  D|-------------------------------|-------------------------------|
  A|2-------------------2-------3--|4-------------------4-------4--|
  E|-------------------------------|-------------------------------|

  e|------- ------- ------- -------|------- ------- ------- -------|
  B|3-------------------3-------4--|5-------------------5-------5--|
  G|4-------------------4-------5--|6-------------------6-------6--|
  D|5-------------------5-------6--|7-------------------7-------7--|
  A|-------------------------------|-------------------------------|
  E|-------------------------------|-------------------------------|

    G                               A
  e|------- ------- ------- -------|------- ------- ------- -------|
  B|-------------------------------|-------------------------------|
  G|-------------------------------|-------------------------------|
  D|0----0----0-----0----0----0----|2----2----2-----2----0----2----|
  A|-------------------------------|-------------------------------|
  E|-------------------------------|-------------------------------|

  e|3----3- --3---- 3----3- --3----|0----0- --0---- 0----0- --0----|
  B|3----3----3-----3----3----3----|2----2----2-----2----3----2----|
  G|0----0----0-----0----0----0----|2----2----2-----2----2----2----|
  D|-------------------------------|-------------------------------|
  A|-------------------------------|-------------------------------|
  E|-------------------------------|-------------------------------|

    D                                       X
  e|------- ------- ------- -------|------- ------- ------- -------|
  B|-------------------------------|-------------------------------|
  G|0------------------------------|-------------------------------|
  D|--------4-------2---0-------4--|-------------------------------|
  A|-------------------------------|-------------------------------|
  E|-------------------------------|-------------------------------|

  e|3------ 2------ 0------ ----2--|------- ------- ------- -------|
  B|3-------3-------3---3-------3--|-------------------------------|
  G|2-------2-------2-----------2--|-------------------------------|
  D|0-------0-------0-----------0--|-------------------------------|
  A|-------------------------------|-------------------------------|
  E|-------------------------------|-------------------------------|
                                                    Anytime     at

    01:46
    Bm                          D
  e|2------ 2------ 2---2-- 2---2--|------- 2------ 2---2-- 2------|
  B|3-------3-------3---3---3---3--|--------3-------3---3---3------|
  G|4-------4-------4---4---4---2--|--------2-------2---2---2------|
  D|4-------4-------4---4---4---0--|--------0-------0---0---0------|
  A|2-------2-------2---2---2------|-------------------------------|
  E|-------------------------------|-------------------------------|
    all                                             Anytime     at
  e|------- ------- ------- -------|------- ------- ------- -------|
  B|----------------------------3--|-------------------------------|
  G|--------------------2---4------|-------------------------------|
  D|-------------------------------|-------------------------------|
  A|-------------------------------|-------------------------------|
  E|-------------------------------|-------------------------------|

    A
  e|0------ 0---0-- 0---0-- 0---0--|------- 0------ 0---0-- 0------|
  B|2-------2---2---2---2---2---2--|--------2-------2---2---2------|
  G|2-------2---2---2---2---2---2--|--------2-------2---2---2------|
  D|2-------2---2---2---2---2---2--|--------2-------2---2---2------|
  A|0-------0---0---0---0---0---0--|--------0-------0---0---0------|
  E|-------------------------------|-------------------------------|
    all                                             Anytime     at
  e|------- 0------ ------- -------|------- 0------ ----0-- ----1--|
  B|----------------3---2----------|-------------------------------|
  G|-------------------------------|-------------------------------|
  D|-------------------------------|-------------------------------|
  A|-------------------------------|-------------------------------|
  E|-------------------------------|-------------------------------|

    Bm                              G               A
  e|2------ 2------ 2------ 2------|3------ 3------ 0------ 0------|
  B|3-------3-------3-------3------|3-------3-------2-------2------|
  G|4-------4-------4-------4------|0-------0-------2-------2------|
  D|4-------4-------4-------4------|0-------0-------2-------2------|
  A|2-------2-------2-------2------|2-------2-------0-------0------|
  E|-------------------------------|3-------3----------------------|
    all         all you've  do  is  call        and             be
                        gotta                     I'll
  e|2------ ------- ------- -------|------- ------- ------- -------|
  B|-------------------------------|-------------------------------|
  G|-------------------------------|-------------------------------|
  D|-------------------------------|-------------------------------|
  A|-------------------------------|-------------------------------|
  E|-------------------------------|-------------------------------|

    D
  e|2------ 2---2-- 2---2-- 2---2--|2------ 2------ 2---2-- 2---2--|
  B|3-------3---3---3---3---3---3--|3-------3-------3---3---3---3--|
  G|2-------2---2---2---2---2---2--|2-------2-------2---2---2---2--|
  D|0-------0---0---0---0---0---0--|0-------0-------0---0---0---0--|
  A|-------------------------------|-------------------------------|
  E|-------------------------------|-------------------------------|
    there                                       Anytime         at
  e|3------ 2------ 0------ ----2--|------- ------- ------- ----3--|
  B|--------------------3----------|----------------------------3--|
  G|-------------------------------|----------------------------0--|
  D|-------------------------------|-------------------------------|
  A|-------------------------------|-------------------------------|
  E|-------------------------------|-------------------------------|


    02:00
    G                               A
  e|3------ 3---3-- 3---3-- 3---3--|0------ 0---0-- 0---0-- 0------|
  B|3-------3---3---3---3---3---3--|2-------2---2---2---2---2------|
  G|0-------0---0---0---0---0---0--|2-------2---2---2---2---2------|
  D|0-------0---0---0---0---0---0--|2-------2---2---2---2---2------|
  A|2-------2---2---2---2---2---2--|0-------0---0---0---0---0------|
  E|3-------3---3---3---3---3---3--|-------------------------------|
    all         all you've  do  is  call        and             be
                        gotta                     I'll
  e|------- ------- ------- ----5--|------- ------- ------- -------|
  B|----------------------------5--|-------------------------------|
  G|----------------------------6--|-------------------------------|
  D|-------------------------------|-------------------------------|
  A|-------------------------------|-------------------------------|
  E|-------------------------------|-------------------------------|

    D                                               (.
  e|2------ 2---2-- 2---2-- 2---2--|2------ 2------ 2------ -------|
  B|3-------3---3---3---3---3---3--|3-------3-------3--------------|
  G|2-------2---2---2---2---2---2--|2-------2-------2--------------|
  D|0-------0---0---0---0---0---0--|0-------0-------0--------------|
  A|-------------------------------|-------------------------------|
  E|-------------------------------|-------------------------------|
    there
  e|3------ 2------ 0------ ----2--|------- 10----- 10----- -------|
  B|--------------------3----------|--------10------10-------------|
  G|-------------------------------|--------11------11-------------|
  D|-------------------------------|--------12------12-------------|
  A|-------------------------------|--------12------12-------------|
  E|-------------------------------|--------10------10-------------|




        B  Bend
        R  Release
        /  Slide up
        \  Slide down
        H  Hammer-on
        P  Pull-off
        ~  Vibrato
        +  Harmonic
        x  Mute note
        .  Play note like a dot in standard notation
        ^  Ties two notes together
       (.  Pause

  -------------------------------------------------------------------

  THE BEATLES - I'LL CRY INSTEAD (Lennon/McCartney) From A HARD DAY'S
                NIGHT album. Released March 20th 1964.

  -------------------------------------------------------------------

  Tabbed by:PJVillanueva


  I've got every reason on earth to be mad, 'cause I've just
  Lost the only girl I had. If I could get my way, I'd get
  Myself locked up today, but I can't so I cry instead.

  I've got a chip on my shoulder that's bigger than my feet, I
  Can't talk to people that I meet. If I could see you now,
  I'd try to make you sad somehow, but I can't so I cry instead.

  Don't want to cry when there's people there, I get shy when
  They start to stare, I'm gonna hide myself away, ay hay;
  But I'll come back again someday.

  And when I do you'd better hide all the girls, I'm gonna
  Break their hearts all 'round the world. Yes, I'm gonna
  Break them in two, and show you what your loving man can
  Do, until then I'll cry instead.


e|------- ------- ------- -------|------- ------- ------- -------|
B|-------------------------------|-------------------------------|
G|-------------------------------|-------------------------------|
D|-------------------------------|-------------------------------|
A|-------------------------------|-------------------------------|
E|-------------------------------|----------------------------1-/|

  G


e|3------ 3------ 3---3-- 3------|3------ 3------ 3---3-- 3------|
B|3-------3-------3---3---3------|3-------3-------3---3---3------|
G|0-------0-------0---0---0------|0-------0-------0---0---0------|
D|0-------0-------0---0---0------|0-------0-------0---0---0------|
A|2-------2-------2---2---2------|2-------2-------2---2---2------|
E|3-------3-------3---3---3------|3-------3-------3---3---3------|

e|------- 3------ ----5-- -------|------- 3------ ----5-- -------|
B|--------3-------5--------------|--------3-------5--------------|
G|--------4-------5-------5------|--------4-------5-------5------|
D|-------------------------------|-------------------------------|
                                                      I've
                                                          got

e|3------ 3------ 3---3-- 3---3--|3------ 3---3-- 3---3-- 3------|
B|3-------3-------3---3---3---3--|3-------3---3---3---3---3------|
G|0-------0-------0---0---0---0--|0-------0---0---0---0---0------|
D|0-------0-------0---0---0---0--|0-------0---0---0---0---0------|
A|2-------2-------2---2---2---2--|2-------2---2---2---2---2------|
E|3-------3-------3---3---3---3--|3-------3---3---3---3---3------|

e|------- 3------ ----5-- -------|------- 3------ ----5-- -------|
B|--------3-------5--------------|--------3-------5--------------|
G|--------4-------5-------5------|--------4-------5-------5------|
D|-------------------------------|-------------------------------|
  every           reason  on  earth               to  be      mad


e|3------ 3---3-- 3---3-- 3---3--|3------ 3---3-- 3---3-- 3------|
B|3-------3---3---3---3---3---3--|3-------3---3---3---3---3------|
G|0-------0---0---0---0---0---0--|0-------0---0---0---0---0------|
D|0-------0---0---0---0---0---0--|0-------0---0---0---0---0------|
A|2-------2---2---2---2---2---2--|2-------2---2---2---2---2------|
E|3-------3---3---3---3---3---3--|3-------3---3---3---3---3------|

e|------- 3------ ----5-- -------|------- 3------ ----5-- -------|
B|--------3-------5--------------|--------3-------5--------------|
G|--------4-------5-------5------|--------4-------5-------5------|
D|-------------------------------|-------------------------------|
                                                            'cause


e|3------ 3------ 3---3-- 3---3--|3------ 3---3-- 3---3-- 3------|
B|3-------3-------3---3---3---3--|3-------3---3---3---3---3------|
G|0-------0-------0---0---0---0--|0-------0---0---0---0---0------|
D|0-------0-------0---0---0---0--|0-------0---0---0---0---0------|
A|2-------2-------2---2---2---2--|2-------2---2---2---2---2------|
E|3-------3-------3---3---3---3--|3-------3---3---3---3---3------|

e|------- 3------ ----5-- -------|------- 3------ ----5-- -------|
B|--------3-------5--------------|--------3-------5--------------|
G|--------4-------5-------5------|--------4-------5--------------|
D|-------------------------------|-------------------------------|
  I've    just    lost    the  only           girl    I       had

  D
e|2------ 2------ 2---2-- 2---2--|2------ 2---2-- 2---2-- 2------|
B|3-------3-------3---3---3---3--|3-------3---3---3---3---3------|
G|2-------2-------2---2---2---2--|2-------2---2---2---2---2------|
D|0-------0-------0---0---0---0--|0-------0---0---0---0---0------|
A|-------------------------------|-------------------------------|
E|-------------------------------|-------------------------------|

e|------- ------- ------- -------|0------ ------- ------- -------|
B|--------3-----------3----------|------------3---------------\--|
G|--------5----------------------|-------------------------------|
D|-------------------------------|--------4----------------------|
                                                          If  I

  C
e|0------ 0------ 0---0-- 0---0--|0------ 0---0-- 0---0-- 0------|
B|1-------1-------1---1---1---1--|1-------1---1---1---1---1------|
G|0-------0-------0---0---0---0--|0-------0---0---0---0---0------|
D|2-------2-------2---2---2---2--|2-------2---2---2---2---2------|
A|3-------3-------3---3---3---3--|3-------3---3---3---3---3------|
E|3-------3-------3---3---3---3--|3-------3---3---3---3---3------|

e|------- ------- ------- -------|------- ------- ------- -------|
B|--------1-----------1----------|------------1-----------1------|
G|-------------------------------|3------------------------------|
D|2------------------------------|-------------------------------|
          could   get     my  way                             I'd


e|0------ 0------ 0---0-- 0------|0------ 0---0-- 0---0-- 0------|
B|1-------1-------1---1---1------|1-------1---1---1---1---1------|
G|0-------0-------0---0---0------|0-------0---0---0---0---0------|
D|2-------2-------2---2---2------|2-------2---2---2---2---2------|
A|3-------3-------3---3---3------|3-------3---3---3---3---3------|
E|3-------3-------3---3---3------|3-------3---3---3---3---3------|

e|------- ------- ------- -------|------- ------- ------- -------|
B|--------1-----------1----------|1-----------1------------------|
G|-------------------------------|-------------------------------|
D|-------------------------------|-------------------------------|
  get     myself          locked          today       but I   can't
                              up


  G                               D
e|3------ 3---3-- 3---3-- 3------|2------ 2---2-- 2---2-- 2------|
B|3-------3---3---3---3---3------|3-------3---3---3---3---3------|
G|0-------0---0---0---0---0------|2-------2---2---2---2---2------|
D|0-------0---0---0---0---0------|0-------0---0---0---0---0------|
A|2-------2---2---2---2---2------|-------------------------------|
E|3-------3---3---3---3---3------|-------------------------------|

e|------- 3------ ----5-- -------|------- ------- ----2-- -------|
B|--------3-----------5----------|--------3-----------3----------|
G|--------4-----------5----------|--------2-----------2----------|
D|-------------------------------|--------0----------------------|
                      so  I'll    cry                 instead

  G
e|3------ 3------ 3---3-- 3------|3------ 3------ 3---3-- 3------|
B|3-------3-------3---3---3------|3-------3-------3---3---3------|
G|0-------0-------0---0---0------|0-------0-------0---0---0------|
D|0-------0-------0---0---0------|0-------0-------0---0---0------|
A|2-------2-------2---2---2------|2-------2-------2---2---2------|
E|3-------3-------3---3---3------|3-------3-------3---3---3------|

e|------- 3------ ----5-- -------|3------ 3------ ----5-- -------|
B|--------3-----------5----------|3-------3-----------5----------|
G|--------4-----------5----------|4-------4-----------5----------|
D|-------------------------------|-------------------------------|
                                                      I've got a


e|3------ 3------ 3---3-- 3---3--|3------ 3---3-- 3---3-- 3------|
B|3-------3-------3---3---3---3--|3-------3---3---3---3---3------|
G|0-------0-------0---0---0---0--|0-------0---0---0---0---0------|
D|0-------0-------0---0---0---0--|0-------0---0---0---0---0------|
A|2-------2-------2---2---2---2--|2-------2---2---2---2---2------|
E|3-------3-------3---3---3---3--|3-------3---3---3---3---3------|

e|------- 3------ ----5-- -------|------- 3------ ----5-- -------|
B|--------3-----------5----------|--------3-----------5----------|
G|--------4-----------5---5------|--------4-----------5---5------|
D|-------------------------------|-------------------------------|
  chip    on  my  shoulder        bigger      than    my      feet
                          that's

e|3------ 3------ 3---3-- 3---3--|3------ 3---3-- 3---3-- 3------|
B|3-------3-------3---3---3---3--|3-------3---3---3---3---3------|
G|0-------0-------0---0---0---0--|0-------0---0---0---0---0------|
D|0-------0-------0---0---0---0--|0-------0---0---0---0---0------|
A|2-------2-------2---2---2---2--|2-------2---2---2---2---2------|
E|3-------3-------3---3---3---3--|3-------3---3---3---3---3------|

e|------- 3------ ----5-- -------|------- 3------ ----5-- -------|
B|--------3-----------5----------|--------3-----------5----------|
G|--------4-----------5---5------|--------4-----------5---5------|
D|-------------------------------|-------------------------------|
                                                              I


e|3------ 3------ 3---3-- 3---3--|3------ 3---3-- 3---3-- 3------|
B|3-------3-------3---3---3---3--|3-------3---3---3---3---3------|
G|0-------0-------0---0---0---0--|0-------0---0---0---0---0------|
D|0-------0-------0---0---0---0--|0-------0---0---0---0---0------|
A|2-------2-------2---2---2---2--|2-------2---2---2---2---2------|
E|3-------3-------3---3---3---3--|3-------3---3---3---3---3------|

e|------- 3------ ----5-- -------|------- 3------ ----5-- -------|
B|--------3-----------5----------|--------3-----------5----------|
G|--------4-----------5---5------|--------4-----------5----------|
D|-------------------------------|-------------------------------|
          can't   talk    to  people              that        meet
                                                      I


  D
e|2------ 2------ 2---2-- 2---2--|2------ 2---2-- 2---2-- 2------|
B|3-------3-------3---3---3---3--|3-------3---3---3---3---3------|
G|2-------2-------2---2---2---2--|2-------2---2---2---2---2------|
D|0-------0-------0---0---0---0--|0-------0---0---0---0---0------|
A|-------------------------------|-------------------------------|
E|-------------------------------|-------------------------------|

e|------- 0------ ------- -------|0------ ------- ------- -------|
B|--------------------3----------|------------3------------------|
G|-------------------------------|------------5------------------|
D|-------------------------------|--------------------4----------|
                                                          If  I

  C
e|0------ 0------ 0---0-- 0---0--|0------ 0---0-- 0---0-- 0------|
B|1-------1-------1---1---1---1--|1-------1---1---1---1---1------|
G|0-------0-------0---0---0---0--|0-------0---0---0---0---0------|
D|2-------2-------2---2---2---2--|2-------2---2---2---2---2------|
A|3-------3-------3---3---3---3--|3-------3---3---3---3---3------|
E|3-------3-------3---3---3---3--|3-------3---3---3---3---3------|

e|------- ------- ------- -------|------- ------- ------- -------|
B|--------------------1----------|------------1------------------|
G|--------3----------------------|3------------------------------|
D|--------2----------------------|-------------------------------|
          could   see     you now                             I'd


e|0------ 0------ 0---0-- 0---0--|0------ 0---0-- 0---0-- 0------|
B|1-------1-------1---1---1---1--|1-------1---1---1---1---1------|
G|0-------0-------0---0---0---0--|0-------0---0---0---0---0------|
D|2-------2-------2---2---2---2--|2-------2---2---2---2---2------|
A|3-------3-------3---3---3---3--|3-------3---3---3---3---3------|
E|3-------3-------3---3---3---3--|3-------3---3---3---3---3------|

e|------- ------- ------- -------|3------ ------- ------- -------|
B|--------1-----------1----------|--------------------1----------|
G|-------------------------------|-------------------------------|
D|--------2----------------------|-------------------------------|
  try     to  make    you     sad         somehow     but I   can't

  G                               D
e|3------ 3---3-- 3---3-- 3------|2------ 2---2-- 2---2-- 2------|
B|3-------3---3---3---3---3------|3-------3---3---3---3---3------|
G|0-------0---0---0---0---0------|2-------2---2---2---2---2------|
D|0-------0---0---0---0---0------|0-------0---0---0---0---0------|
A|2-------2---2---2---2---2------|-------------------------------|
E|3-------3---3---3---3---3------|-------------------------------|

e|------- 3------ ----5-- -------|------- 2------ ------- -------|
B|--------3-----------5----------|--------------------3----------|
G|--------4-----------5----------|------------------------4------|
D|-------------------------------|-------------------------------|
                      so  I    cry                    instead

  G
e|3------ 3------ 3---3-- 3------|3------ 3---3-- 3---3-- 3------|
B|3-------3-------3---3---3------|3-------3---3---3---3---3------|
G|0-------0-------0---0---0------|0-------0---0---0---0---0------|
D|0-------0-------0---0---0------|0-------0---0---0---0---0------|
A|2-------2-------2---2---2------|2-------2---2---2---2---2------|
E|3-------3-------3---3---3------|3-------3---3---3---3---3------|

e|------- 3------ ----5-- -------|------- 3------ ----5-- -------|
B|--------3-------5--------------|--------3-----------5----------|
G|--------4-------5-------5------|--------4-----------5----------|
D|-------------------------------|-------------------------------|
                                              Don't   want    to

  Bm
e|2------ 2------ 2---2-- 2---2--|2------ 2---2-- 2---2-- 2------|
B|3-------3-------3---3---3---3--|3-------3---3---3---3---3------|
G|4-------4-------4---4---4---4--|4-------4---4---4---4---4------|
D|4-------4-------4---4---4---4--|4-------4---4---4---4---4------|
A|2-------2-------2---2---2---2--|2-------2---2---2---2---2------|
E|-------------------------------|-------------------------------|

e|------- ------- ------- -------|------- ------- ------- -------|
B|--------------------3----------|-------------------------------|
G|-------------------------------|------------4------------------|
D|--------4----------------------|4------------------------------|
  cry     when    people      there                   I   get
              there's


  A
e|0------ 0------ 0---0-- 0------|0------ 0---0-- 0---0-- 0------|
B|2-------2-------2---2---2------|2-------2---2---2---2---2------|
G|2-------2-------2---2---2------|2-------2---2---2---2---2------|
D|2-------2-------2---2---2------|2-------2---2---2---2---2------|
A|0-------0-------0---0---0------|0-------0---0---0---0---0------|
E|-------------------------------|-------------------------------|

e|------- 5------ ------- -------|3------ ----3-- ------- -------|
B|--------------------2----------|--------------------5----------|
G|-------------------------------|-------------------------------|
D|--------5----------------------|-------------------------------|
  shy     when    start   to  stare                           I'm
              they


  D
e|2------ 2------ 2---2-- 2---2--|2------ 2---2-- 2---2-- 2------|
B|3-------3-------3---3---3---3--|3-------3---3---3---3---3------|
G|2-------2-------2---2---2---2--|2-------2---2---2---2---2------|
D|0-------0-------0---0---0---0--|0-------0---0---0---0---0------|
A|-------------------------------|-------------------------------|
E|-------------------------------|-------------------------------|

e|2------ 2------ ------- -------|2------ ------- ------- -------|
B|--------------------3----------|------------3-------3----------|
G|-------------------------------|-------------------------------|
D|-------------------------------|-------------------------------|
  gonna   hide            away                                but
              myself


  Em                              A           D
e|0------ 0---0-- 0---0-- 0------|0------ ----2-- ------- -------|
B|0-------0---0---0---0---0------|2-----------3------------------|
G|0-------0---0---0---0---0------|2-----------2------------------|
D|2-------2---2---2---2---2------|2-----------0------------------|
A|2-------2---2---2---2---2------|0------------------------------|
E|0-------0---0---0---0---0------|-------------------------------|

e|------- 0------ ------- -------|------- ------- ------- -------|
B|--------------------3----------|2-----------3------------------|
G|-------------------------------|-------------------------------|
D|-------------------------------|-------------------------------|
A|-------------------------------|0------------------------------|
  I'll    come    back        again       some        and when
                                              day             I


  G
e|3------ 3------ 3---3-- 3---3--|3------ 3---3-- 3---3-- 3---3--|
B|3-------3-------3---3---3---3--|3-------3---3---3---3---3---3--|
G|0-------0-------0---0---0---0--|0-------0---0---0---0---0---0--|
D|0-------0-------0---0---0---0--|0-------0---0---0---0---0---0--|
A|2-------2-------2---2---2---2--|2-------2---2---2---2---2---2--|
E|3-------3-------3---3---3---3--|3-------3---3---3---3---3---3--|

e|------- ------- ----5-- -------|------- 3------ ----5-- -------|
B|------------3-------5----------|--------3-----------5----------|
G|--------------------5----------|--------4-----------5----------|
D|-------------------------------|-------------------------------|
  do      you'd   better      hide                all     the girls


e|3------ 3------ 3---3-- 3---3--|3------ 3---3-- 3---3-- 3------|
B|3-------3-------3---3---3---3--|3-------3---3---3---3---3------|
G|0-------0-------0---0---0---0--|0-------0---0---0---0---0------|
D|0-------0-------0---0---0---0--|0-------0---0---0---0---0------|
A|2-------2-------2---2---2---2--|2-------2---2---2---2---2------|
E|3-------3-------3---3---3---3--|3-------3---3---3---3---3------|
                                                              I'm
e|------- 3------ ----5-- -------|------- 3------ ----5-- -------|
B|--------3-------5--------------|--------3-------5--------------|
G|--------4-------5-------5------|--------4-------5-------5------|
D|-------------------------------|-------------------------------|

e|3------ 3------ 3---3-- 3---3--|3------ 3---3-- 3---3-- 3------|
B|3-------3-------3---3---3---3--|3-------3---3---3---3---3------|
G|0-------0-------0---0---0---0--|0-------0---0---0---0---0------|
D|0-------0-------0---0---0---0--|0-------0---0---0---0---0------|
A|2-------2-------2---2---2---2--|2-------2---2---2---2---2------|
E|3-------3-------3---3---3---3--|3-------3---3---3---3---3------|

e|------- 3------ ----5-- -------|------- 3------ ----5-- -------|
B|--------3-------5--------------|--------3-----------5----------|
G|--------4-------5-------5------|--------4-----------5----------|
D|-------------------------------|-------------------------------|
          gonna   break   their           all     'round  the world
                              hearts


  D
e|2------ 2------ 2---2-- 2---2--|2------ 2---2-- 2---2-- 2------|
B|3-------3-------3---3---3---3--|3-------3---3---3---3---3------|
G|2-------2-------2---2---2---2--|2-------2---2---2---2---2------|
D|0-------0-------0---0---0---0--|0-------0---0---0---0---0------|
A|-------------------------------|-------------------------------|
E|-------------------------------|-------------------------------|

e|------- 0------ ------- -------|0------ ------- ------- -------|
B|----------------3--------------|------------3------------------|
G|----------------5--------------|------------5------------------|
D|-------------------------------|--------------------4----------|
                                                          Yes I'm

  C
e|0------ 0------ 0---0-- 0---0--|0------ 0---0-- 0---0-- 0------|
B|1-------1-------1---1---1---1--|1-------1---1---1---1---1------|
G|0-------0-------0---0---0---0--|0-------0---0---0---0---0------|
D|2-------2-------2---2---2---2--|2-------2---2---2---2---2------|
A|3-------3-------3---3---3---3--|3-------3---3---3---3---3------|
E|3-------3-------3---3---3---3--|3-------3---3---3---3---3------|

e|------- ------- ------- -------|------- ------- ------- -------|
B|--------------------1----------|------------1------------------|
G|--------3----------------------|3-------------------3----------|
D|--------2----------------------|2-----------------------2------|
          gonna   break   in  two                             and
                     'em

e|------- ------- ------- -------|------- ------- ------- -------|
B|-------------------------------|-------------------------------|
G|-------------------------------|-------------------------------|
D|-------------------------------|-------------------------------|
A|-------------------------------|-------------------------------|
E|-------------------------------|-------------------------------|
  show    what    loving      man         can do      until   then
      you     your


  G                               D
e|3------ 3---3-- 3---3-- 3------|2------ 2---2-- 2---2-- 2------|
B|3-------3---3---3---3---3------|3-------3---3---3---3---3------|
G|0-------0---0---0---0---0------|2-------2---2---2---2---2------|
D|0-------0---0---0---0---0------|0-------0---0---0---0---0------|
A|2-------2---2---2---2---2------|-------------------------------|
E|3-------3---3---3---3---3------|-------------------------------|

e|------- ------- ----3-- -------|------- ----2-- ------- -------|
B|--------3----------------------|--------------------3----------|
G|--------4----------------------|-------------------------------|
D|-------------------------------|-------------------------------|
                      I'll        cry                 instead

  G
e|3------ 3------ 3---3-- 3------|3------ 3------ 3---3-- 3------|
B|3-------3-------3---3---3------|3-------3-------3---3---3------|
G|0-------0-------0---0---0------|0-------0-------0---0---0------|
D|0-------0-------0---0---0------|0-------0-------0---0---0------|
A|2-------2-------2---2---2------|2-------2-------2---2---2------|
E|3-------3-------3---3---3------|3-------3-------3---3---3------|
                                              Don't   want    to
e|------- 3------ ----5-- -------|------- 3------ ----5-- -------|
B|--------3-------5--------------|--------3-----------5----------|
G|--------4-------5-------5------|--------4-----------5----------|
D|-------------------------------|-------------------------------|


  Bm
e|2------ 2------ 2---2-- 2---2--|2------ 2---2-- 2---2-- 2------|
B|3-------3-------3---3---3---3--|3-------3---3---3---3---3------|
G|4-------4-------4---4---4---4--|4-------4---4---4---4---4------|
D|4-------4-------4---4---4---4--|4-------4---4---4---4---4------|
A|2-------2-------2---2---2---2--|2-------2---2---2---2---2------|
E|-------------------------------|-------------------------------|

e|------- 2------ ------- ----2--|------- ------- ------- ----0--|
B|-------------------------------|------------3-----------3------|
G|-------------------------------|----------------4--------------|
D|-------------------------------|-------------------------------|
  cry     when    people      there                   I   get
              there's


  A
e|0------ 0------ 0---0-- 0------|0------ 0---0-- 0---0-- 0------|
B|2-------2-------2---2---2------|2-------2---2---2---2---2------|
G|2-------2-------2---2---2------|2-------2---2---2---2---2------|
D|2-------2-------2---2---2------|2-------2---2---2---2---2------|
A|0-------0-------0---0---0------|0-------0---0---0---0---0------|
E|-------------------------------|-------------------------------|

e|------- 0------ ----3-- -------|------- 3---0-- ------- -------|
B|-------------------------------|----------------2--------------|
G|-------------------------------|--------------------2----------|
D|-------------------------------|-------------------------------|
  shy     when    start   to  stare                           I'm
              they


  D
e|2------ 2------ 2---2-- 2---2--|2------ 2---2-- 2---2-- 2------|
B|3-------3-------3---3---3---3--|3-------3---3---3---3---3------|
G|2-------2-------2---2---2---2--|2-------2---2---2---2---2------|
D|0-------0-------0---0---0---0--|0-------0---0---0---0---0------|
A|-------------------------------|-------------------------------|
E|-------------------------------|-------------------------------|

e|------- ------- ------- -------|------- ------- ------- -------|
B|-------------------------------|--------------------3-------0--|
G|--------------------2----------|--------2----------------------|
D|-------------------------------|-------------------------------|
  gonna   hide            away                                but
              myself


  Em                              A           D
e|0------ 0---0-- 0---0-- 0------|0------ ----2-- ------- -------|
B|0-------0---0---0---0---0------|2-----------3------------------|
G|0-------0---0---0---0---0------|2-----------2------------------|
D|2-------2---2---2---2---2------|2-----------0------------------|
A|2-------2---2---2---2---2------|0------------------------------|
E|0-------0---0---0---0---0------|-------------------------------|

e|------- ----0-- ------- -------|------- ------- ------- -------|
B|--------------------3----------|----2-----------3--------------|
G|-------------------------------|-------------------------------|
D|-------------------------------|-------------------------------|
A|-------------------------------|-------------------------------|
  I'll    come    back        again       some        and when
                                              day             I


  G
e|3------ 3------ 3---3-- 3---3--|3------ 3---3-- 3---3-- 3---3--|
B|3-------3-------3---3---3---3--|3-------3---3---3---3---3---3--|
G|0-------0-------0---0---0---0--|0-------0---0---0---0---0---0--|
D|0-------0-------0---0---0---0--|0-------0---0---0---0---0---0--|
A|2-------2-------2---2---2---2--|2-------2---2---2---2---2---2--|
E|3-------3-------3---3---3---3--|3-------3---3---3---3---3---3--|

e|------- ------- ----5-- -------|------- ------- ----5-- -------|
B|------------3---5--------------|----------------5--------------|
G|----------------5--------------|----------------5--------------|
D|-------------------------------|-------------------------------|
  do      you'd   better      hide                all     the girls


e|3------ 3------ 3---3-- 3---3--|3------ 3---3-- 3---3-- 3------|
B|3-------3-------3---3---3---3--|3-------3---3---3---3---3------|
G|0-------0-------0---0---0---0--|0-------0---0---0---0---0------|
D|0-------0-------0---0---0---0--|0-------0---0---0---0---0------|
A|2-------2-------2---2---2---2--|2-------2---2---2---2---2------|
E|3-------3-------3---3---3---3--|3-------3---3---3---3---3------|

e|------- 3------ ----5-- -------|------- 3------ ----5-- -------|
B|--------3-------5--------------|--------3-------5--------------|
G|--------4-------5-------5------|--------4-------5-------5------|
D|-------------------------------|-------------------------------|
                                                              I'm


e|3------ 3------ 3---3-- 3---3--|3------ 3---3-- 3---3-- 3------|
B|3-------3-------3---3---3---3--|3-------3---3---3---3---3------|
G|0-------0-------0---0---0---0--|0-------0---0---0---0---0------|
D|0-------0-------0---0---0---0--|0-------0---0---0---0---0------|
A|2-------2-------2---2---2---2--|2-------2---2---2---2---2------|
E|3-------3-------3---3---3---3--|3-------3---3---3---3---3------|

e|------- 3------ ----5-- -------|------- 3------ ----5-- -------|
B|--------3-------5--------------|--------3-----------5----------|
G|--------4-------5-------5------|--------4-----------5----------|
D|-------------------------------|-------------------------------|
          gonna   break   their           all     'round  the world
                              hearts


  D
e|2------ 2------ 2---2-- 2---2--|2------ 2---2-- 2---2-- 2------|
B|3-------3-------3---3---3---3--|3-------3---3---3---3---3------|
G|2-------2-------2---2---2---2--|2-------2---2---2---2---2------|
D|0-------0-------0---0---0---0--|0-------0---0---0---0---0------|
A|-------------------------------|-------------------------------|
E|-------------------------------|-------------------------------|

e|------- ------- ------- -------|------- ------- ------- -------|
B|--------3---------------4------|3------------------------------|
G|--------------------5----------|------------5------------------|
D|-------------------------------|--------------------4----------|
                                                          Yes I'm

  C
e|0------ 0------ 0---0-- 0---0--|0------ 0---0-- 0---0-- 0------|
B|1-------1-------1---1---1---1--|1-------1---1---1---1---1------|
G|0-------0-------0---0---0---0--|0-------0---0---0---0---0------|
D|2-------2-------2---2---2---2--|2-------2---2---2---2---2------|
A|3-------3-------3---3---3---3--|3-------3---3---3---3---3------|
E|3-------3-------3---3---3---3--|3-------3---3---3---3---3------|

e|------- 0------ ------- -------|------- ------- ------- -------|
B|--------------------1----------|--------------------1-------1--|
G|-------------------------------|------------3------------------|
D|-------------------------------|-------------------------------|
          gonna   break   in  two                             and
                      em

e|------- ------- ------- -------|------- ------- ------- -------|
B|-------------------------------|-------------------------------|
G|-------------------------------|-------------------------------|
D|-------------------------------|-------------------------------|
A|-------------------------------|-------------------------------|
E|-------------------------------|-------------------------------|
  show    what    loving      man         can do      until   then
      you     your


  G                               D
e|3------ 3---3-- 3---3-- 3------|2------ 2---2-- 2---2-- 2------|
B|3-------3---3---3---3---3------|3-------3---3---3---3---3------|
G|0-------0---0---0---0---0------|2-------2---2---2---2---2------|
D|0-------0---0---0---0---0------|0-------0---0---0---0---0------|
A|2-------2---2---2---2---2------|-------------------------------|
E|3-------3---3---3---3---3------|-------------------------------|
                      I'll        cry                 instead
e|------- ------- ------- -------|------- ------- ------- -------|
B|-------------------------------|--------3-----------2----------|
G|-------------------------------|-------------------------------|
D|-------------------------------|-------------------------------|


  G                              (.
e|3------ 3---3-- 3---3-- 3------|3------ ------- ------- -------|
B|3-------3---3---3---3---3------|3------------------------------|
G|0-------0---0---0---0---0------|0------------------------------|
D|0-------0---0---0---0---0------|0------------------------------|
A|2-------2---2---2---2---2------|2------------------------------|
E|3-------3---3---3---3---3------|3------------------------------|

e|------- 3------ ------- -------|3------ ------- ------- -------|
B|--------------------3----------|-------------------------------|
G|-------------------------------|-------------------------------|
D|-------------------------------|-------------------------------|
A|-------------------------------|-------------------------------|
E|-------------------------------|-------------------------------|




        B  Bend
        R  Release
        /  slide up
        \  slide down
        H  hammer-on
        P  pull-off
        ~  vibrato
        +  harmonic
        x  Mute note
        . - play note like a dot in standard notation
        ^ - ties two notes together
        (. Pause

  -------------------------------------------------------------------

  THE BEATLES - THINGS WE SAID TODAY (Lennon & McCartney) From A HARD
                DAY'S NIGHT album. Released on 20th March 1964

  -------------------------------------------------------------------

  Tabbed by:PJVillanueva


  You say you will love me
  If I have to go.
  You'll be thinking of me,
  Somehow I will know.

  Someday when I'm lonely,
  Wishing you weren't so far away,
  Then I will remember
  Things we said today.

  You say you'll be mine, girl,
 'Til the end of time.
  These days such a kind girl
  Seems so hard to find.

  Someday when we're dreaming,
  Deep in love, not a lot to say.
  Then we will remember
  Things we said today.

  Me, I'm just the lucky kind.
  Love to hear you say that love is luck.
  And, though we may be blind,
  Love is here to stay. And that's enough

  To make you mine, girl,
  Be the only one.
  Love me all the time, girl.
  We'll go on and on.

  Someday when we're dreaming,
  Deep in love, not a lot to say.
  Then we will remember
  Things we said today.

  Me, I'm just the lucky kind.
  Love to hear you say that love is luck.
  And, though we may be blind,
  Love is here to stay. And that's enough

  To make you mine, girl,
  Be the only one
  Love me all the time, girl.
  We'll go on and on.

  Someday when we're dreaming,
  Deep in love, not a lot to say.
  Then we will remember
  Things we said today.


e|------- ------- ------- -------|------- ------- ------- ----0-0|
B|-------------------------------|----------------------------1-1|
G|-------------------------------|----------------------------2-2|
D|-------------------------------|----------------------------2-2|
A|-------------------------------|----------------------------0-0|
E|-------------------------------|-------------------------------|


e|0------ ------- ------- ----0-0|0------ ------- ------- ----0-0|
B|1---------------------------1-1|1---------------------------1-1|
G|2---------------------------2-2|2---------------------------2-2|
D|2---------------------------2-2|2---------------------------2-2|
A|0---------------------------0-0|0---------------------------0-0|
E|-------------------------------|-------------------------------|

e|------- 5------ ----5-- -------|------- 5------ ----5-- -------|
B|--------5-----------5----------|--------5-----------5----------|
G|--------5-----------5----------|--------5-----------5----------|
D|-------------------------------|-------------------------------|
A|-------------------------------|-------------------------------|
E|-------------------------------|-------------------------------|


  Am                  Em          Am
e|0------ 0------ ----0-- -------|0------ 0------ 0---0-- ----0--|
B|1-------1-----------0----------|1-------1-------1---1-------1--|
G|2-------2-----------0----------|2-------2-------2---2-------2--|
D|2-------2-----------2----------|2-------2-------2---2-------2--|
A|0-------0-----------2----------|0-------0-------0---0-------0--|
E|--------------------0----------|-------------------------------|

e|------- 5------ ----3-- -------|------- 5------ ----0-- -------|
B|--------5-----------3----------|--------5-----------5----------|
G|--------5-----------4----------|--------5-----------7----------|
D|-------------------------------|-------------------------------|
A|-------------------------------|-------------------------------|
E|-------------------------------|-------------------------------|
  You say         you will        love        me


                      Em          Am
e|0------ 0---0-- 0---0-- -------|0------ 0---0-- 0---0-- ----0--|
B|1-------1---1---1---0----------|1-------1---1---1---1-------1--|
G|2-------2---2---2---0----------|2-------2---2---2---2-------2--|
D|2-------2---2---2---2----------|2-------2---2---2---2-------2--|
A|0-------0---0---0---2----------|0-------0---0---0---0-------0--|
E|--------------------0----------|-------------------------------|

e|------- 5------ ----7-- -------|------- 5------ ----3-- -------|
B|--------5-----------5----------|--------5-----------3----------|
G|--------5-----------7----------|--------5-----------4----------|
D|-------------------------------|-------------------------------|
A|-------------------------------|-------------------------------|
E|-------------------------------|-------------------------------|
  If I            have    to  go


                      Em      Am
e|0------ 0------ 0---0-- ----0--|0------ 0---0-- ----0-- ----0--|
B|1-------1-------1---0-------1--|1-------1---1-------1-------1--|
G|2-------2-------2---0-------2--|2-------2---2-------2-------2--|
D|2-------2-------2---2-------2--|2-------2---2-------2-------2--|
A|0-------0-------0---2-------0--|0-------0---0-------0-------0--|
E|--------------------0----------|-------------------------------|

e|------- 5------ ----3-- -------|------- 5------ ----3-- -------|
B|--------5-----------3----------|--------5-----------3----------|
G|--------5-----------4----------|--------5-----------4----------|
D|-------------------------------|-------------------------------|
A|-------------------------------|-------------------------------|
E|-------------------------------|-------------------------------|
  You'll          thinking    of              me
      be

                      Em      Am
e|0------ 0------ ----0-- ----0--|0------ 0------ ----0-- ----0--|
B|1-------1-----------0-------1--|1-------1-----------1-------1--|
G|2-------2-----------0-------2--|2-------2-----------2-------2--|
D|2-------2-----------2-------2--|2-------2-----------2-------2--|
A|0-------0-----------2-------0--|0-------0-----------0-------0--|
E|--------------------0----------|-------------------------------|

e|------- 5------ ----7-- -------|------- ------- ------- ----3--|
B|--------5-----------5----------|----------------------------5--|
G|--------5-----------7----------|----------------------------5--|
D|-------------------------------|----------------------------5--|
A|-------------------------------|-------------------------------|
E|-------------------------------|-------------------------------|
  Somehow         I   will    know


  C
e|0------ 0------ ----0-- -------|0------ 0------ ----0-- ----0--|
B|1-------1-----------1----------|1-------1-----------1-------1--|
G|0-------0-----------0----------|0-------0-----------0-------0--|
D|2-------2-----------2----------|2-------2-----------2-------2--|
A|3-------3-----------3----------|3-------3-----------3-------3--|
E|-------------------------------|-------------------------------|

e|------- ------- ------- -------|3------ ------- ------- -------|
B|-------------------------------|3------------------------------|
G|-------------------------------|3------------------------------|
D|-------------------------------|2------------------------------|
A|-------------------------------|3------------------------------|
E|-------------------------------|-------------------------------|
  Someday             when        lonely,
                          I'm

  F                               Bb
e|1------ 1------ ----1-- ----1--|1------ 1------ ----1-- ----1--|
B|1-------1-----------1-------1--|3-------3-----------3-------3--|
G|2-------2-----------2-------2--|3-------3-----------3-------3--|
D|3-------3-----------3-------3--|3-------3-----------3-------3--|
A|3-------3-----------3-------3--|1-------1-----------1-------1--|
E|1-------1-----------1-------1--|-------------------------------|

e|1------ ------- ------- -------|6------ ------- ------- -------|
B|1------------------------------|6------------------------------|
G|2------------------------------|7------------------------------|
D|3------------------------------|8------------------------------|
A|3------------------------------|8------------------------------|
E|1------------------------------|6------------------------------|
  Wishing     you     weren't so  far     away


  Am                  Em      Am
e|0------ 0---0-- ----0-- ----0--|0------ 0------ ----0-- ----0--|
B|1-------1---1-------0-------1--|1-------1-----------1-------1--|
G|2-------2---2-------0-------2--|2-------2-----------2-------2--|
D|2-------2---2-------2-------2--|2-------2-----------2-------2--|
A|0-------0---0-------2-------0--|0-------0-----------0-------0--|
E|--------------------0----------|-------------------------------|

e|------- 5------ ----3-- -------|------- 5------ ----0-- -------|
B|--------5-----------3----------|--------5-----------5----------|
G|--------5-----------4----------|--------5-----------7----------|
D|-------------------------------|-------------------------------|
A|-------------------------------|-------------------------------|
E|-------------------------------|-------------------------------|
  Then I          will
                      remember

                      Em          Am
e|0------ 0------ ----0-- -------|0------ 0------ ----0-- ----0-0|
B|1-------1-----------0----------|1-------1-----------1-------1-1|
G|2-------2-----------0----------|2-------2-----------2-------2-2|
D|2-------2-----------2----------|2-------2-----------2-------2-2|
A|0-------0-----------2----------|0-------0-----------0-------0-0|
E|--------------------0----------|-------------------------------|

e|------- 5------ ----3-- -------|------- 5------ ----5-- -------|
B|--------5-----------3----------|--------5-----------5----------|
G|--------5-----------4----------|--------5-----------5----------|
D|-------------------------------|-------------------------------|
A|-------------------------------|-------------------------------|
E|-------------------------------|-------------------------------|
  Things          said
      we              today


e|0------ 0------ 0---0-- 0---0--|
B|1-------1-------1---1---1---1--|
G|2-------2-------2---2---2---2--|
D|2-------2-------2---2---2---2--|
A|0-------0-------0---0---0---0--|
E|-------------------------------|

                      Em      Am
e|0------ 0------ ----0-- ----0--|------- 0------ ----0-- ----0--|
B|1-------1-----------0-------1--|--------1-----------1-------1--|
G|2-------2-----------0-------2--|--------2-----------2-------2--|
D|2-------2-----------2-------2--|--------2-----------2-------2--|
A|0-------0-----------2-------0--|--------0-----------0-------0--|
E|--------------------0----------|-------------------------------|

e|------- ------- ----3-- -------|------- 5------ ------- -------|
B|--------------------3----------|--------5----------------------|
G|--------------------4----------|--------5----------------------|
D|-------------------------------|-------------------------------|
A|-------------------------------|-------------------------------|
E|-------------------------------|-------------------------------|
  You say         you'll      mine,           girl
                      be

                      Em      Am
e|0------ 0------ ----0-- ----0--|------- 0------ ----0-- ----0--|
B|1-------1-----------0-------1--|--------1-----------1-------1--|
G|2-------2-----------0-------2--|--------2-----------2-------2--|
D|2-------2-----------2-------2--|--------2-----------2-------2--|
A|0-------0-----------2-------0--|--------0-----------0-------0--|
E|--------------------0----------|-------------------------------|

e|------- 5------ ----3-- -------|5------ ------- ------- -------|
B|--------5-----------3----------|5------------------------------|
G|--------5-----------4----------|5------------------------------|
D|-------------------------------|-------------------------------|
A|-------------------------------|-------------------------------|
E|-------------------------------|-------------------------------|
  Till            end of      time
      the

                      Em          Am
e|0------ 0------ ----0-- -------|0------ 0------ ----0-- ----0--|
B|1-------1-----------0----------|1-------1-----------1-------1--|
G|2-------2-----------0----------|2-------2-----------2-------2--|
D|2-------2-----------2----------|2-------2-----------2-------2--|
A|0-------0-----------2----------|0-------0-----------0-------0--|
E|--------------------0----------|-------------------------------|

e|------- 5------ ----3-- -------|----5-- ------- ----3-- -------|
B|--------5-----------3----------|----5---------------3----------|
G|--------5-----------4----------|----5---------------4----------|
D|-------------------------------|-------------------------------|
A|-------------------------------|-------------------------------|
E|-------------------------------|-------------------------------|
  These           such        kind            girl
      days            a

                      Em
e|0------ 0------ ----0-- ----0--|------- 0------ ----0-- -------|
B|1-------1-----------0-------1--|--------1-----------1----------|
G|2-------2-----------0-------2--|--------2-----------2----------|
D|2-------2-----------2-------2--|--------2-----------2----------|
A|0-------0-----------2-------0--|--------0-----------0----------|
E|--------------------0----------|-------------------------------|

e|------- 5------ ----3-- -------|------- ------- ------- ----3--|
B|--------5-----------3----------|----------------------------5--|
G|--------5-----------4----------|----------------------------5--|
D|-------------------------------|----------------------------5--|
A|-------------------------------|----------------------------3--|
E|-------------------------------|-------------------------------|
  Seems           hard        find
      so              to

  C
e|0------ 0------ 0---0-- ----0--|0------ 0------ 0---0-- ----0--|
B|1-------1-------1---1-------1--|1-------1-------1---1-------1--|
G|0-------0-------0---0-------0--|0-------0-------0---0-------0--|
D|2-------2-------2---2-------2--|2-------2-------2---2-------2--|
A|3-------3-------3---3-------3--|3-------3-------3---3-------3--|
E|-------------------------------|-------------------------------|

e|------- ------- ------- -------|3------ ------- ------- -------|
B|-------------------------------|3------------------------------|
G|-------------------------------|3------------------------------|
D|-------------------------------|2------------------------------|
A|-------------------------------|3------------------------------|
E|-------------------------------|-------------------------------|
  Someday             when    we're
                                  dreaming

  F                               Bb
e|1------ 1------ ----1-- ----1--|1------ 1------ ----1-- ----0--|
B|1-------1-----------1-------1--|3-------3-----------3-------1--|
G|2-------2-----------2-------2--|3-------3-----------3-------2--|
D|3-------3-----------3-------3--|3-------3-----------3-------2--|
A|3-------3-----------3-------3--|1-------1-----------1-------0--|
E|1-------1-----------1-------1--|-------------------------------|

e|1------ ------- ------- -------|6------ ------- ------- -------|
B|1------------------------------|6------------------------------|
G|2------------------------------|7------------------------------|
D|3------------------------------|8------------------------------|
A|3------------------------------|8------------------------------|
E|1------------------------------|6------------------------------|
  Deep        love        not a   lot to      say
      in

  Am                  Em          Am
e|0------ 0------ ----0-- -------|0------ 0------ ----0-- ----0--|
B|1-------1-----------0----------|1-------1-----------1-------1--|
G|2-------2-----------0----------|2-------2-----------2-------2--|
D|2-------2-----------2----------|2-------2-----------2-------2--|
A|0-------0-----------2----------|0-------0-----------0-------0--|
E|--------------------0----------|-------------------------------|

e|------- 5------ ----3-- -------|------- 5------ ----0-- -------|
B|--------5-----------3----------|--------5-----------5----------|
G|--------5-----------4----------|--------5-----------7----------|
D|-------------------------------|-------------------------------|
A|-------------------------------|-------------------------------|
E|-------------------------------|-------------------------------|
  Then            will
      we              remember

                      Em          A
e|0------ 0------ ----0-- -------|0------ 0------ 0---0-- 0---0--|
B|1-------1-----------0----------|2-------2-------2---2---2---2--|
G|2-------2-----------0----------|2-------2-------2---2---2---2--|
D|2-------2-----------2----------|2-------2-------2---2---2---2--|
A|0-------0-----------2----------|0-------0-------0---0---0---0--|
E|--------------------0----------|-------------------------------|

e|------- 5------ ----3-- -------|5------ ------- ------- -------|
B|--------5-----------3----------|5------------------------------|
G|--------5-----------4----------|6------------------------------|
D|-------------------------------|7------------------------------|
A|-------------------------------|7------------------------------|
E|-------------------------------|5------------------------------|
  Things          said
      we              today


                                  D
e|0------ 0------ 0---0-- 0---0--|2------ 2------ 2---2-- 2---2--|
B|2-------2-------2---2---2---2--|3-------3-------3---3---3---3--|
G|2-------2-------2---2---2---2--|2-------2-------2---2---2---2--|
D|2-------2-------2---2---2---2--|0-------0-------0---0---0---0--|
A|0-------0-------0---0---0---0--|-------------------------------|
E|-------------------------------|-------------------------------|
  Me  I'm     just    a       lucky           kind


  B                               E
e|2------ 2------ 2---2-- 2---2--|0------ 0---0-- 0---0-- 0------|
B|4-------4-------4---4---4---4--|0-------0---0---0---0---0------|
G|4-------4-------4---4---4---4--|1-------1---1---1---1---1------|
D|4-------4-------4---4---4---4--|2-------2---2---2---2---2------|
A|2-------2-------2---2---2---2--|2-------2---2---2---2---2------|
E|-------------------------------|0-------0---0---0---0---0------|

e|------- 7------ ----7-- -------|------- 0------ ----0-- -------|
B|--------7-----------7----------|--------5-----------5----------|
G|--------8-----------8----------|--------7-----------7----------|
D|--------9-----------9----------|--------6-----------6----------|
A|--------9-----------9----------|--------7-----------7----------|
E|--------7-----------7----------|--------0-----------0----------|
  Love        hear    you     say         that    love        luck
      to                                              is

  A                               D
e|0------ 0------ 0---0-- 0---0--|2------ 2------ 2---2-- 2---2--|
B|2-------2-------2---2---2---2--|3-------3-------3---3---3---3--|
G|2-------2-------2---2---2---2--|2-------2-------2---2---2---2--|
D|2-------2-------2---2---2---2--|0-------0-------0---0---0---0--|
A|0-------0-------0---0---0---0--|-------------------------------|
E|-------------------------------|-------------------------------|

e|------- 5------ ----5-- -------|2------ ------- ------- -------|
B|--------5-----------5----------|3------------------------------|
G|--------6-----------6----------|2------------------------------|
D|--------7-----------7----------|0------------------------------|
A|--------7-----------7----------|-------------------------------|
E|--------5-----------5----------|-------------------------------|
          And though  we      may     be      blind


  B                               Bb
e|2------ 2------ 2---2-- -------|1------ 1------ 1---1-- 1------|
B|4-------4-------4---4----------|3-------3-------3---3---3------|
G|4-------4-------4---4----------|3-------3-------3---3---3------|
D|4-------4-------4---4----------|3-------3-------3---3---3------|
A|2-------2-------2---2----------|1-------1-------1---1---1------|
E|-------------------------------|-------------------------------|

e|------- 7------ ----7-- -------|------- 6------ ----6-- -------|
B|--------7-----------7----------|--------6-----------6----------|
G|--------8-----------8----------|--------7-----------7----------|
D|--------9-----------9----------|--------8-----------8----------|
A|--------9-----------9----------|--------8-----------8----------|
E|--------7-----------7----------|--------6-----------6----------|
  Love        here    to      stay        and     that's
      is                                              enough

  Am                  Em      Am
e|0------ 0------ ----0-- ----0--|------- 0------ ----0-- ----0--|
B|1-------1-----------0-------1--|--------1-----------1-------1--|
G|2-------2-----------0-------2--|--------2-----------2-------2--|
D|2-------2-----------2-------3--|--------2-----------2-------2--|
A|0-------0-----------2-------0--|--------0-----------0-------0--|
E|--------------------0----------|-------------------------------|

e|------- 5------ ----3-- -------|------- 5------ ----0-- -------|
B|--------5-----------3----------|--------5-----------5----------|
G|--------5-----------4----------|--------5-----------7----------|
D|-------------------------------|-------------------------------|
A|-------------------------------|-------------------------------|
E|-------------------------------|-------------------------------|
          to      make        mine,           girl
                      you


                      Em          Am
e|0------ 0------ ----0-- ----0--|------- 0------ ----0-- ----0--|
B|1-------1-----------0-------1--|--------1-----------1-------1--|
G|2-------2-----------0-------2--|--------2-----------2-------2--|
D|2-------2-----------2-------2--|--------2-----------2-------2--|
A|0-------0-----------2-------0--|--------0-----------0-------0--|
E|--------------------0----------|-------------------------------|

e|------- 5------ ----7-- -------|------- 5------ ----3-- -------|
B|--------5-----------5----------|--------5-----------3----------|
G|--------5-----------7----------|--------5-----------4----------|
D|-------------------------------|-------------------------------|
A|-------------------------------|-------------------------------|
E|-------------------------------|-------------------------------|
  Be the          only        one


                      Em      Am
e|0------ 0------ ----0-- ----0--|------- 0------ 0---0-- ----0--|
B|1-------1-----------0-------1--|--------1-------1---1-------1--|
G|2-------2-----------0-------2--|--------2-------2---2-------2--|
D|2-------2-----------2-------2--|--------2-------2---2-------2--|
A|0-------0-----------2-------0--|--------0-------0---0-------0--|
E|--------------------0----------|-------------------------------|

e|------- 5------ ----3-- -------|------- 5------ ----3-- -------|
B|--------5-----------3----------|--------5-----------3----------|
G|--------5-----------4----------|--------5-----------4----------|
D|-------------------------------|-------------------------------|
A|-------------------------------|-------------------------------|
E|-------------------------------|-------------------------------|
  Love me         all the     time,           girl


                  Em          Am
e|0------ 0------ 0---0-- ----0--|------- 0------ 0---0-- 0---0--|
B|1-------1-------0---0-------1--|--------1-------1---1---1---1--|
G|2-------2-------0---0-------2--|--------2-------2---2---2---2--|
D|2-------2-------2---2-------2--|--------2-------2---2---2---2--|
A|0-------0-------2---2-------0--|--------0-------0---0---0---0--|
E|----------------0---0----------|-------------------------------|

e|------- 5------ ----7-- -------|------- ------- ------- ----3--|
B|--------5-----------5----------|----------------------------5--|
G|--------5-----------7----------|----------------------------5--|
D|-------------------------------|----------------------------5--|
A|-------------------------------|-------------------------------|
E|-------------------------------|-------------------------------|
  We'll           on  and     on
      go

  C
e|0------ 0------ 0---0-- ----0--|0------ 0------ 0---0-- ----0--|
B|1-------1-------1---1-------1--|1-------1-------1---1-------1--|
G|0-------0-------0---0-------0--|0-------0-------0---0-------0--|
D|2-------2-------2---2-------2--|2-------2-------2---2-------2--|
A|3-------3-------3---3-------3--|3-------3-------3---3-------3--|
E|-------------------------------|-------------------------------|

e|------- ------- ------- -------|3------ ------- ------- -------|
B|-------------------------------|3------------------------------|
G|-------------------------------|3------------------------------|
D|-------------------------------|2------------------------------|
A|-------------------------------|3------------------------------|
E|-------------------------------|-------------------------------|
  Someday             when    we're
                                  dreaming

  F                               Bb
e|1------ 1------ 1---1-- ----1--|1------ 1------ ----1-- ----1--|
B|1-------1-------1---1-------1--|3-------3-----------3-------3--|
G|2-------2-------2---2-------2--|3-------3-----------3-------3--|
D|3-------3-------3---3-------3--|3-------3-----------3-------3--|
A|3-------3-------3---3-------3--|1-------1-----------1-------1--|
E|1-------1-------1---1-------1--|-------------------------------|

e|1------ ------- ------- -------|6------ ------- ------- -------|
B|1------------------------------|6------------------------------|
G|2------------------------------|7------------------------------|
D|3------------------------------|8------------------------------|
A|-------------------------------|-------------------------------|
E|-------------------------------|-------------------------------|
  Deep        love        Not a   lot to      say
      in

  Am                  Em          Am
e|0------ 0------ ----0-- -------|0------ 0------ ----0-- 0---0--|
B|1-------1-----------0----------|1-------1-----------1---1---1--|
G|2-------2-----------0----------|2-------2-----------2---2---2--|
D|2-------2-----------2----------|2-------2-----------2---2---2--|
A|0-------0-----------2----------|0-------0-----------0---0---0--|
E|--------------------0----------|-------------------------------|

e|------- 5------ ----3-- -------|------- 5------ ----0-- -------|
B|--------5-----------3----------|--------5-----------5----------|
G|--------5-----------4----------|--------5-----------7----------|
D|-------------------------------|-------------------------------|
A|-------------------------------|-------------------------------|
E|-------------------------------|-------------------------------|
  Then we         will
                      remember

                      Em      Am
e|0------ 0------ ----0-- ----0-0|0------ 0------ ----0-- ----0-0|
B|1-------1-----------0-------1-1|1-------1-----------1-------1-1|
G|2-------2-----------0-------2-2|2-------2-----------2-------2-2|
D|2-------2-----------2-------2-2|2-------2-----------2-------2-2|
A|0-------0-----------2-------0-0|0-------0-----------0-------0-0|
E|--------------------0----------|-------------------------------|

e|------- 5------ ----3-- -------|------- 5------ ------- -------|
B|--------5-----------3----------|--------5-------5--------------|
G|--------5-----------4----------|--------5-------5--------------|
D|-------------------------------|----------------7--------------|
A|-------------------------------|-------------------------------|
E|-------------------------------|-------------------------------| ****
  Things          said
      we              today

e|0------ 0------ 0---0-- 0---0--|2------ 2------ 2---2-- 2---2--|
B|2-------2-------2---2---2---2--|3-------3-------3---3---3---3--|
G|2-------2-------2---2---2---2--|2-------2-------2---2---2---2--|
D|2-------2-------2---2---2---2--|0-------0-------0---0---0---0--|
A|0-------0-------0---0---0---0--|-------------------------------|
E|-------------------------------|-------------------------------|
  Me, I'm     just    a       lucky           kind


  B                               E
e|2------ 2------ 2---2-- 2---2--|0------ 0---0-- 0---0-- 0------|
B|4-------4-------4---4---4---4--|0-------0---0---0---0---0------|
G|4-------4-------4---4---4---4--|1-------1---1---1---1---1------|
D|4-------4-------4---4---4---4--|2-------2---2---2---2---2------|
A|2-------2-------2---2---2---2--|2-------2---2---2---2---2------|
E|-------------------------------|0-------0---0---0---0---0------|

e|------- 7------ ----7-- -------|------- 0------ ----0-- -------|
B|--------7-----------7----------|--------5-----------5----------|
G|--------8-----------8----------|--------7-----------7----------|
D|--------9-----------9----------|--------6-----------6----------|
A|--------9-----------9----------|--------7-----------7----------|
E|--------7-----------7----------|--------0-----------0----------|
  Love        hear    you     say         that    love        luck
      to                                              is

  A                               D
e|0------ 0------ 0---0-- 0---0--|2------ 2------ 2---2-- 2---2--|
B|2-------2-------2---2---2---2--|3-------3-------3---3---3---3--|
G|2-------2-------2---2---2---2--|2-------2-------2---2---2---2--|
D|2-------2-------2---2---2---2--|0-------0-------0---0---0---0--|
A|0-------0-------0---0---0---0--|-------------------------------|
E|-------------------------------|-------------------------------|

e|------- 5------ ----5-- -------|2------ ------- ------- -------|
B|--------5-----------5----------|3------------------------------|
G|--------6-----------6----------|2------------------------------|
D|--------7-----------7----------|0------------------------------|
A|--------7-----------7----------|-------------------------------|
E|--------5-----------5----------|-------------------------------|
          And though  we      may     be      blind


  B                               Bb
e|2------ 2------ 2---2-- -------|1------ 1------ 1---1-- 1------|
B|4-------4-------4---4----------|3-------3-------3---3---3------|
G|4-------4-------4---4----------|3-------3-------3---3---3------|
D|4-------4-------4---4----------|3-------3-------3---3---3------|
A|2-------2-------2---2----------|1-------1-------1---1---1------|
E|-------------------------------|-------------------------------|

e|------- 7------ ----7-- -------|------- 6------ ----6-- -------|
B|--------7-----------7----------|--------6-----------6----------|
G|--------8-----------8----------|--------7-----------7----------|
D|--------9-----------9----------|--------8-----------8----------|
A|--------9-----------9----------|--------8-----------8----------|
E|--------7-----------7----------|--------6-----------6----------|
  Love        here    to      stay        and     that's
      is                                              enough

  Am                  Em      Am
e|0------ 0------ ----0-- ----0--|------- 0------ ----0-- ----0--|
B|1-------1-----------0-------1--|--------1-----------1-------1--|
G|2-------2-----------0-------2--|--------2-----------2-------2--|
D|2-------2-----------2-------3--|--------2-----------2-------2--|
A|0-------0-----------2-------0--|--------0-----------0-------0--|
E|--------------------0----------|-------------------------------|

e|------- 5------ ----3-- -------|------- 5------ ----0-- -------|
B|--------5-----------3----------|--------5-----------5----------|
G|--------5-----------4----------|--------5-----------7----------|
D|-------------------------------|-------------------------------|
A|-------------------------------|-------------------------------|
E|-------------------------------|-------------------------------|
          to      make you    mine,           girl


                      Em          Am
e|0------ 0------ ----0-- ----0--|------- 0------ ----0-- ----0--|
B|1-------1-----------0-------1--|--------1-----------1-------1--|
G|2-------2-----------0-------2--|--------2-----------2-------2--|
D|2-------2-----------2-------2--|--------2-----------2-------2--|
A|0-------0-----------2-------0--|--------0-----------0-------0--|
E|--------------------0----------|-------------------------------|

e|------- 5------ ----7-- -------|------- 5------ ----3-- -------|
B|--------5-----------5----------|--------5-----------3----------|
G|--------5-----------7----------|--------5-----------4----------|
D|-------------------------------|-------------------------------|
A|-------------------------------|-------------------------------|
E|-------------------------------|-------------------------------|
  Be the          only        one


                      Em      Am
e|0------ 0------ ----0-- ----0--|------- 0------ 0---0-- ----0--|
B|1-------1-----------0-------1--|--------1-------1---1-------1--|
G|2-------2-----------0-------2--|--------2-------2---2-------2--|
D|2-------2-----------2-------2--|--------2-------2---2-------2--|
A|0-------0-----------2-------0--|--------0-------0---0-------0--|
E|--------------------0----------|-------------------------------|

e|------- 5------ ----3-- -------|------- 5------ ----3-- -------|
B|--------5-----------3----------|--------5-----------3----------|
G|--------5-----------4----------|--------5-----------4----------|
D|-------------------------------|-------------------------------|
A|-------------------------------|-------------------------------|
E|-------------------------------|-------------------------------|
  Love me        all the      time,           girl


                  Em          Am
e|0------ 0------ 0---0-- ----0--|------- 0------ 0---0-- 0---0--|
B|1-------1-------0---0-------1--|--------1-------1---1---1---1--|
G|2-------2-------0---0-------2--|--------2-------2---2---2---2--|
D|2-------2-------2---2-------2--|--------2-------2---2---2---2--|
A|0-------0-------2---2-------0--|--------0-------0---0---0---0--|
E|----------------0---0----------|-------------------------------|

e|------- 5------ ----7-- -------|------- ------- ------- ----3--|
B|--------5-----------5----------|----------------------------5--|
G|--------5-----------7----------|----------------------------5--|
D|-------------------------------|----------------------------5--|
A|-------------------------------|-------------------------------|
E|-------------------------------|-------------------------------|
  We'll           on  and     on
      go

  C
e|0------ 0------ 0---0-- ----0--|0------ 0------ 0---0-- ----0--|
B|1-------1-------1---1-------1--|1-------1-------1---1-------1--|
G|0-------0-------0---0-------0--|0-------0-------0---0-------0--|
D|2-------2-------2---2-------2--|2-------2-------2---2-------2--|
A|3-------3-------3---3-------3--|3-------3-------3---3-------3--|
E|-------------------------------|-------------------------------|

e|------- ------- ------- -------|3------ ------- ------- -------|
B|-------------------------------|3------------------------------|
G|-------------------------------|3------------------------------|
D|-------------------------------|2------------------------------|
A|-------------------------------|3------------------------------|
E|-------------------------------|-------------------------------|
  Someday             when    we're
                                  dreaming

  F                               Bb
e|1------ 1------ 1---1-- ----1--|1------ 1------ ----1-- ----1--|
B|1-------1-------1---1-------1--|3-------3-----------3-------3--|
G|2-------2-------2---2-------2--|3-------3-----------3-------3--|
D|3-------3-------3---3-------3--|3-------3-----------3-------3--|
A|3-------3-------3---3-------3--|1-------1-----------1-------1--|
E|1-------1-------1---1-------1--|-------------------------------|

e|1------ ------- ------- -------|6------ ------- ------- -------|
B|1------------------------------|6------------------------------|
G|2------------------------------|7------------------------------|
D|3------------------------------|8------------------------------|
A|-------------------------------|-------------------------------|
E|-------------------------------|-------------------------------|
  Deep        love        Not a   lot to      say
      in

  Am                  Em          Am
e|0------ 0------ ----0-- -------|0------ 0------ ----0-- 0---0--|
B|1-------1-----------0----------|1-------1-----------1---1---1--|
G|2-------2-----------0----------|2-------2-----------2---2---2--|
D|2-------2-----------2----------|2-------2-----------2---2---2--|
A|0-------0-----------2----------|0-------0-----------0---0---0--|
E|--------------------0----------|-------------------------------|

e|------- 5------ ----3-- -------|------- 5------ ----0-- -------|
B|--------5-----------3----------|--------5-----------5----------|
G|--------5-----------4----------|--------5-----------7----------|
D|-------------------------------|-------------------------------|
A|-------------------------------|-------------------------------|
E|-------------------------------|-------------------------------|
  Then we         will
                      remember

                      Em      Am
e|0------ 0------ ----0-- ----0-0|0------ 0------ ----0-- ----0-0|
B|1-------1-----------0-------1-1|1-------1-----------1-------1-1|
G|2-------2-----------0-------2-2|2-------2-----------2-------2-2|
D|2-------2-----------2-------2-2|2-------2-----------2-------2-2|
A|0-------0-----------2-------0-0|0-------0-----------0-------0-0|
E|--------------------0----------|-------------------------------|

e|------- 5------ ----3-- -------|------- 5------ ------- -------|
B|--------5-----------3----------|--------5-------5--------------|
G|--------5-----------4----------|--------5-------5--------------|
D|-------------------------------|----------------7--------------|
A|-------------------------------|-------------------------------|
E|-------------------------------|-------------------------------|
  Things          said
      we              today


e|0------ 0------ ----0-- ----0-0|0------ 0------ ----0-- ----0-0|
B|1-------1-----------1-------1-1|1-------1-----------1-------1-1|
G|2-------2-----------2-------2-2|2-------2-----------2-------2-2|
D|2-------2-----------2-------2-2|2-------2-----------2-------2-2|
A|0-------0-----------0-------0-0|0-------0-----------0-------0-0|
E|-------------------------------|-------------------------------|

e|------- 5------ ------- -------|------- 5------ 3---5-- -------|
B|--------5-------5--------------|--------5-------3---5----------|
G|--------5-------5--------------|--------5-------4---5----------|
D|----------------7--------------|-------------------------------|
A|-------------------------------|-------------------------------|
E|-------------------------------|-------------------------------|


e|0------ 0------ ----0-- ----0-0|0------ 0------ ----0-- ----0-0|
B|1-------1-----------1-------1-1|1-------1-----------1-------1-1|
G|2-------2-----------2-------2-2|2-------2-----------2-------2-2|
D|2-------2-----------2-------2-2|2-------2-----------2-------2-2|
A|0-------0-----------0-------0-0|0-------0-----------0-------0-0|
E|-------------------------------|-------------------------------|

e|------- 5------ ----5-- -------|------- 5------ ----5-- -------|
B|--------5-----------5----------|--------5-----------5----------|
G|--------5-----------5----------|--------5-----------5----------|
D|-------------------------------|-------------------------------|
A|-------------------------------|-------------------------------|
E|-------------------------------|-------------------------------|
                                  ..................... Fade ....

e|0------ 0------ ----0-- ----0-0|0------ 0------ ----0-- ----0-0|
B|1-------1-----------1-------1-1|1-------1-----------1-------1-1|
G|2-------2-----------2-------2-2|2-------2-----------2-------2-2|
D|2-------2-----------2-------2-2|2-------2-----------2-------2-2|
A|0-------0-----------0-------0-0|0-------0-----------0-------0-0|
E|-------------------------------|-------------------------------|

e|------- 5------ ----5-- -------|------- 5------ ----5-- -------|
B|--------5-----------5----------|--------5-----------5----------|
G|--------5-----------5----------|--------5-----------5----------|
D|-------------------------------|-------------------------------|
A|-------------------------------|-------------------------------|
E|-------------------------------|-------------------------------|
  ...............................


        B  Bend
        R  Release
        /  slide up
        \  slide down
        H  hammer-on
        P  pull-off
        ~  vibrato
        +  harmonic
        x  Mute note
        . - play note like a dot in standard notation
        ^ - ties two notes together
        (.

    --------------------------------------------------------

    THE BEATLES - WHEN I GET HOME (Lennon & McCartney). From
                  A HARD DAY'S NIGHT album. Released on 20th
                  March 1964.

    --------------------------------------------------------

    Tabbed by:PJVillanueva


    Whoa ho, whoa ho,
    I got a whole lot of things to tell her,
    When I get home.

    Come on, out my way,
   'cause I'm a gonna see my baby today,
    I've got a whole lot of things I've gotta say
    To her.

    Whoa ho, whoa ho,
    I got a whole lot of things to tell her,
    When I get home.

    Come on if you please,
    I've got no time for trivialities,
    I've got a girl who's waiting home for me
    Tonight.

    Whoa ho, whoa ho,
    I got a whole lot of things to tell her,
    When I get home.

    When I'm getting home tonight, I'm gonna
    Hold her tight.
    I'm gonna love her till the cows come home,
    I bet I'll love her more,
    Till I walk out that door
    Again.

    Come on, let me through,
    I've got so many things, I've got to do,
    I've got no business being here with you
    This way.

    Whoa ho, whoa ho,
    I've got a whole lot of things to tell her
    When I get home yeah.

                                                    x   x   x   X
                                                                A
  e|------- ------- ------- -------|------- ------- ------- ----5--|
  B|-------------------------------|----------------------------5--|
  G|-------------------------------|----------------------------6--|
  D|-------------------------------|----------------------------7--|
  A|-------------------------------|----------------------------7--|
  E|-------------------------------|----------------------------5--|
                                                    Whooooooa   hoo


  e|------- 5------ 5---5-- ----5--|5------ 5------ 5---5-- 5---5--|
  B|--------5-------5---5-------5--|5-------5-------5---5---5---5--|
  G|--------6-------6---6-------6--|6-------6-------6---6---6---6--|
  D|--------7-------7---7-------7--|7-------7-------7---7---7---7--|
  A|--------7-------7---7-------7--|7-------7-------7---7---7---7--|
  E|--------5-------5---5-------5--|5-------5-------5---5---5---5--|
    oooooooooooooooooooooooooooooooooooooooooooo    Whooooooa   ho


  e|------- 5------ 5---5-- 5---5--|5------ 5------ 5---5-- 5------|
  B|--------5-------5---5---5---5--|5-------5-------5---5---5------|
  G|--------6-------6---6---6---6--|6-------6-------6---6---6------|
  D|--------7-------7---7---7---7--|7-------7-------7---7---7------|
  A|--------7-------7---7---7---7--|7-------7-------7---7---7------|
  E|--------5-------5---5---5---5--|5-------5-------5---5---5------|
    oooooooooooooooooooooooooooooooooooooooooooo        I   got a


    00:08
    D9                              G7
  e|0------ 0---0-- 0---0-- 0------|3------ 3---3-- 3---3-- 3------|
  B|3-------3---3---3---3---3------|6-------6---6---6---6---6------|
  G|5-------5---5---5---5---5------|4-------4---4---4---4---4------|
  D|4-------4---4---4---4---4------|x-------x---x---x---x---x------|
  A|5-------5---5---5---5---5------|5-------5---5---5---5---5------|
  E|-------------------------------|3-------3---3---3---3---3------|
    whole   lot of  things  tell                    when    get home
                        to      her                     I


    Am                              G
  e|0------ 0------ 0---0-- 0---3--|3-3-3-3 3---3-- --3-3-3 3---3--|
  B|1-------1-------1---1---1---3--|3-3-3-3-3---3-----3-3-3-3---3--|
  G|2-------2-------2---2---2---4--|4-4-4-4-4---4-----4-4-4-4---4--|
  D|2-------2-------2---2---2---5--|5-5-5-5-5---5-----5-5-5-5---5--|
  A|0-------0-------0---0---0---5--|5-5-5-5-5---5-----5-5-5-5---5--|
  E|----------------------------3--|3-3-3-3-3---3-----3-3-3-3---3--|
                                                                Come
                                                                  on

    00:16
    C       C7  ....                F7
  e|------- 0------ ----0-- -------|------- 1------ ----1-- -------|
  B|--------1-----------1----------|--------4-----------4----------|
  G|0---0---3-------0---3---0---0--|--------2-----------2-------0--|
  D|2---2---2-------2---2---2---0--|--------x-----------x-------0--|
  A|3---3---3-------3---3---3---3--|3---3---3-------3---3---3------|
  E|-------------------------------|1---1---1-------1---1---1------|
                            out my  way                'cause   a
                                                            I'm

  e|------- 0------ ----0-- -------|------- 1------ ----1-- -------|
  B|--------1-----------1----------|--------4-----------4----------|
  G|0---0---3-------0---3---0---0--|--------2-----------2-------0--|
  D|2---2---2-------2---2---2---0--|--------x-----------x-------2--|
  A|3---3---3-------3---3---3---3--|3---3---3-------3---3---3---2--|
  E|-------------------------------|1---1---1-------1---1---1------|
    gonna   see my  baby        today                   I've    a
                                                            got

  e|------- 0------ ----0-- -------|------- 1------ 1---1-- -------|
  B|--------1-----------1----------|--------4-------4---4----------|
  G|0---0---3-------0---3---0---0--|--------2-------2---2----------|
  D|2---2---2-------2---2---2---0--|--------x-------x---x----------|
  A|3---3---3-------3---3---3---3--|3---3---3-------3---3---3------|
  E|-------------------------------|1---1---1-------1---1---1------|
    whole   lot of  things  gotta   say                     to
                        I've


    G7                                                          A7
  e|------- ----3-- ------- 3------|3------ ------- ------- ----5--|
  B|------------6-----------6------|6----3----------------------8--|
  G|4---4---4---4-----------4------|4----4--4---4---4-------4---6--|
  D|x---x---x---x-----------x------|x----x--x---x---x-------x---x--|
  A|5---5---5---5-----------5------|5----5--5---5---5-------5---7--|
  E|3---3---3---3-----------3------|3----3--3---3---3-------3---5--|
    her                                             Whooooooa   hoo


    00:31

  e|------- 5------ 5---5-- ----5--|5------ 5------ 5---5-- 5---5--|
  B|--------8-------8---8-------8--|8-------8-------8---8---8---8--|
  G|--------6-------6---6-------6--|6-------6-------6---6---6---6--|
  D|--------x-------x---x-------x--|x-------x-------x---x---x---x--|
  A|--------7-------7---7-------7--|7-------7-------7---7---7---7--|
  E|--------5-------5---5-------5--|5-------5-------5---5---5---5--|
    oooooooooooooooooooooooooooooooooooooooooooo    Whooooooa   hoo


  e|------- 5------ ----5-- -------|------- 5------ ----5-- 5------|
  B|--------8-----------8----------|--------8-----------8---8------|
  G|--------6-------6---6-------6--|--------6-------6---6---6------|
  D|--------x-------x---x-------x--|--------x-------x---x---x------|
  A|--------7-------7---7-------7--|--------7-------7---7---7------|
  E|--------5-------5---5-------5--|--------5-------5---5---5------|
    oooooooooooooooooooooooooooooooooooooooooooo        I   got a


    00:39
    D9                              G7
  e|------- 0---0-- ------- 0------|3------ 3---3-- ----3-- -------|
  B|--------3---3-----------3------|6-------6---6-------6-------0--|
  G|5-------5---5---5---5---5---5--|4-------4---4---4---4---4---0--|
  D|4-------4---4---4---4---4---4--|x-------x---x---x---x---x---0--|
  A|5-------5---5---5---5---5---5--|5-------5---5---5---5---5------|
  E|-------------------------------|3-------3---3---3---3---3------|
    whole   lot of  things  tell                    when    get home
                        to      her                     I


    Am                              G
  e|------- 0------ 0---0-- 0------|3-----3 3---3-- --3-3-3 3---3--|
  B|--------1-------1---1---1---0--|3-----3-3---3-----3-3-3-3---3--|
  G|2-------2-------2---2---2---0--|4-----4-4---4-----4-4-4-4---4--|
  D|2-------2-------2---2---2---0--|5-----5-5---5-----5-5-5-5---5--|
  A|0-------0-------0---0---0------|5-----5-5---5-----5-5-5-5---5--|
  E|-------------------------------|3-----3-3---3-----3-3-3-3---3--|
                                                                Come
                                                                  on

    00:46

  e|------- 0------ 0---0-- -------|------- 1------ ----1-- -------|
  B|--------1-------1---1----------|--------4-----------4-------0--|
  G|0-------3-------3---3-------0--|--------2-----------2-------0--|
  D|2-------2-------2---2-------0--|--------x-----------x-------0--|
  A|3-------3-------3---3----------|3---3---3-------3---3---3------|
  E|-------------------------------|1---1---1-------1---1---1------|
                            If  you please,             I've
                                                            got

  e|------- 0------ ----0-- -------|------- 1------ ----1-- -------|
  B|--------1-----------1----------|--------4-----------4----------|
  G|0---0---3-------0---3---0---0--|--------2-----------2-------0--|
  D|2---2---2-------2---2---2---0--|--------x-----------x-------0--|
  A|3---3---3-------3---3---3---3--|3---3---3-------3---3---3------|
  E|-------------------------------|1---1---1-------1---1---1------|
    no      time    trivialities,                       I've    a
                for                                         got

  e|------- 0---0-- ----0-- -------|------- 1------ ----1-- -------|
  B|--------1---1-------1----------|--------4-----------4----------|
  G|0-------3---3---0---3-------0--|--------2-------2---2---2------|
  D|2-------2---2---2---2-------0--|--------x-------x---x---x------|
  A|3-------3---3---3---3----------|3---3---3-------3---3---3------|
  E|-------------------------------|1---1---1-------1---1---1------|
    girl    who's   waiting home    me                      tonight
                                for

  e|------- ----3-- ----3-- 3------|------- ----3-- ----3-- 3---5--|
  B|------------6-------6---6------|------------6-------6---6---8--|
  G|4---4---4---4-------4---4------|4---4-------4-------4---4---6--|
  D|x---x---x---x-------x---x------|x---x-------x-------x---x---x--|
  A|5---5---5---5-------5---5---5--|5---5-------5-------5---5---7--|
  E|3---3---3---3-------3---3---3--|3---3-------3-------3---3---5--|
                                                    Whooooooa   hoo


    01:01

  e|------- 5------ 5---5-- 5---5--|5------ 5------ 5---5-- ----5--|
  B|--------8-------8---8---8---8--|8-------8-------8---8-------8--|
  G|--------6-------6---6---6---6--|6-------6-------6---6---6---6--|
  D|--------x-------x---x---x---x--|x-------x-------x---x---x---x--|
  A|--------7-------7---7---7---7--|7-------7-------7---7---7---7--|
  E|--------5-------5---5---5---5--|5-------5-------5---5---5---5--|
    oooooooooooooooooooooooooooooooooooooooooooo    Whooooooa   hoo


  e|------- 5------ ----5-- ----5--|------- 5------ ----5-- 5------|
  B|--------8-----------8-------8--|--------8-----------8---8------|
  G|--------6-------6---6---6---6--|6-------6-------6---6---6------|
  D|--------x-------x---x---x---x--|x-------x-------x---x---x------|
  A|--------7-------7---7---7---7--|7-------7-------7---7---7------|
  E|--------5-------5---5---5---5--|5-------5-------5---5---5------|
    oooooooooooooooooooooooooooooooooooooooooooo        I   got a


    01:08

  e|------- 0---0-- ----0-- 0------|------- 3---3-- ----3-- 3------|
  B|--------3---3-------3---3------|--------6---6-------6---6---0--|
  G|--------5---5---5---5---5------|4-------4---4---4---4---4---0--|
  D|4-------4---4---4---4---4------|x-------x---x---x---x---x---0--|
  A|5-------5---5---5---5---5------|5-------5---5---5---5---5------|
  E|-------------------------------|3-------3---3---3---3---3------|
    whole   lot of  things  tell                    when    get home
                        to      her                     I

  e|0------ 0------ 0---0-- 0---0--|0------ 0------ 0---0-- 0------|
  B|1-------1-------1---1---1---1--|1-------1-------1---1---1---0--|
  G|2-------2-------2---2---2---2--|2-------2-------2---2---2---0--|
  D|2-------2-------2---2---2---2--|2-------2-------2---2---2---0--|
  A|0-------0-------0---0---0---0--|0-------0-------0---0---0------|
  E|-------------------------------|-------------------------------|
                                                    when    get mmm
                                                        I

    01:16
    C                               Am
  e|0------ 0------ 0---0-- 0---0--|0------ 0---0-- 0---0-- 0---0--|
  B|1-------1-------1---1---1---1--|1-------1---1---1---1---1---1--|
  G|0-------0-------0---0---0---0--|2-------2---2---2---2---2---2--|
  D|2-------2-------2---2---2---2--|2-------2---2---2---2---2---2--|
  A|3-------3-------3---3---3---3--|0-------0---0---0---0---0---0--|
  E|-------------------------------|-------------------------------|
    home    tonight     I'm gonna   hold        tight   I'm gonna
                                        her


    C                               Am
  e|0------ 0------ 0---0-- 0---0--|0------ 0---0-- 0---0-- 0------|
  B|1-------1-------1---1---1---1--|1-------1---1---1---1---1------|
  G|0-------0-------0---0---0---0--|2-------2---2---2---2---2------|
  D|2-------2-------2---2---2---2--|2-------2---2---2---2---2------|
  A|3-------3-------3---3---3---3--|0-------0---0---0---0---0------|
  E|-------------------------------|-------------------------------|
    love    till    cows    come                        I   bet
        her     the             home


    01:24
    F                               G
  e|1------ 1------ 1---1-- 1---1--|3------ 3---3-- ----3-- 3------|
  B|1-------1-------1---1---1---1--|3-------3---3-------3---3------|
  G|2-------2-------2---2---2---2--|4-------4---4-------4---4------|
  D|3-------3-------3---3---3---3--|5-------5---3-------5---5------|
  A|3-------3-------3---3---3------|5-------5---5-------5---5------|
  E|1-------1-------1---1---1------|3-------3---3-------3---3------|
    I'll            love        more                    till I
                        her


    F                               G
  e|1------ 1---1-- ----1-- 1------|3------ 3---3-- 3---3-- 3---3--|
  B|1-------1---1-------1---1------|3-------3---3---3---3---3---3--|
  G|2-------2---2-------2---2------|4-------4---4---4---4---4---4--|
  D|3-------3---3-------3---3------|5-------5---5---5---5---5---5--|
  A|3-------3---3-------3---3------|5-------5---5---5---5---5------|
  E|1-------1---1-------1---1------|3-------3---3---3---3---3------|
    walk            out that    door                        again


    Am                              G
  e|0------ 0------ 0---0-- 0------|3-----3 3---3-- --3-3-3 3------|
  B|1-------1-------1---1---1---0--|3-----3-3---3-----3-3-3-3------|
  G|2-------2-------2---2---2---0--|4-----4-4---4-----4-4-4-4------|
  D|2-------2-------2---2---2---0--|5-----5-5---5-----5-5-5-5------|
  A|0-------0-------0---0---0------|5-----5-5---5-----5-5-5-5------|
  E|-------------------------------|3-----3-3---3-----3-3-3-3------|
                                                                Come
                                                                  on

    01:35

  e|------- 0------ 0---0-- 0------|------- 1------ 1---1-- 1------|
  B|--------1-------1---1---1------|--------4-------4---4---4------|
  G|0---0---3-------3---3---3---0--|--------2-------2---2---2---0--|
  D|2---2---2-------2---2---2---0--|--------x-------x---x---x---0--|
  A|3---3---3-------3---3---3------|3-------3-------3---3---3------|
  E|-------------------------------|1-------1-------1---1---1------|
                            let me  through             I've    so
                                                            got

  e|------- 0------ ----0-- ----0--|------- 1------ 1---1-- 1------|
  B|--------1-----------1-------1--|--------4-------4---4---4------|
  G|0---0---3---0---0---3---0---0--|--------2-------2---2---2------|
  D|2---2---2---2---2---2---2---0--|--------x-------x---x---x------|
  A|3---3---3---3---3---3---3---3--|3---3---3-------3---3---3------|
  E|-------------------------------|1---1---1-------1---1---1------|
            many    things  got to  do                  I've
                        I've                                got

  e|------- 0---0-- ----0-- -------|------- 1------ 1------ 1------|
  B|--------1---1-------1----------|--------4-------4-------4------|
  G|0---0---3---3---0---3---0---0--|--------2-------2-------2------|
  D|2---2---2---2---2---2---2---0--|--------x-------x-------x------|
  A|3---3---3---3---3---3---3---3--|3---3---3-------3-------3------|
  E|-------------------------------|1---1---1-------1-------1------|
    no      business        here    you                     this
                    being       with

  e|------- 3---3-- ----3-- 3---3--|------- 3---3-- ----3-- ----5--|
  B|--------6---6-------6---6---6--|--------6---6-------6-------8--|
  G|4---4---4---4-------4---4---4--|4---4---4---4---4---4---4---6--|
  D|x---x---x---x-------x---x---x--|x---x---x---x---x---x---x---x--|
  A|5---5---5---5-------5---5---5--|5---5---5---5---5---5---5---7--|
  E|3---3---3---3-------3---3---3--|3---3---3---3---3---3---3---5--|
    way                                             Whooooooa   hoo


    01:51

  e|------- 5------ 5---5-- 5---5--|5------ 5------ 5---5-- 5---5--|
  B|--------8-------8---8---8---8--|8-------8-------8---8---8---8--|
  G|--------6-------6---6---6---6--|6-------6-------6---6---6---6--|
  D|--------x-------x---x---x---x--|x-------x-------x---x---x---x--|
  A|--------7-------7---7---7---7--|7-------7-------7---7---7---7--|
  E|--------5-------5---5---5---5--|5-------5-------5---5---5---5--|
    oooooooooooooooooooooooooooooooooooooooooooo    Whooooooa   hoo


  e|------- 5------ 5---5-- 5---5--|5------ 5------ 5---5-- 5------|
  B|--------8-------8---8---8---8--|8-------8-------8---8---8------|
  G|--------6-------6---6---6---6--|6-------6-------6---6---6------|
  D|--------x-------x---x---x---x--|x-------x-------x---x---x------|
  A|--------7-------7---7---7---7--|7-------7-------7---7---7------|
  E|--------5-------5---5---5---5--|5-------5-------5---5---5------|
    oooooooooooooooooooooooooooooooooooooooooooo        I   got a


  e|0------ 0---0-- 0---0-- 0---3--|3------ 3---3-- 3---3-- 3---5--|
  B|3-------3---3---3---3---3---6--|6-------6---6---6---6---6---8--|
  G|5-------5---5---5---5---5---4--|4-------4---4---4---4---4---6--|
  D|4-------4---4---4---4---4---x--|x-------x---x---x---x---x---7--|
  A|5-------5---5---5---5---5---5--|5-------5---5---5---5---5---7--|
  E|----------------------------3--|3-------3---3---3---3---3---5--|
    whole   lot of  things  tell                    when    get home
                        to      her                     I


    02:02

  e|------- 5---5-- 5---5-- 5---5--|------- 5---5-- 5---5-- 5------|
  B|--------8---8---8---8---8---8--|--------8---8---8---8---8---0--|
  G|--------6---6---6---6---6---6--|--------6---6---6---6---6---0--|
  D|--------x---x---x---x---x---x--|--------x---x---x---x---x---0--|
  A|--------7---7---7---7---7---7--|--------7---7---7---7---7------|
  E|--------5---5---5---5---5---5--|--------5---5---5---5---5------|
                                yeah                    I   got a


  e|0------ 0---0-- 0---0-- 0---3--|3------ 3---3-- 3---3-- 3---0--|
  B|3-------3---3---3---3---3---6--|6-------6---6---6---6---6---1--|
  G|5-------5---5---5---5---5---4--|4-------4---4---4---4---4---0--|
  D|4-------4---4---4---4---4---x--|x-------x---x---x---x---x---2--|
  A|5-------5---5---5---5---5---5--|5-------5---5---5---5---5---3--|
  E|----------------------------3--|3-------3---3---3---3---3------|
    whole   lot of  things  tell                    when    get home
                        to      her                     I

   (.

  e|0------ ------- ------- -------|------- ------- ------- -------|
  B|1------------------------------|-------------------------------|
  G|0------------------------------|-------------------------------|
  D|2------------------------------|-------------------------------|
  A|3------------------------------|-------------------------------|
  E|-------------------------------|-------------------------------|



        B  Bend
        R  Release
        /  Slide up
        \  Slide down
        H  Hammer-on
        P  Pull-off
        ~  Vibrato
        +  Harmonic
        x  Mute note
        .  Play note like a dot in standard notation
        ^  Ties two notes together
        (. Pause


  ----------------------------------------------------------------

  THE BEATLES - YOU CAN'T DO THAT (Lennon & McCartney) from A HARD
                DAY'S NIGHT album. Released on March, 20th, 1964.

  ----------------------------------------------------------------

  Tabbed by:PJVillanueva

  Chords:     G7      353463
              C7      x32310
              D7#9    x5456x
              D7      x5453x
              B       799877
              Em      x79987
              Am      x02210
              Bm      x24432
              D       xx0232


        G7
  I got something  to say that might cause you pain
  If I catch you talking to that boy again

            C7                             G7
  I'm gonna let you down, and leave you flat

          D7#9                  C7            G7    D7
  Because I told you before,  oh you can't do that


                G7
  Well it's the second time I caught you talking to him,
  Do I have to tell you one more time it's a sin

               C7                              G7
  I think I'll let you down  and leave you flat

            D7#9               C7             G7
  Because I told you before, oh, you can't do that

                B     Em       Am              Bm          G7
  Everybody's gree--en  'cause I'm the one who won your love

                  B     Em      Am                       Bm          D
  But if they'd see---en  you talking that way, they'd laugh in my face

     G7
  So please listen to me if you wanna stay mine,
  I cant help my feelings I go outta my mind

            C7                             G7
  I'm gonna let you down  and leave you flat

            D7#9               C7           G7    D7
  Because I told you before, oh you cant do that


  SOLO:  G7               C7        G7        D7#9   C7   G7

                B     Em       Am              Bm           G7
  Everybody's gree--en, 'cause I'm the one who won your love

                  B    Em      Am                       Bm             D
  But if they'd see--en    you talking that way they'd laugh in my face

     G7
  So please listen to me if you wanna stay mine
  I cant help my feelings I go outta my mind

            C7                              G7
  I'm gonna let you down, and leave you flat

            D7#9               C7             G7¨¨¨¨¨¨
  Because I told you before, oh   you cant do that


  INTRO

e|------- ------- ------- -------|------- ------- 3------ -------|
B|----------------3--------------|-------------------------------|
G|3-------4-------3---4-------4--|--------4-------3---4----------|
D|5-----------5------------5-----|---5---------5-----------------|
A|-------------------------------|-------------------------------|
E|-------------------------------|-------------------------------| ....


 SOLO

e|------- ------- ------- -------|------- ------- ------- -------|
B|-------------------------------|-------------------------------|
G|-------------------------------|4-------4---4---5-------5------|
D|-------------------5----5---5--|5-------5---5---5-------5------|
A|-------------------------------|-------------------------------|
E|-------------------------------|-------------------------------|

e|------- ------- ------- -------|------- ------- ------- -------|
B|-------------------------------|-------------------------------|
G|6---6------5-------------------|4-------4-------5---x---5------|
D|5---5--------------5----5---5--|5-------5-------5---x---5------|
A|-------------------------------|-------------------------------|
E|-------------------------------|-------------------------------|

e|------- 3------ ------- -------|------- ------- ------- -------|
B|3---3------5B6----------5B65B6-|5B6R5---3-----------3-------5B6|
G|5B6--------5B6----------5B65B6-|5B6R5---3-------3---3-------5B6|
D|-------------------------------|----------------5--------------|
A|-------------------------------|-------------------------------|
E|-------------------------------|-------------------------------|

e|------- ------- ----/-7 7-7-7-7|7----/- 7-7-7-7 7----/- 7-7-7-7|
B|--------5B6-----5---/-6-6-6-6-6|6----/--6-6-6-6-6----/--6-6-6-6|
G|--------5B6-----5---/-7-7-7-7-7|6----/--7-7-7-7-7----/--7-7-7-7|
D|-------------------------------|-------------------------------|
A|-------------------------------|-------------------------------|
E|-------------------------------|-------------------------------|

e|7------ 7-7-7-7 7---7-- 7---7--|7-\-5-- ------- 3------ -------|
B|6-------6-6-6-6-6---6---6---6--|-------------------3-------3---|
G|7-------7-7-7-7-7---7---7---7--|7-\-5---5B6-3------5B6-----5B6-|
D|-------------------------------|-------------------------------|
A|-------------------------------|-------------------------------|
E|-------------------------------|-------------------------------|

e|------- ------- ------- -------|------- 3------ ---3--- ------3|
B|--------3-------3-------3------|--------3----------3----------3|
G|------------5---3-------3---5B7|-----------5B7----------5B6----|
D|--------------------5----------|-------------------------------|
A|-------------------------------|-------------------------------|
E|-------------------------------|-------------------------------|

e|------- ------- ------- -------|
B|-------------------------------|
G|5---4--------------------------|
D|--------5----------------------|
A|-------------------------------|
E|-------------------------------|

  ENDING

e|------- ------- ------- -------|------- ------- ------- -------|
B|-------------------------------|-------------------------------|
G|3-------4-------3---4-------4--|--------4----------------------|
D|5-----------5------------5-----|---5--------5---3-----/-4----/-|
A|-------------------------------|-------------------------------|
E|-------------------------------|-------------------------------| ...

e|------- ------- ------- -------|
B|-------------------------------|
G|-------------------------------|
D|5------------------------------|
A|-------------------------------|
E|-------------------------------|



        B  Bend
        R  Release
        /  slide up
        \  slide down
        H  hammer-on
        P  pull-off
        ~  vibrato
        +  harmonic
        x  Mute note
        . - play note like a dot in standard notation
        ^ - ties two notes together
        (. Pause

  ----------------------------------------------------------------------

  THE BEATLES - I'LL BE BACK (Lennon/McCartney) From A HARD DAY'S NIGHT
                album. Released on 20th March 1964.

  ----------------------------------------------------------------------

  Tabbed by:PJVillanueva


  You know, if you break my heart I'll Go.
  But I'll Be Back again.
  Cause I, told you once before goodbye.
  But I came back again.
  I love you so, I'm the one who wants you
  yes I'm the one who wants you Oh-ho Oh-ho
  You, could find better things to do
  Than to break my heart again.
  This time, I will try to show that I'm
  Not trying to pretend
  I, thought that you would realize
  That if I ran away from you
  Then you would want me too
  But I got a big surprise Oh-h Oh-h
  You, could find better things to do
  Than to break my heart again.
  This time, I will try to show that I'm
  Not trying to pretend
  I want to go, but I hate to leave you
  You know I hate to leave you Oh-ho Oh-ho
  You, if you break my heart I'll go
  But I'll be back again

                                                              A
e|------- ------- ------- -------|------- ------- ------- ----0--|
B|-------------------------------|------------------------5---2--|
G|-------------------------------|--------------------4-------2--|
D|-------------------------------|----------------4-----------2--|
A|-------------------------------|----------------------------0--|
E|-------------------------------|-------------------------------|


e|0------ 0------ 0---0-- 0---0--|0------ 0------ 0---0-- 0---0--|
B|2-------2-------2---2---2---2--|2-------2-------2---2---2---1--|
G|2-------2-------2---2---2---2--|2-------2-------2---2---2---2--|
D|2-------2-------2---2---2---2--|2-------2-------2---2---2---2--|
A|0-------0-------0---0---0---0--|0-------0-------0---0---0---0--|
E|-------------------------------|-------------------------------|

e|------- ------- ------- -------|------- ------- ------- ----0--|
B|-------------------------------|------------------------5---1--|
G|-------------------------------|--------------------4-------2--|
D|-------------------------------|----------------4-----------2--|
A|-------------------------------|----------------------------0--|
E|-------------------------------|-------------------------------|
                                                          You know


  Am                              G
e|0------ 0------ 0---0-- 0---0--|3------ 3------ 3---3-- 3---3--|
B|1-------1-------1---1---1---1--|3-------3-------3---3---3---3--|
G|2-------2-------2---2---2---2--|0-------0-------0---0---0---0--|
D|2-------2-------2---2---2---2--|0-------0-------0---0---0---0--|
A|0-------0-------0---0---0---0--|2-------2-------2---2---2---2--|
E|-------------------------------|3-------3-------3---3---3---3--|
                          If  you break   my      heart   I'll
                                                              go

  F                                E
e|0------ 0------ 0---0-- 0---0--|0------ 0------ 0---0-- 0---0--|
B|0-------0-------0---0---0---0--|0-------0-------0---0---0---0--|
G|2-------2-------2---2---2---2--|1-------1-------1---1---1---1--|
D|3-------3-------3---3---3---3--|2-------2-------2---2---2---2--|
A|3-------3-------3---3---3---3--|2-------2-------2---2---2---2--|
E|1-------1-------1---1---1---1--|0-------0-------0---0---0---0--|
                              But I'll    be      back
                                                      again

  A
e|0------ 0------ 0---0-- 0---0--|0------ 0------ 0---0-- 0------|
B|2-------2-------2---2---2---2--|2-------2-------2---2---2------|
G|2-------2-------2---2---2---2--|2-------2-------2---2---2------|
D|2-------2-------2---2---2---2--|2-------2-------2---2---2------|
A|0-------0-------0---0---0---0--|0-------0-------0---0---0------|
E|-------------------------------|-------------------------------|

e|------- ------- ------- ----0--|------- ------- ------- -------|
B|------------------------5---2--|-------------------------------|
G|--------------------4-------2--|-------------------------------|
D|----------------4-----------2--|-------------------------------|
A|----------------------------0--|-------------------------------|
E|-------------------------------|-------------------------------|
                                                         'cause
                                                              I

  Am                              G
e|0------ 0------ 0---0-- 0---0--|3------ 3------ 3---3-- 3---3--|
B|1-------1-------1---1---1---1--|3-------3-------3---3---3---3--|
G|2-------2-------2---2---2---2--|0-------0-------0---0---0---0--|
D|2-------2-------2---2---2---2--|0-------0-------0---0---0---0--|
A|0-------0-------0---0---0---0--|2-------2-------2---2---2---2--|
E|-------------------------------|3-------3-------3---3---3---3--|
                          told    once    before          goodbye
                              you


  F-5maj7                         E
e|0------ 0------ 0---0-- 0---0--|0------ 0------ 0---0-- 0---0--|
B|0-------0-------0---0---0---0--|0-------0-------0---0---0---0--|
G|2-------2-------2---2---2---2--|1-------1-------1---1---1---1--|
D|3-------3-------3---3---3---3--|2-------2-------2---2---2---2--|
A|3-------3-------3---3---3---3--|2-------2-------2---2---2---2--|
E|1-------1-------1---1---1---1--|0-------0-------0---0---0---0--|

e|0----0- --0---- 0----0- --0----|0------ ------- ------- -------|
B|0----0----0-----0----0----0----|0------------------------------|
G|2----2----2-----2----2----2----|1------------------------------|
D|3----3----3-----3----3----3----|2------------------------------|
A|3----3----3-----3----3----3----|2------------------------------|
E|1----1----1-----1----1----1----|0------------------------------|
                              But I       came    back
                                                      again


  A
e|0------ 0------ 0---0-- 0---0--|0------ 0------ 0---0-- 0---0--|
B|2-------2-------2---2---2---2--|2-------2-------2---2---2---2--|
G|2-------2-------2---2---2---2--|2-------2-------2---2---2---2--|
D|2-------2-------2---2---2---2--|2-------2-------2---2---2---2--|
A|0-------0-------0---0---0---0--|0-------0-------0---0---0---0--|
E|-------------------------------|-------------------------------|

e|------- ------- ------- ----0--|------- ------- ------- -------|
B|------------------------5---2--|-------------------------------|
G|--------------------4-------2--|-------------------------------|
D|----------------4-----------2--|-------------------------------|
A|----------------------------0--|-------------------------------|
E|-------------------------------|-------------------------------|
                                                  I   love    so
                                                          you

  F#m
e|2------ 2------ 2---2-- 2---2--|2------ 2------ 2---2-- 2---2--|
B|2-------2-------2---2---2---2--|2-------2-------2---2---2---2--|
G|2-------2-------2---2---2---2--|2-------2-------2---2---2---2--|
D|4-------4-------4---4---4---4--|4-------4-------4---4---4---4--|
A|4-------4-------4---4---4---4--|4-------4-------4---4---4---4--|
E|2-------2-------2---2---2---2--|2-------2-------2---2---2---2--|

e|2------ ------- ------- -------|2------ ------- ------- -------|
B|2------------------------------|2------------------------------|
G|2------------------------------|2------------------------------|
D|4------------------------------|4------------------------------|
A|4------------------------------|4------------------------------|
E|2------------------------------|2------------------------------|
                                                  I'm the one who

  Bm
e|2------ 2------ 2---2-- 2---2--|2------ 2------ 2---2-- 2---2--|
B|3-------3-------3---3---3---3--|3-------3-------3---3---3---3--|
G|4-------4-------4---4---4---4--|4-------4-------4---4---4---4--|
D|4-------4-------4---4---4---4--|4-------4-------4---4---4---4--|
A|2-------2-------2---2---2---2--|2-------2-------2---2---2---2--|
E|-------------------------------|-------------------------------|

e|2------ ------- ------- -------|2------ ------- ------- -------|
B|3------------------------------|3------------------------------|
G|4------------------------------|4------------------------------|
D|4------------------------------|4------------------------------|
A|2------------------------------|2------------------------------|
E|-------------------------------|-------------------------------|
  wants   you                                 yes I'm the one who


  E               D           E                   D           E
e|0------ 0------ 2---2-- 2---0--|------- 0------ 2---2-- 2---0--|
B|0-------0-------3---3---3---0--|--------0-------3---3---3---0--|
G|1-------1-------2---2---2---1--|--------1-------2---2---2---1--|
D|2-------2-------0---0---0---2--|--------2-------0---0---0---2--|
A|2-------2-------------------2--|--------2-------------------2--|
E|0-------0-------------------0--|--------0-------------------0--|

e|0------ ------- ------- ----0--|------- ------- ------- 0------|
B|0---------------------------0--|------------------------0------|
G|1---------------------------1--|------------------------1------|
D|2---------------------------2--|------------------------2------|
A|2---------------------------2--|------------------------2------|
E|0---------------------------0--|------------------------0------|
  wants   you     Oh          ho                  Oh          ho

e|------- 0------|
B|--------0------|
G|--------1------|
D|--------2------|
A|--------2------|
E|--------0------|


  Am                              G
e|0------ 0------ 0---0-- 0---0--|3------ 3------ 3---3-- 3---3--|
B|1-------1-------1---1---1---1--|3-------3-------3---3---3---3--|
G|2-------2-------2---2---2---2--|0-------0-------0---0---0---0--|
D|2-------2-------2---2---2---2--|0-------0-------0---0---0---0--|
A|0-------0-------0---0---0---0--|2-------2-------2---2---2---2--|
E|-------------------------------|3-------3-------3---3---3---3--|

e|0------ ------- ------- -------|3------ ------- ------- -------|
B|1------------------------------|3------------------------------|
G|2------------------------------|4------------------------------|
D|2------------------------------|5------------------------------|
A|0------------------------------|5------------------------------|
E|-------------------------------|3------------------------------|
  You                     could   better          things  to  do
                              find


  F-5maj7                         E
e|0------ 0------ 0---0-- 0---0--|0------ 0------ 0---0-- 0---0--|
B|0-------0-------0---0---0---0--|0-------0-------0---0---0---0--|
G|2-------2-------2---2---2---2--|1-------1-------1---1---1---1--|
D|3-------3-------3---3---3---3--|2-------2-------2---2---2---2--|
A|3-------3-------3---3---3---3--|2-------2-------2---2---2---2--|
E|1-------1-------1---1---1---1--|0-------0-------0---0---0---0--|

e|0----0- --0---- 0----0- --0----|0------ ------- ------- -------|
B|0----0----0-----0----0----0----|0------------------------------|
G|2----2----2-----2----2----2----|1------------------------------|
D|3----3----3-----3----3----3----|2------------------------------|
A|3----3----3-----3----3----3----|2------------------------------|
E|1----1----1-----1----1----1----|0------------------------------|
                          than    break   my      heart   again
                              to

  A
e|0------ 0------ 0---0-- 0---0--|0------ 0------ 0---0-- 0---0--|
B|2-------2-------2---2---2---2--|2-------2-------2---2---2---2--|
G|2-------2-------2---2---2---2--|2-------2-------2---2---2---2--|
D|2-------2-------2---2---2---2--|2-------2-------2---2---2---2--|
A|0-------0-------0---0---0---0--|0-------0-------0---0---0---0--|
E|-------------------------------|-------------------------------|

e|------- ------- ------- ----0--|------- ------- ------- -------|
B|------------------------5---2--|-------------------------------|
G|--------------------4-------2--|-------------------------------|
D|----------------4-----------2--|-------------------------------|
A|----------------------------0--|-------------------------------|
E|-------------------------------|-------------------------------|
                                                          This
                                                              time

  Am                              G
e|0------ 0------ 0---0-- 0---0--|3------ 3------ 3---3-- 3---3--|
B|1-------1-------1---1---1---1--|3-------3-------3---3---3---3--|
G|2-------2-------2---2---2---2--|0-------0-------0---0---0---0--|
D|2-------2-------2---2---2---2--|0-------0-------0---0---0---0--|
A|0-------0-------0---0---0---0--|2-------2-------2---2---2---2--|
E|-------------------------------|3-------3-------3---3---3---3--|

e|0------ ------- ------- -------|3------ ------- ------- -------|
B|1------------------------------|3------------------------------|
G|2------------------------------|4------------------------------|
D|2------------------------------|5------------------------------|
A|0------------------------------|5------------------------------|
E|-------------------------------|3------------------------------|
                          I   will        to      show    that
                                  try                         I'm

  F-5maj7                         E
e|0------ 0------ 0---0-- 0---0--|0------ 0------ 0---0-- 0---0--|
B|0-------0-------0---0---0---0--|0-------0-------0---0---0---0--|
G|2-------2-------2---2---2---2--|1-------1-------1---1---1---1--|
D|3-------3-------3---3---3---3--|2-------2-------2---2---2---2--|
A|3-------3-------3---3---3---3--|2-------2-------2---2---2---2--|
E|1-------1-------1---1---1---1--|0-------0-------0---0---0---0--|

e|0----0- --0---- 0----0- --0----|0------ ------- ------- -------|
B|0----0----0-----0----0----0----|0------------------------------|
G|2----2----2-----2----2----2----|1------------------------------|
D|3----3----3-----3----3----3----|2------------------------------|
A|3----3----3-----3----3----3----|2------------------------------|
E|1----1----1-----1----1----1----|0------------------------------|
                              not trying          to  pretend


  A
e|0------ 0------ 0---0-- 0---0--|0------ 0------ 0---0-- 0---0--|
B|2-------2-------2---2---2---2--|2-------2-------2---2---2---2--|
G|2-------2-------2---2---2---2--|2-------2-------2---2---2---2--|
D|2-------2-------2---2---2---2--|2-------2-------2---2---2---2--|
A|0-------0-------0---0---0---0--|0-------0-------0---0---0---0--|
E|-------------------------------|-------------------------------|

e|------- ------- ------- ----0--|------- ------- ------- -------|
B|------------------------5---2--|-------------------------------|
G|--------------------4-------2--|-------------------------------|
D|----------------4-----------2--|-------------------------------|
A|----------------------------0--|-------------------------------|
E|-------------------------------|-------------------------------|

  Bm
e|2------ 2------ 2---2-- 2---2--|2------ 2------ 2---2-- 2---2--|
B|3-------3-------3---3---3---3--|3-------3-------3---3---3---3--|
G|4-------4-------4---4---4---4--|4-------4-------4---4---4---4--|
D|4-------4-------4---4---4---4--|4-------4-------4---4---4---4--|
A|2-------2-------2---2---2---2--|2-------2-------2---2---2---2--|
E|-------------------------------|-------------------------------|

e|------- ------- ------- -------|------- ------- ------- -------|
B|-------------------------------|-------------------------------|
G|--------4---------------3------|--------2----------------------|
D|-------------------------------|-------------------------------|
A|-------------------------------|-------------------------------|
E|-------------------------------|-------------------------------|
  I                                               thought you would
                                                      that

  C#m
e|4------ 4------ 4---4-- 4---4--|4------ 4------ 4---4-- 4---4--|
B|5-------5-------5---5---5---5--|5-------5-------5---5---5---5--|
G|6-------6-------6---6---6---6--|6-------6-------6---6---6---6--|
D|6-------6-------6---6---6---6--|6-------6-------6---6---6---6--|
A|4-------4-------4---4---4---4--|4-------4-------4---4---4---4--|
E|-------------------------------|-------------------------------|

e|4------ ------- ------- -------|------- 4------ ------- -------|
B|5------------------------------|--------5----------------------|
G|6------------------------------|--------6----------------------|
D|6------------------------------|--------6----------------------|
A|4------------------------------|--------4----------------------|
E|-------------------------------|-------------------------------|
  realize                                             that I
                                                         If

  F#m                             B7
e|2------ 2------ 2---2-- 2---2--|2------ -2----- 2---2-- 2---2--|
B|2-------2-------2---2---2---2--|4--------4------4---4---4---4--|
G|2-------2-------2---2---2---2--|2--------2------2---2---2---2--|
D|4-------4-------4---4---4---4--|4--------4------4---4---4---4--|
A|4-------4-------4---4---4---4--|2--------2------2---2---2---2--|
E|2-------2-------2---2---2---2--|-------------------------------|

e|2------ ------- ------- -------|2------ ------- ------- -------|
B|2------------------------------|4------------------------------|
G|2------------------------------|2------------------------------|
D|4------------------------------|4------------------------------|
A|4------------------------------|2------------------------------|
E|2------------------------------|-------------------------------|
  ran away    from            then    would   me  too         but
                  you             you     want


  D                               E               D           E
e|2------ 2---2-- 2---2-- 2------|0------ 0---0-- 2---2-- 2---0--|
B|3-------3---3---3---3---3------|0-------0---0---3---3---3---0--|
G|2-------2---2---2---2---2------|1-------1---1---2---2---2---1--|
D|0-------0---0---0---0---0------|2-------2---2---0---0---0---2--|
A|-------------------------------|2-------2---2---------------2--|
E|-------------------------------|0-------0---0---------------0--|

e|2------ ------- ------- -------|0------ ------- ------- ----0--|
B|3------------------------------|0---------------------------0--|
G|2------------------------------|1---------------------------1--|
D|0------------------------------|2---------------------------2--|
A|-------------------------------|2---------------------------2--|
E|-------------------------------|0---------------------------0--|
  I       got a   big     surprise                Oh          ho


                  D           E
e|------- 0------ 2---2-- 2---0--|------- 0------|
B|--------0-------3---3---3---0--|--------0------|
G|--------1-------2---2---2---1--|--------1------|
D|--------2-------0---0---0---2--|--------2------|
A|--------2-------------------2--|--------2------|
E|--------0-------------------0--|--------0------|

e|------- ------- ------- ----0--|------- 0------|
B|----------------------------0--|--------0------|
G|----------------------------1--|--------1------|
D|----------------------------2--|--------2------|
A|----------------------------2--|--------2------|
E|----------------------------0--|--------0------|
                  Oh          ho


  Am                              G
e|0------ 0------ 0---0-- 0---0--|3------ 3------ 3---3-- 3---3--|
B|1-------1-------1---1---1---1--|3-------3-------3---3---3---3--|
G|2-------2-------2---2---2---2--|0-------0-------0---0---0---0--|
D|2-------2-------2---2---2---2--|0-------0-------0---0---0---0--|
A|0-------0-------0---0---0---0--|2-------2-------2---2---2---2--|
E|-------------------------------|3-------3-------3---3---3---3--|

e|0------ ------- ------- -------|3------ ------- ------- -------|
B|1------------------------------|3------------------------------|
G|2------------------------------|4------------------------------|
D|2------------------------------|5------------------------------|
A|0------------------------------|5------------------------------|
E|-------------------------------|3------------------------------|
  You                     could   better          things  to  do
                              find


  F-5maj7                         E
e|0------ 0------ 0---0-- 0---0--|0------ 0------ 0---0-- 0---0--|
B|0-------0-------0---0---0---0--|0-------0-------0---0---0---0--|
G|2-------2-------2---2---2---2--|1-------1-------1---1---1---1--|
D|3-------3-------3---3---3---3--|2-------2-------2---2---2---2--|
A|3-------3-------3---3---3---3--|2-------2-------2---2---2---2--|
E|1-------1-------1---1---1---1--|0-------0-------0---0---0---0--|

e|0----0- --0---- 0----0- --0----|0------ ------- ------- -------|
B|0----0----0-----0----0----0----|0------------------------------|
G|2----2----2-----2----2----2----|1------------------------------|
D|3----3----3-----3----3----3----|2------------------------------|
A|3----3----3-----3----3----3----|2------------------------------|
E|1----1----1-----1----1----1----|0------------------------------|
                          than    break   my      heart   again
                              to

  A
e|0------ 0------ 0---0-- 0---0--|0------ 0------ 0---0-- 0---0--|
B|2-------2-------2---2---2---2--|2-------2-------2---2---2---2--|
G|2-------2-------2---2---2---2--|2-------2-------2---2---2---2--|
D|2-------2-------2---2---2---2--|2-------2-------2---2---2---2--|
A|0-------0-------0---0---0---0--|0-------0-------0---0---0---0--|
E|-------------------------------|-------------------------------|

e|------- ------- ------- ----0--|------- ------- ------- -------|
B|------------------------5---2--|-------------------------------|
G|----------------------------2--|-------------------------------|
D|----------------4-----------2--|-------------------------------|
A|----------------------------0--|-------------------------------|
E|-------------------------------|-------------------------------|
                                                          This
                                                              time

  Am                              G
e|0------ 0------ 0---0-- 0---0--|3------ 3------ 3---3-- 3---3--|
B|1-------1-------1---1---1---1--|3-------3-------3---3---3---3--|
G|2-------2-------2---2---2---2--|0-------0-------0---0---0---0--|
D|2-------2-------2---2---2---2--|0-------0-------0---0---0---0--|
A|0-------0-------0---0---0---0--|2-------2-------2---2---2---2--|
E|-------------------------------|3-------3-------3---3---3---3--|

e|0------ ------- ------- -------|3------ ------- ------- -------|
B|1------------------------------|3------------------------------|
G|2------------------------------|4------------------------------|
D|2------------------------------|5------------------------------|
A|0------------------------------|5------------------------------|
E|-------------------------------|3------------------------------|
                          I   will        to      show    that
                                  try                         I'm


  F-5maj7                         E
e|0------ 0------ 0---0-- 0---0--|0------ 0------ 0---0-- 0---0--|
B|0-------0-------0---0---0---0--|0-------0-------0---0---0---0--|
G|2-------2-------2---2---2---2--|1-------1-------1---1---1---1--|
D|3-------3-------3---3---3---3--|2-------2-------2---2---2---2--|
A|3-------3-------3---3---3---3--|2-------2-------2---2---2---2--|
E|1-------1-------1---1---1---1--|0-------0-------0---0---0---0--|

e|0----0- --0---- 0----0- --0----|0------ ------- ------- -------|
B|0----0----0-----0----0----0----|0------------------------------|
G|2----2----2-----2----2----2----|1------------------------------|
D|3----3----3-----3----3----3----|2------------------------------|
A|3----3----3-----3----3----3----|2------------------------------|
E|1----1----1-----1----1----1----|0------------------------------|
                              not trying          to  pretend


  A
e|0------ 0------ 0---0-- 0---0--|0------ 0------ 0---0-- 0---0--|
B|2-------2-------2---2---2---2--|2-------2-------2---2---2---2--|
G|2-------2-------2---2---2---2--|2-------2-------2---2---2---2--|
D|2-------2-------2---2---2---2--|2-------2-------2---2---2---2--|
A|0-------0-------0---0---0---0--|0-------0-------0---0---0---0--|
E|-------------------------------|-------------------------------|

e|------- ------- ------- 0---0--|------- ------- ------- -------|
B|----------------------------2--|-------------------------------|
G|----------------------------2--|-------------------------------|
D|----------------4-----------2--|-------------------------------|
A|----------------------------0--|-------------------------------|
E|-------------------------------|-------------------------------|
                                                  I   wanna   go


  F#m
e|2------ 2------ 2---2-- 2---2--|2------ 2------ 2---2-- 2---2--|
B|2-------2-------2---2---2---2--|2-------2-------2---2---2---2--|
G|2-------2-------2---2---2---2--|2-------2-------2---2---2---2--|
D|4-------4-------4---4---4---4--|4-------4-------4---4---4---4--|
A|4-------4-------4---4---4---4--|4-------4-------4---4---4---4--|
E|2-------2-------2---2---2---2--|2-------2-------2---2---2---2--|

e|------- 2------ ------- -------|2------ ------- ------- -------|
B|--------2----------------------|2------------------------------|
G|--------2----------------------|2------------------------------|
D|--------4----------------------|4------------------------------|
A|--------4----------------------|4------------------------------|
E|--------2----------------------|2------------------------------|
                                                  But I   hate
                                                              to


  Bm
e|2------ 2------ 2---2-- 2---2--|2------ 2---2-- 2---2-- 2---2--|
B|3-------3-------3---3---3---3--|3-------3---3---3---3---3---3--|
G|4-------4-------4---4---4---4--|4-------4---4---4---4---4---4--|
D|4-------4-------4---4---4---4--|4-------4---4---4---4---4---4--|
A|2-------2-------2---2---2---2--|2-------2---2---2---2---2---2--|
E|-------------------------------|-------------------------------|

e|2------ ------- ------- -------|2------ ------- ------- -------|
B|3------------------------------|3------------------------------|
G|4------------------------------|4------------------------------|
D|4------------------------------|4------------------------------|
A|2------------------------------|2------------------------------|
E|-------------------------------|-------------------------------|
  leave   you                                 You know    hate
                                                      I       to

  E               D           E                   D           E
e|0------ 0------ 2---2-- 2---0--|------- 0------ 2---2-- 2---0--|
B|0-------0-------3---3---3---0--|--------0-------3---3---3---0--|
G|1-------1-------2---2---2---1--|--------1-------2---2---2---1--|
D|2-------2-------0---0---0---2--|--------2-------0---0---0---2--|
A|2-------2-------------------2--|--------2-------------------2--|
E|0-------0-------------------0--|--------0-------------------0--|

e|0------ ------- ------- ----0--|------- ------- ------- ----0--|
B|0---------------------------0--|----------------------------0--|
G|1---------------------------1--|----------------------------1--|
D|2---------------------------2--|----------------------------2--|
A|2---------------------------2--|----------------------------2--|
E|0---------------------------0--|----------------------------0--|
  leave   you     Oh          ho                  Oh          ho

e|------- 0------|
B|--------0------|
G|--------1------|
D|--------2------|
A|--------2------|
E|--------0------|


  Am                              G
e|0------ 0---0-- 0---0-- 0---0--|3------ 3------ 3---3-- 3---3--|
B|1-------1---1---1---1---1---1--|3-------3-------3---3---3---3--|
G|2-------2---2---2---2---2---2--|0-------0-------0---0---0---0--|
D|2-------2---2---2---2---2---2--|0-------0-------0---0---0---0--|
A|0-------0---0---0---0---0---0--|2-------2-------2---2---2---2--|
E|-------------------------------|3-------3-------3---3---3---3--|

e|0------ ------- ------- -------|3------ ------- ------- -------|
B|1------------------------------|3------------------------------|
G|2------------------------------|4------------------------------|
D|2------------------------------|5------------------------------|
A|0------------------------------|5------------------------------|
E|-------------------------------|3------------------------------|
  You                     if  you break   my      heart   I'll
                                                              go


  F-5maj7                         E
e|0------ 0------ 0---0-- 0---0--|0------ 0------ 0---0-- 0---0--|
B|0-------0-------0---0---0---0--|0-------0-------0---0---0---0--|
G|2-------2-------2---2---2---2--|1-------1-------1---1---1---1--|
D|3-------3-------3---3---3---3--|2-------2-------2---2---2---2--|
A|3-------3-------3---3---3---3--|2-------2-------2---2---2---2--|
E|1-------1-------1---1---1---1--|0-------0-------0---0---0---0--|

e|0----0- --0---- 0----0- --0----|0------ ------- ------- -------|
B|0----0----0-----0----0----0----|0------------------------------|
G|2----2----2-----2----2----2----|1------------------------------|
D|3----3----3-----3----3----3----|2------------------------------|
A|3----3----3-----3----3----3----|2------------------------------|
E|1----1----1-----1----1----1----|0------------------------------|
                              But I'll    be      back
                                                      again

  A
e|0------ 0------ 0---0-- 0---0--|0------ 0------ 0---0-- 0------|
B|2-------2-------2---2---2---2--|2-------2-------2---2---2------|
G|2-------2-------2---2---2---2--|2-------2-------2---2---2------|
D|2-------2-------2---2---2---2--|2-------2-------2---2---2------|
A|0-------0-------0---0---0---0--|0-------0-------0---0---0------|
E|-------------------------------|-------------------------------|

e|------- ------- ------- 0---0--|------- ------- ------- -------|
B|----------------------------2--|-------------------------------|
G|----------------------------2--|-------------------------------|
D|----------------4-----------2--|-------------------------------|
A|-------------------------------|-------------------------------|
E|-------------------------------|-------------------------------|

                              Am
e|0------ 0------ 0---0-- 0---0--|
B|2-------2-------2---2---2---1--|
G|2-------2-------2---2---2---2--|
D|2-------2-------2---2---2---2--|
A|0-------0-------0---0---0---0--|
E|-------------------------------|

e|------- ------- ------- ----0--|
B|------------------------5---1--|
G|--------------------4-------2--|
D|----------------4-----------2--|
A|-------------------------------|
E|-------------------------------|


e|0------ 0------ 0---0-- 0---0--|0------ 0------ 0---0-- 0------|
B|1-------1-------1---1---1---1--|1-------1-------1---1---1------|
G|2-------2-------2---2---2---2--|2-------2-------2---2---2------|
D|2-------2-------2---2---2---2--|2-------2-------2---2---2------|
A|0-------0-------0---0---0---0--|0-------0-------0---0---0------|
E|-------------------------------|-------------------------------|

e|0------ ------- ------- -------|------- ------- ------- ----0--|
B|1------------------------------|------------------------5---2--|
G|2------------------------------|--------------------4-------2--|
D|2------------------------------|----------------4-----------2--|
A|0------------------------------|-------------------------------|
E|-------------------------------|-------------------------------|

  A
e|0------ 0------ 0---0-- 0---0--|0------ 0------ 0---0-- 0------|
B|2-------2-------2---2---2---2--|2-------2-------2---2---2------|
G|2-------2-------2---2---2---2--|2-------2-------2---2---2------|
D|2-------2-------2---2---2---2--|2-------2-------2---2---2------|
A|0-------0-------0---0---0---0--|0-------0-------0---0---0------|
E|-------------------------------|-------------------------------|

e|------- ------- ------- -------|------- ------- ------- ----0--|
B|-------------------------------|------------------------5---1--|
G|-------------------------------|--------------------4-------2--|
D|-------------------------------|----------------4-----------2--|
A|-------------------------------|----------------------------0--|
E|-------------------------------|-------------------------------|
  ............................. Fade ............................


        B  Bend
        R  Release
        /  slide up
        \  slide down
        H  hammer-on
        P  pull-off
        ~  vibrato
        +  harmonic
        x  Mute note
        . - play note like a dot in standard notation
        ^ - ties two notes together
        (. Pause
comments
print report bad tab
1 comment total.
0 reply
gbeatle wrote on November 16 2008, 05:48 pm

Nice. But in my opinion, "You Can't Do That" needs a re-work.

I want to post or [tab]
guest
You may want to rate the tab now too:
select rating
Please do not post tabs as comments. Select "correction" instead!