Oops, an error
Loading. Please wait.

Abbey Road Bass Tab

ver1
ver1

Album

More versions @911Tabs.com
31,602 views 171 this week
3 commentsread comments
1 2 3 4 5
accurate
x 12
add to favorites launch autoscroll
font size
0
reset
Autoscroll
+/-
esc
set tempo
stop
Contributor
Difficulty
advanced
WARNING: You are trying to view
                                    content from Ultimate-Guitar.com
                                    in an unauthorized application,
                                    which is prohibited.

                                    Please use an official Ultimate
                                    Guitar Tabs application for iPhone,
                                    iPad or Android to access legitimate
                                    chords, guitar, bass, and drum tabs
                                    from Ultimate-Guitar.com database.

                                    Type "ultimate guitar tabs" in Apple
                                    App Store's or Android Market's
                                    search to find the application.
The Beatles - Abbey Road

Great songs for bass ;)

List of Songs:

Side A:
   1. "Come Together" — 4:20
   2. "Something" (Harrison) — 3:03
   3. "Maxwell's Silver Hammer" — 3:27
   4. "Oh! Darling" — 3:26
   5. "Octopus's Garden" (Starr) — 2:51
   6. "I Want You (She's So Heavy)" — 7:47

Side B:
   1. "Here Comes the Sun" (Harrison) — 3:05
   2. "Because" — 2:45
   3. "You Never Give Me Your Money" — 4:02
   4. "Sun King" — 2:26
   5. "Mean Mr. Mustard" — 1:06
   6. "Polythene Pam" — 1:12
   7. "She Came in Through the Bathroom Window" — 1:57
   8. "Golden Slumbers" — 1:31
   9. "Carry That Weight" — 1:36
  10. "The End" — 2:19
  11. "Her majesty" (pista oculta) - 0:23


-----------------------------------------------------------------------------

Come Together

                       [8x]
G|--------------10^-------|
D|------------------12\5--|
A|--------10h12-----------|
E|--10-10-----------------|

                        [1x]
G|-------------------------|
D|-------------------------|
A|--12--12|12-12|12-12|12--|
E|-------------------------|

                       [8x]
G|--------------10^-------|
D|------------------12\5--|
A|--------10h12-----------|
E|--10-10-----------------|

                        [1x]
G|-------------------------|
D|-------------------------|
A|--12--12|12-12|12-12|12--|
E|-------------------------|

                                         [1x]
G|------------------------------------------|
D|------------------------------------------|
A|--14-14-14-14-14-14-12-12-------------12--|
E|--------------------------15-15-15-15-----|

                       [3x]
G|--------------10^-------|
D|------------------12\5--|
A|--------10h12-----------|
E|--10-10-----------------|

                                 [1x]
G|--------------10^-10h12-10h12-----|
D|------------------------------12--|
A|--------10h12---------------------|
E|--10-10---------------------------|

                       [4x]
G|--------------10^-------|
D|------------------12\5--|
A|--------10h12-----------|
E|--10-10-----------------|

                        [1x]
G|-------------------------|
D|-------------------------|
A|--12--12|12-12|12-12|12--|
E|-------------------------|

                                         [1x]
G|------------------------------------------|
D|------------------------------------------|
A|--14-14-14-14-14-14-12-12-------------12--|
E|--------------------------15-15-15-15-----|

                       [6x]
G|--------------10^-------|
D|------------------12\5--|
A|--------10h12-----------|
E|--10-10-----------------|

                        [2x]
G|-------------------------|
D|-------------------------|
A|--12--12|12-12|12-12|12--|
E|-------------------------|

                       [1x]
G|--------------10^-------|
D|------------------12\5--|
A|--------10h12-----------|
E|--10-10-----------------|

                                  [1x]
G|--------------10^-10h12-10h12-10\--|
D|-----------------------------------|
A|--------10h12----------------------|
E|--10-10----------------------------|

                       [4x]
G|--------------10^-------|
D|------------------12\5--|
A|--------10h12-----------|
E|--10-10-----------------|

                        [1x]
G|-------------------------|
D|-------------------------|
A|--12--12|12-12|12-12|12--|
E|-------------------------|

                                         [1x]
G|------------------------------------------|
D|------------------------------------------|
A|--14-14-14-14-14-14-12-12-------------12--|
E|--------------------------15-15-15-15-----|

                       [3x]
G|--------------10^-------|
D|------------------12\5--|
A|--------10h12-----------|
E|--10-10-----------------|

                              [1x]
G|-------------------------------|
D|-------------------------------|
A|--------10h12-10h12-10h12-10\--|
E|--10-10------------------------|

                       [20x]
G|-------------------------|
D|-------------------------|
A|--12--12|12-12|12-12|12--|
E|-------------------------|

-----------------------------------------------------------------------------|
-----------------------------------------------------------------------------|

Something


                                          Something in the way she moves
G|--------------------------------|----------5-5-5-5---------------|
D|--------------------------------|------------------------2--3/5--|
A|----------------6-------5-------|3-------------------------------|
E|1-------------------------------|--------------------------------|
  ^       ^       ^       ^        ^       ^       ^       ^

                                     Attracts me like no other lover
 |--------------------------------|----5-5-5-5-5-------------------|
 |5~~~--------5h7-5---------------|----------------------------2---|
 |----------------------------5---|3-------------------3---5-------|
 |--------------------------------|--------------------------------|
  ^       ^       ^       ^        ^       ^       ^       ^

                                 Something in the way she
 |--------------------------------|------------7-7-7---------------|
 |3-----------3h5-3-------2-------|------------------------4---9p7-|
 |--------------------------------|5-------------------5-----------|
 |--------------------------------|--------------------------------|
  ^       ^       ^       ^        ^       ^       ^       ^

  woos me                        I don't want to leave her now
 |--------------------------------|-------------7h9-10-9-7---------|
 |5-5-5h7-7-7-7/9-9~~~------------|7-----------------------10-9-7--|
 |--------------------------------|--------------------------------|
 |--------------------------------|--------------------------------|
  ^       ^       ^       ^        ^       ^       ^       ^

 You know I believe and how
 |--------------------------------|--------------------------------|
 |5-----------6-7-----------------|--------------------------------|
 |----------------5-----------7---|8-------8p7-5---6-------5-------|
 |--------------------------------|--------------8-----------------|
  ^       ^       ^       ^        ^       ^       ^       ^

  Somewhere in her smile she knows
 |----5---5-5-5-5-5---5-----------|--------------------------------|
 |------------------------2--3/5--|5~~~--------5h7-5---------------|
 |3-------------------------------|------------------------7---5---|
 |--------------------------------|--------------------------------|
  ^       ^       ^       ^        ^       ^       ^       ^

     That I don't need no other lover
 |----5-5-5---5-5-5---------------|--------------------------------|
 |----------------------------2---|3-----------------------2-------|
 |3-------------------3---5-------|--------------------------------|
 |--------------------------------|--------1-1-1---1---------------|
  ^       ^       ^       ^        ^       ^       ^       ^

 Something in her style that shows me
 |--------------------------------|--------------------------------|
 |------------4---7---------------|5-5-5-5-5h7-7-7-7-7/9--9--------|
 |5-----------------------5-------|--------------------------------|
 |--------------------------------|--------------------------------|
  ^       ^       ^       ^        ^       ^         ^       ^

 Don't want to leave her now    You know I believe and how
 |-------------7h9-10-9-7---------|--------------------------------|
 |7---7-------------------10-9-7--|5-----5---6-7-------------------|
 |--------------------------------|---5------------5-----------7---|
 |--------------------------------|--------------------------------|
  ^       ^       ^       ^        ^       ^       ^       ^


 |--------------------------------|--------6---9---6-6-6-6-6-7-8-9-|
 |--------------------------------|7-7-7-7---7---7-----------------|
 |8---------------6-------5-------|--------------------------------|
 |--------------------------------|--------------------------------|
  ^       ^       ^       ^        ^       ^       ^       ^

   You're asking me will my love grow                      I don't
 |--------9---9-----------9---9---|--------9---9-----------9---9---|
 |7---7-----------6---6-----------|--------------------------------|
 |--------------------------------|9---9-----------7---7-----------|
 |--------------------------------|--------------------------------|
  ^       ^       ^       ^        ^       ^       ^       ^

  know            I don't know
 |--------------------------------|--------------------------------|
 |--------4---4---5---5---5---5---|--------------------------------|
 |5---5---------------------------|--------------------------------|
 |--------------------------------|5----4-----3-----2----1----0----|
  ^       ^       ^       ^

     You stick around now it may show                      I don't
 |--------------------------------|--------------------------------|
 |--------2---2-----------2h4-2---|--------2---2-----------2---2---|
 |--------------------------------|--------------------------------|
 |5---5-----------4---4-----------|2---2-----------0---0-----------|
  ^       ^       ^       ^        ^       ^       ^       ^


  know            I don't know
 |--------------------------------|5----4--------------------------|
 |--------4---4---5---5---5---5---|-----------7-----5--------------|
 |5---5---------------------------|----------------------7----5----|
 |--------------------------------|--------------------------------|
  ^       ^       ^       ^

  Guitar solo
 |----------5-5-5-5---5-----------|--------------------------------|
 |------------------------2---3/5-|5-----------5h7-5---------------|
 |3-------------------------------|----------------------------7p5-|
 |--------------------------------|--------------------------------|
  ^       ^       ^       ^        ^       ^       ^       ^


 |---5--5-5-5-5-5-5---------------|--------------------------------|
 |--------------------------------|------3-3-3-3-----------2-------|
 |3-------------------3---1p0-----|----------------------------3---|
 |----------------------------3\1-|1-------------------------------|
  ^       ^       ^       ^        ^       ^       ^       ^


 |--------------------------------|--------------------------------|
 |--------------4-7-----------4---|5-5-5-5-5h7-7-7-7-7/9~~~--------|
 |5-----------5-------5---7-------|--------------------------------|
 |--------------------------------|--------------------------------|
  ^       ^       ^       ^        ^       ^         ^       ^


 |-------------7h9-10-9-7---------|-----------------------------7\-|
 |7---7-------------------10-9-7-9|7\----5-----6-7-----------------|
 |--------------------------------|--------7-5-----5---------------|
 |--------------------------------|--------------------------------|
  ^       ^       ^       ^        ^       ^       ^       ^

                                   Something in the way she knows
 |--------------------------------|--------------------5-5-5-5-5---|
 |--------------------------------|-------------------------------5|
 |8-------7p5-----6-------5-------|3h5p3-------3---3---------------|
 |------------8-------------------|--------------------------------|
  ^       ^       ^       ^        ^       ^       ^       ^

                                       And all I got   to do is
 |----------------5---------------|----5-5-5-5-5-5-5---------------|
 |5h7p5---5h7p5-------5h7-5-------|--------------------2---5---2---|
 |----------------------------7\5-|3-------------------------------|
 |--------------------------------|--------------------------------|
  ^       ^       ^       ^        ^       ^       ^       ^

 think of her                     Something in the things she
 |--------------------------------|------------------7-7---7-------|
 |3-----------------------2-------|--------------4-7-----------4---|
 |--------------------------------|5-----------5-------------------|
 |------------1-1-1---------------|--------------------------------|
  ^       ^       ^       ^        ^       ^       ^       ^

 shows me                         Don't want to leave her now
 |--------------------------------|-------------7h9-10-9-7---------|
 |5---5-5-5h7-7-7-7/9-------------|7---7-------------------10-9-7-9|
 |--------------------------------|--------------------------------|
 |--------------------------------|--------------------------------|
  ^       ^       ^       ^        ^       ^       ^       ^

  You know I believe and how
 |--------------------------------|--------------------------------|
 |7\------------------------------|--------------------------------|
 |---5--0---3--5--5-----------7---|8---------------6-------5-------|
 |--------------------------------|--------------------------------|
  ^       ^       ^       ^        ^       ^       ^       ^


 |------------6-6-6-7-7-7-8-8-9-9-|9/10-10-10-10p9-7--8----7-------|
 |7-7-7-7-7-7---------------------|-----------------10-------------|
 |--------------------------------|--------------------------------|
 |--------------------------------|--------------------------------|
  ^       ^       ^       ^        ^       ^          ^    ^


 |--------------------------------|
 |--------------------------------|
 |5p3-----------------------------|
 |--------------------------------|
  ^       ^       ^       ^


-----------------------------------------------------------------------------|
-----------------------------------------------------------------------------|

Maxwell's Silver Hammer

G-------------------------------------------------|
D-------------2---2-------------------------------|
A---5-4-2---2---2---5-4-2---4-7-7-4-7-5-4-2---2-4-|
E---------2---------------5-----------------5-----|

G--------------------------------------------------------------|
D-------------2---2--------------------------------------------|
A---5-4-2---2---2---5-4-2---4-7-7-4-7-5-4-2------4-7-4-7--7/12-|
E---------2---------------5-----------------5--5---------------|

G--------------------------------------------------------------|
D----------------------------6-9-6----------7-7----------------|
A---4-2----5---5-4-5-6-7---7-------9-7-9-7------7-7------4---7-|
E-------5----5-----------7--------------------------5--5---5---|

G---------------------------------------------|
D-------------------------------------2-------|
A---7-4---4--5---5--5-4-2-------2-4-5---4-5---|
E-------7------5----------5-3-5-------------5-|

G-------------------------------------------------|
D-------------2---2-------------------------------|
A---5-4-2---2---2---5-4-2---4-7-7-4-7-5-4-2---2-4-|
E---------2---------------5-----------------5-----|

G--------------------------------------------------------------|
D-------------2---2--------------------------------------------|
A---5-4-2---2---2---5-4-2---4-7-7-4-7-5-4-2------4-7-4-7--7/12-|
E---------2---------------5-----------------5--5---------------|

G---------------------------------------------------------------------------|
D---------------------------------------------------------------------------|
A---4-2----5---5-4-5-6-7---7--7-9-7--5-7-5--4-5-4-------------4-4-7-7-4-7-4-|
E-------5----5-----------7-------------------------7-9-7--5-5---------------|

G----------------------------------------6--------------------------------|
D------------------------------------6-9---9-6----------------------------|
A---7--4------4----5---5-4-5-6-7---7-----------9-7-9--------7-7-----4---7-|
E---------5-7---5----5-----------7----------------------5-5-----5-5---5---|

G--------------------------------------------|
D------------------------------------2-------|
A---7-4-----5---5--5-4-2-------2-4-5---4-5---|
E-------7-5---5----------5-3-5-------------5-|

G---------------------------------------------------|
D-------------2---2---------------------------------|
A---5-4-2---2---2---5-4-2---4-7-7-4---5-4-2---2-4---|
E---------2---------------5---------5-------5-----5-|

G----------------------------------------------------------------------|
D---------------2-----2------------------------------------------------|
A---5-4-2---2-----2-2---5-4-5-4-2---4-4-7-7-4---5-4-2------4-7-7--7/12-|
E---------2---2-------------------5-----------5-------5--5-------------|

G---------------------------------------------------------------------------|
D-----7-5------------------------------6-----7-7----------------------------|
A---7-----7--5-----5---5-6-7---7---7-7---9-7-----7-7-----4---7--7-------4---|
E--------------5-5---5-------7---7-------------------5-5---5------7-5-7---5-|

G--------------------------------------------------------------|
D-----------------------6-9-6----------------------------------|
A---5-----5---5-6-7---7-------9-9---4-7---4-7-4--7-4-----5---5-|
E-----5-5---5-------7-------------5-----5------------5-7---5---|

G---------------------------|
D---------------------2-----|
A---5-4-2-------2-4-5---4-5-|
E---------5-3-5-------------|


-----------------------------------------------------------------------------|
-----------------------------------------------------------------------------|

Oh! Darlin


G-------------------------------------------------------------------|
D------4-----------------------4-7-4---------4-7--4------4------6\4-|
A--------7--4-5-6-7--4-2--4-2-----------4-5------------------7------|
E---5---------------------------------5-------------5-7----7--------|

G---------------------------------------------------|
D------4----------------------------4-7-7-7-7-6-4---|
A----------7------------4-5-5-5-5-7---------------7-|
E---7----7----5-5-5-5-7-----------------------------|

G---------------------6-4----4--------6-------------------------------|
D------4-------------------6---4-4--7----7-4------4-7--4-7-4----------|
A--------7--4-5-6--7-------------------------7-5------------------9-7-|
E---5--------------------------------------------------------7--7-----|

G---------------------4--------------------------------------------------|
D-------------------6----------------------------------------------------|
A---9------9---7--7----------------4-5-5-5-5-7-----------2-3-4-4-4-4-2-4-|
E-----7--7---7-----------5-5-5-5-7-------------2-5-5-5-5-----------------|

G---------------------------------------------------------------------|
D-----------------------------------3-----------------7-------------4-|
A---5--5--5-5-5-5-6-7-8--8--------3---3------------------9-9-7---4-7--|
E-------------------------8-1--1----------5--6-6-7-7-8---------5------|

G------------------------------------------------------|
D---------6-9--------6-9----------6h9----------7h10----|
A-----6-9--------6-9------7-7-7-7------8-8-8-8-------7-|
E---7----------7---------------------------------------|

G--------------------6-4-------------6----------------4---------------------|
D------4------------------------4--7----4-3-2----4-7----7-4----4------6-----|
A--------7--4-5-6-7---------------------------5--------------------7----4---|
E---5---------------------4-4-4-----------------------------7----7--------7-|

G----------4----------------------------------4-5-6-6-6-6-6-6-|
D---4-------------------------------4-7-7-7-7-----------------|
A-------7---------------4-5-5-5-5-7---------------------------|
E-----7-------5-5-5-5-7---------------------------------------|

G----------------------------------------------------------------------------|
D----------------------7------5-5-------------------------7--------6-9---6-9-|
A--5--5--5-5--5-6-7-8----8--8--------2-3-4----2-4-2-5-4-7------6-9-----9-----|
E----------------------------------5--------5----------------7---------------|


G--------------------------------------------------|
D----------------9-------------------------3---3---|
A-----6-9---9-11--------------7--------0-3---5---7-|
E---7-----7---------7-7-7-0-4----1-1-1-------------|


G------------------6-4-------------------------------------------------------|
D----4------------------6-6-6--------4---------6-9--6-9-6------2--6----4---2-|
A------7--4-5-6-7------------------4----4-4-5-------------2--2------2----2---|
E--5--------------------------2--2-------------------------------------------|


G---1-4----------------------------------|
D----------------------------------------|
A------------------4-5-5-5-5--5-7--------|
E--------5-5-5-5-7----------------5--6-5-|

-----------------------------------------------------------------------------|
-----------------------------------------------------------------------------|
Octopus Garden

 tempo 96|       |       |        |       |       |       |
|--------------------------------|--------------------------------|
|------------------------2-------|----------------------------1---|
|--------------------2-----------|--------------------2---4-------|
|--------------------------------|--------------------------------|

 |       |       |       |        |       |       |       |
|--------------------------------|--------------------------------|
|2-------------------------------|--------2---------------1-------|
|--------2-------4---------------|0---------------2---4-------2---|
|------------------------4-------|--------------------------------|

 |   I'd like to be...   |        |       |       |       |
|--------------------------------|--------------------------------|
|2---------------2-------1-------|--------------------------------|
|--------2-----------------------|4---------------4-------2-------|
|--------------------------------|--------4-----------------------|

 |       |       |       |        |       |       |       |
|--------------------------------|--------------------------------|
|--------2---------------2-------|------------------------1-----1-|
|0---------------0-----------0---|2---2---2---2---2---4-----2-4---|
|--------------------------------|--------------------------------|

 |       He'd let us in...        |       |       |       |
|--------------------------------|--------------------------------|
|2---------------2-------1-------|--------------------------------|
|--------2-----------------------|4---------------4-------2-------|
|--------------------------------|--------4-----------------------|

 |       |       |       |        |       |       |       |
|--------------------------------|--------------------------------|
|--------2---------------2-------|--------------------1-------1---|
|0---------------0-----------0---|2---2---2---2---4-------2-4-----|
|--------------------------------|--------------------------------|

 |   I'd ask my friends....       |       |       |       |
|--------------------------------|--------------------------------|
|--------------------------------|--------------------------------|
|4-------------------------------|----------------4-------2-------|
|--------------------------------|--------------------------------|

 |       |       |       |        |       |       |       |
|--------------------------------|--------------------------------|
|--------------------------------|----------------------------1---|
|0-------------------------------|2---2---2---2-------2---4-------|
|--------------------------------|--------------------------------|

 |       |    I'd like to be...   |       |       |       |
|--------9-----------------------|--------6-----------------------|
|--------------------------------|--------------------------------|
|7---------------7-------6-------|4---------------4-------2-------|
|--------------------------------|--------------------------------|

 |       |       |       |        |       |       |       |
|--------2---2-------------------|----------------9-------9-6-----|
|----------------------------1---|--------9-------------------9---|
|0---------------2-------4-------|7-------------------------------|
|--------------------------------|--------------------------------|

 |       We would be warm...      |       |       |       |
|--------------------------------|--------------------------------|
|2---------------2-------1-------|--------------------------------|
|--------2-----------------------|4---------------4---4---2---2---|
|--------------------------------|--------4-----------------------|

 |       |       |       |        |       |       |       |
|--------------------------------|--------------------------------|
|--------2---------------2-------|--------4---------------1-------|
|0---------------0-----------0---|2---------------2---4-------2---|
|--------------------------------|--------------------------------|

 |    Resting our heads...        |       |       |       |
|--------------------------------|--------------------------------|
|2---------------2h3p2---1-------|--------------------------------|
|--------2-----------------------|4---------------4-------2-------|
|--------------------------------|--------4-----------------------|

 |       |       |       |        |       |       |       |
|--------------------------------|--------------------------------|
|--------2-------------------2---|----------------1---------------|
|0---------------0-------4-------|2-------2---4-----------2-------|
|--------------------------------|--------------------------------|

 |   We would sing...    |        |       |       |       |
|----------------13--------------|--------------------------------|
|--------------------------------|--------------------------------|
|4-------------------------------|----------------4-------2-------|
|--------------------------------|--------------------------------|

 |       |       |       |        |       |       |       |
|--------------------------------|--------------------------------|
|--------------------------------|----------------------------1---|
|0-------------------------------|2---2---2-----------2---4-------|
|--------------------------------|--------------------------------|

 |   I'd like to be...   |        |       |       |       |
|--------------------------------|--------------------------------|
|2---------------2-------1-------|--------------------------------|
|--------2-----------------------|4---------------4-------2-------|
|--------------------------------|--------4-----------------------|

 |       |       |       |        |       |       |       |
|--------------------------------|----------------7/--9---9-9-7---|
|--------2-----------------------|------------------------------9-|
|0---------------2---4---6-------|7-------------------------------|
|----------------------------7---|--------7-----------------------|

 | S O L O       |       |        |       |       |       |
|--------------------------------|--------------------------------|
|7---7-----------7---------------|4---4-----------4---4-----------|
|--------7---------------7-------|--------4---------------4-------|
|--------------------------------|--------------------------------|

 |       |       |       |        |       |       |       |
|--------------------------------|--------------------1-----------|
|--------------------------------|2---2-----------2-4-----2-------|
|5---5-----------5---5-----------|--------2-----------------------|
|--------5---------------5-------|--------------------------------|

 |       |       |       |        |       |       |       |
|2---2-----------2---2-----------|--------------------------------|
|--------2---------------2-------|4---4-----------4---4---2-------|
|--------------------------------|--------4-----------------------|
|--------------------------------|--------------------------------|

 |       |       |       |        |       |       |       |
|--------------------------------|--------------------------------|
|0---0-----------2---2---2-0-----|----------------------------1---|
|--------0-------------------4-2-|0---0---0---0---2---2---4-4-----|
|--------------------------------|--------------------------------|

 |       We would|shout...        |       |       |       |
|--------------------------------|--------------------------------|
|2---------------2---2-----------|--------------------------------|
|--------2-------------------0---|4---------------4---4-------2---|
|--------------------------------|--------4-----------------------|

 |       |       |       |        |       |       |       |
|--------------------------------|--------------------------------|
|--------2---------------2-------|----------------1-----------1---|
|0---------------0-----------0---|2---2---4---4-------2---4-------|
|--------------------------------|--------------------------------|

 |       Oh, what|joy... |        |       |       |       |
|--------------------------------|--------------------------------|
|2---2-----------2-------1-------|--------------------------------|
|--------2-----------------------|4---------------4---4---2-------|
|--------------------------------|--------4-----------------------|

 |       |       |       |        |       |       |       |
|--------------------------------|--------------------------------|
|--------2---------------2-------|--------4-------------------1---|
|0---------------0---0-------4---|2---------------2-------4-------|
|--------------------------------|--------------------------------|

 |       We would|be...  |        |       |       |       |
|--------------------------------|----------------6---6-----------|
|--------------------------------|------------6-------------------|
|4-------------------------------|------------------------2-------|
|--------------------------------|--------------------------------|

 |       |       |       |        |       |       |       |
|--------------------------------|--------------------------------|
|--------------------------------|----------------------------1---|
|0-------------------------------|2---2---2---2-2----22---4-------|
|--------------------------------|--------------------------------|

 |   I'd like to be...   |        |       |       |       |
|--------------------------------|--------------------------------|
|2---------------2---2---1-------|--------------------------------|
|--------2-----------------------|4---------------4-------2-------|
|--------------------------------|--------4-----------------------|

 |       |       |       |        |       |       |       |
|--------------------------------|--------------------------------|
|--------2-------------------1---|2-------------------------------|
|0---------------2-------4-------|--------2-------4-------2-------|
|--------------------------------|--------------------------------|

 |       |       |       |        |       |       |       |
|--------------------------------|--------------------------------|
|------------2---------------4---|--------------------------------|
|0-------4-------2-------4-------|4-----------4-------------------|
|--------------------------------|------------------------0---0---|

 |       |       |       |        |       |       |       |
|--------------------------------|--------------------------------|
|------------------------1-------|2---------------------------1---|
|0-------4-------2---------------|--------------------------------|
|--------------------------------|--------------------------------|

 |       |       |       |
|--------------------------------|
|2-------------------------------|
|--------------------------------|
|--------------------------------|


-----------------------------------------------------------------------------|
-----------------------------------------------------------------------------|

I want You

Intro:
-------------------------------------------------------|
                    {-------fast-----------------------|
G|-------------------10--------------------------------|
D|--------3--5--7------10-------------------------7~---|
A|--5--7----------7------12----------------------------|
E|-------------------------13p12-8-7-6--8--10--5-------|

Verse 1:
--------

G|-----------------------------------------------------------------------|
D|-----------------------------------------------------------------------|
A|-----------------------------------------------------------------------|
E|-------------5-5-5--------------------------5-5-5-5-------------5-5-5--|
   I want you          I want you so bad               I want you

G|-----------------------------------------------------------------------------|
D|-------------------------------------------------------3--------5--6--7------|
A|----------------------------------------3------5------------------------7----|
E|-------------5-5-5------------------5-------------------------------------5--|
   I want you          I want you so baaaad it's driving mad it's driving


Chorus 1:
---------

G|---------------------7------------11-10------------------|
D|-----------------3----------------------12-----12-12-12--|
A|----------4---5------------------------------------------|
E|--5-5--5----------------10-10-10-----------10------------|
          I want You              I want you so bad babe

G|------14-12-----------------------10-----|
D|------------13-12-12s1-0--12---------12--|
A|-----------------------------------------|
E|--10--------------------------10---------|
       I want you

G|---------------------------------------------------------------------------|
---9-7-----------------------------------------------------------------------|
D|-------------------3-----------------------------------------------5-------|
-9-----9---------------------------------------------------------------------|
A|--------------5-------3-----------1--------5-6-7---7-7-7-7-7-7-7-7---9-8-7-|
-----------------------------------------------------------------------------|
E|-------------------------------------------------0-------------------------|
-----------------------------------------------------------------------------|
  I want you so bad its driving me mad-its driving


G|----------------------------9-7--------------------------|
D|------------------5-------9-----9-------------------3s14-|
A|--7-7-7-7-7-7-7-7---9-8-7----------7-7-7-7-7-7-7-7-------|
E|---------------------------------------------------------|


Verse 2:
--------

G|--------2-------------------------------------|
D|---14s3------------------------7--------------|
A|-----------5h7p5---------3-5-7----5h7p5-------|
E|-----------------5-----7----------------8-7-5-|
   I Want you         I Want so baaaaadd   babe

G|--5------------------------------------------------------------------------|
D|-----7--------------7---------------------------------3--------5-6-7-------|
A|--------------3-5-7------3-5-7-5-3----3----5---------------------------7---|
E|---------5--7----------5-----------5-------------------------------------5-|
  I  want you          I want you so bad its driving me mad it's driving

Chorus 2:
---------

Repeat chorus 1


Middle 1:
---------

(I forget how the words go in this She's so heavy bit)

                           {-------fast---------------}
                           {********}
G|--------------------------10-10-10-------------------------------------|
D|--14s3--------3--5--7--------------10--------------------------7~------|
A|--------5--7-----------7--------------12--------------------------4-7--|
E|-----------------------------------------13p12-8-7-6--8--10--5---------|
         She's so...

                        {-------fast---------------}
                        {********}
G|-----------------------10-10-10-------------------------------------|
D|------------3--5--7-------------10------------------------------7---|
A|--8-7-5--7----------7--------------12-----------------------4-7-----|
E|--------------------------------------13p12-8-7-6--8--10--5---------|


Verse 3:
--------

G|-----------------------------------------------------------|
D|-----------5--5-7-------5-5-5-7-------------5-5-5-7--------|
A|-------5h7---------5h7-----------7-7----5h7-----------7-7--|
E|-----5------------5------------5------5-------------5------|

I Want You         I want uou so baaad          I want you

G|----------------------------------------------------------------|
D|--------5-5-5-7-------------------------3----3--2--0------------|
A|----5h7----------------3---3-5--------5--------------2h3p2------|
E|--5---------------5--5------------------- ------------------3h5-|
    I want you so  bad     its driving me mad its driving me mad

Chorus 3:
---------

G|-------------------------------------------7-7---------7-7-5---|
D|--7-7-7-7-7-7-7-7--7---------------------7-----5-7---7-------7-|
A|---------------------8-5-----------3--5------------5-----------|
E|-------------------------7-5--5-5------------------------------|
                                     I want you       I want you

G|------7-5------10h11-10h11-7-------7--7--------|
D|----7-----7-----------------------------5-7----|
A|--5---------5----------------5--5-----------5--|
E|-----------------------------------------------|
     so bad                  I Want you

G|--------7--7----------------------------------------------|
D|--6--7---------------3----3-------------------------------|
A|----------------5--5--------3--------3-1----1s5--5--6--7--|
E|----------------------------------------------------------|
   I want you so baaaad   its driving me mad its driving me

G|-----------------------------9-7------------------------------9-7------|
D|-------------------5-------9-----9------------------5-------9-----9----|
A|---------7-7-7-7-7---9-8-7----------7-7-7-7-7-7-7-7---9-8-7---------7--|
E|--0-0--0---------------------------------------------------------------|

G|-----------------|
D|-----------------|
A|--7-7-7-7-7-7--7-|
E|--0-0-0-0-0-0--0-|

Middle 2:
---------

                      {-------fast---------------}
                      {********}
G|---------------------10-10-10-------------------------------------|
D|---------3--5--7--------------10--------------------------7~------|
A|---5--7-----------7--------------12--------------------------4-7--|
E|------------------------------------13p12-8-7-6--8--10--5---------|


                        {-------fast---------------}
                        {********}
G|-----------------------10-10-10-------------------------------------|
D|------------3--5--7-------------10------------------------------7---|
A|--8-7-5--7----------7--------------12-----------------------4-7-----|
E|--------------------------------------13p12-8-7-6--8--10--5---------|


Verse 4:
--------

Repeat verse 3


Chorus 4:
---------

Repeat Chorus 3


Middle 3:
---------

Repeat Middle 2


Verse 5:
--------

Repeat verse 3


Chorus 5:
---------

Repeat Chorus 3


Ending:
-------

                    {-------fast-----------------------|
G|-------------------10--------------------------------|
D|--------3--5--7------10-------------------------7~---|
A|--5--7----------7------12----------------------------|
E|-------------------------13p12-8-7-6--8--10--5-------|

                        {-------fast---------------}
                        {********}
G|-----------------------10-10-10-------------------------------------|
D|------------3--5--7-------------10--------------------------7~------|
A|--8-7-5--7----------7--------------12--------------------------8-7--|
E|--------------------------------------13p12-8-7-6--8--10--5---------|


-----------------------------------------------------------------------------|
-----------------------------------------------------------------------------|

Here comes the Sun


G-------------------|-------------------------------------------|
D-----------------2-|--7--7--7--7---7-777----------------6---6--|
A---------------2---|--0--0-----0-----------5-555-77-7-9---9---7|
E-10-9-7-5-0-4------|-------------------------------------------|

G-----------------------------|---------------------------------|
D-7-777-7-777-----------------|-7-5-7--------6----6-------------|
A--------------5-555-5-5-4-5-6|-------7--7-9---9----7-----------|
E-----------------------------|---------------------------------|

G---------------------------|------------------|--------------|.|
D-7--7-7--7-7-7-------------|-----------------2|-7-777-7------| |(repeat
A-0----0--------5-5-5-5-7-7-|--------------2---|----------5---|.|darling 1X)
E---------------------------|10-9-7-5-0-4------|--------------| |

At about 1:30 into song play this
G-5----------------------|----------------------4-|.|
D---5-4----4-7-----------|-7-7-7--------------6---| |(repeat 6x but on 6th
A--------5---------------|-------5--7-7-7---7-----|.| time play the bottom
E------------------------|------------------------| | riff of the second half of
                                                       here it comes riff.)

G------------------------|--------------------------------|
D------------------------|-7-777-7-777-------------6---6--|
A-7-7-7-7-7-7-7-7-7-7-7-7|-------------5-555-77-7-9--9---7|
E------------------------|--------------------------------|

G----------------------------|------------------------|
D-7-777-7-777----------------|-7-5-7---------6---6----|
A-------------5-555-5-5-4-5-6|--------7--7-9---9----7-|
E----------------------------|------------------------|

G----------------------------|--------------------|.|
D-7--7-7--7-7-7--------------|----------------2---| |Repeat from here comes
A-0----0--------5-5-5-5-7-7--|--------------2-----|.| the sun
E----------------------------|10-9-7-5-0-4--------| |

G-------------------|------------|Coda(finish)
D---------------2---|------------|
A-------------2-----|-3----------|
E10-9-7-5-0-4-------|------------|

-----------------------------------------------------------------------------|
-----------------------------------------------------------------------------|

Because

G-------------|----------7--------------------------|
D-------------|-------------------6-----------------|
A-------------|---5---------4---------7-----4-------|
E-------------|-------------------------------------|

G--------------------------------|
D---6--------------------4-------|
A--------7----6-----7---------6--|
E--------------------------------|

G------------------------------------------------------|
D----------7---------------------------------7---------|
A-------------7------4-----7----4----------------------|
E--4---5-------------------------------5---------------|

G-------------7--------------------------|
D----------------------6-----------------|
A------5---------4---------7-----4-------|
E----------------------------------------|

G--------------------------------|
D---6--------------------4-------|
A--------7----6-----7---------6--|
E--------------------------------|

G------------------------------------------------------|
D----------7---------------------------------7---------|
A-------------7------4-----7----4----------------------|
E--4---5--------------------------5---5----------------|

G-------------7------|
D--------------------|
A------5-------------|
E--------------------|


The «Love is...» part*

G--------------------------------------------------------|
D---4-------------4-----4--------4---6--------4----6—-6--|
A------------4----------------4----------4---------------|
E--------------------------------------------------------|

G--------------------------------------|
D--------------------6-----------------|
A--------------4---------7-----4-------|
E--------------------------------------|

G--------------------------------|
D---6--------------------4-------|
A--------7----6-----7---------6--|
E--------------------------------|

G------------------------------------------------------|
D----------7------------------------------7------------|
A-------------7------4-----7----4----------------------|
E--4---5--------------------------5---5----------------|

G-------------7-----|
D-------------------|
A------5------------|
E-------------------|

-----------------------------------------------------------------------------|
-----------------------------------------------------------------------------|

You Never Give Me Your Money

 I never give you|my     |        number...       |       |
|--------------------------------|--------------------------------|
|--------------------------------|0-----------0-------2---3/--4---|
|0-------------------------------|--------------------------------|
|--------------------------------|--------------------------------|

 I only give you my      |        situation...    |       |
|0-------------------------------|--------------------------------|
|--------------------------------|--------------------0---2/3/2---|
|--------------------------------|3-----------3-------------------|
|--------------------------------|--------------------------------|

 and in the middle of in-|        vestigation     |   I   |
|--------------------------------|--------------------------------|
|3-------------------------------|--------0---2-------------------|
|--------------------------------|2---3---------------------------|
|--------------------------------|------------------------0-------|

 break down...   |       |        |       |       |       |
|--------------------------------|----------------0---------------|
|--------------------------------|--------------------3---2---0---|
|0-------------------------------|--------------------------------|
|--------------------------------|--------------------------------|

 Out of college....      |        |       |       |       |
|--------0---------------1-------|2---4---5---2---5---3---2---0---|
|----2-------2---2---4-------2---|--------------------------------|
|3-------------------------------|--------------------------------|
|--------------------------------|--------------------------------|

 |       |       |       |        |       |       |       |
|----0-----------0---------------|--------0---2---3---2---0-------|
|3-3-----2---3-------3---2---0---|----2-----------------------2---|
|--------------------------------|3-------------------------------|
|--------------------------------|--------------------------------|

 |       |       |       |        |       |       |       |
|--------0---------------1-------|2---4---5---2---5---3---2---0---|
|----2-------2---2---4-------2---|--------------------------------|
|3-------------------------------|--------------------------------|
|--------------------------------|--------------------------------|

 |       |       |       |        |       |       |       |
|----0---2-------0---------------|--------0-0-2---3---2---0-------|
|3-----------3-------3---2---0---|----2-----------------------2---|
|--------------------------------|3-------------------------------|
|--------------------------------|--------------------------------|

 |       |       |       |        |       |       |       |
|--------------------------------|--------------------------------|
|--------------------------------|--------------------------------|
|1-----------1-------------------|--------------------------------|
|--------------------------------|1-----------1-------------------|

-----------------------------------------------------------------------------|
-----------------------------------------------------------------------------|

Sun King

Song: Sun King
Artist: Beatles
Album: Abbey Road
Tabbed By: Kenny Borders (kennyborders@hotmail.com)

G-----9-9~~--|-----999~~--|-----9-9~~--|-----999---------|
D------------|------------|------------|---------------9-|
A-7----------|-7----------|-7----------|7--------7-9\11--|
E------------|------------|------------|-----------------|

G-----9-9~~--|-----9-9~~--|-----9-9~~--|-----9------------|
D------------|------------|------------|----------6-7-9---|
A-9----------|-9-------14\|-7----------|-7--------------9-|
E------------|------------|------------|------------------|

G-----9-9~~--|-----9-9~~--|-----9-9~~--|-----999-------|
D------------|------------|------------|---------6-7-9-|
A------------|-9-------14\|-7----------|-7-------------|
E------------|------------|------------|---------------|

G-----9-9~~--|-----999~~--|-----9-9~~--|--------9-----|
D------------|------------|------------|-----9-----9--|
A-9----------|-9-------14\|-7----------|-7------------|
E------------|------------|------------|--------------|

G------------|------------|------------|------------|------------|
D-5----------|------------|------------|-----------2|5-----------|
A------------|------------|-3----------|-3----------|------------|
E------------|------------|------------|------------|------------|

G------------|------------|------------|------------|-------------|
D-7----------|------------|----------2-|-5---5-5----|-7---7-7-----|
A----7\0-4-7-|-3----------|-3----------|----------7-|-------------|
E------------|------------|------------|------------|-------------|

"Everybody's laughing..."
G------------|------------|------------|-------5----|
D------------|------------|------------|------------|
A-8---8-8----|-5---5-5---7|-8---8-8-8--|-5--------5-|
E------------|------------|------------|------------|

G------------|------------|---------5--------|-------------|
D---------0--|-2------3-5-|------5/7---7-5-3-|-----3-3---5-|
A-3---3-3----|------------|-3----------------|-------------|
E------------|------------|------------------|-------------|

Spanish Part
G------------|---999999~--|-----9-9~~--|------------9--|-----9-9~~--|
D-7----------|------------|------------|------6-7-9---9|------------|
A------------|---------14\|-7----------|-7-------------|-9----------|
E------------|------------|------------|---------------|------------|

G---9999-9~--|-----999~~--|-----9--------|-----999~~--|--9--9--9----|
D------------|------------|------6-7-9---|------------|-------------|
A-9-------14\|-7----------|-7----------7-|-9----------|-9--9--9--14\|
E------------|------------|--------------|------------|-------------|

G-----999~~--|------------|
D------------|------------|
A-7-------14\|7-----------|
E------------|------------|

-----------------------------------------------------------------------------|
-----------------------------------------------------------------------------|

Mean Mr. Mustard

 Mean mister mustard, sleeps in the park......
g----------------------------|------------|--------|
d-2-2------------------------|----%-------|---%----|
a-------------2-2------------|----%-------|---%----|
e----------------------------|------------|--------|
                         Sleeps in a hole....

g-----------------------|-----------------|
d-2-2------2--1------4--|--------4--4-----|
a--------2-------4-4----|2--2-------------|
e-----------------------|-----------------|
                       saving up to .....

g---------------------|------------------|
d-------R-4-----------|-------7-7--------|
a-2-2--------2-3-4-5__|(5)---------------|
e---------------------|------------------|
                    Keeps a ten bob note...

g------------------|------------------|
d------------------|--------4-4-------|
a--5-5----5-4-3-2__|(2)---------------|
e------------------|------------------|
              Such  a mean old man__
                      (E7)        (C7) B7
g--------------------|---------------|----------------|
d------R-4------1----|-2-2-----------|-2-2----------1-|
a-2-2------2-4-----2-|----------3-3--|------R-4-R-4---|
e--------------------|---------------|----------------|

 mean old man___
g---------------|-----------------|
d-2-2-----------|--------------1--|
a------R--3-3---|-2-2-R-0-2-4-----|
e---------------|-----------------|

-----------------------------------------------------------------------------|
-----------------------------------------------------------------------------|


Polythene Pam

  W          E E Q  E Q.    W          E E Q  H
|----------|--------------|----------|-------------|
|----------|--------------|----------|-------------|
|----------|---7-7--7s3s==|=7--------|---7-7--7----|
|----------|--------------|----------|-------------|


   Verses 1/2
    H    Q.   E   +E  E Q  E E Q     H    Q.   E   +E  E Q  E E Q
||--------------|------------------|-------------|------------------|
||o-------------|------------------|-------------|------------------|
||o-5---------7-|-(7)-7-7--7---7\--|-5---------7-|-(7)-7-7--7---7\--|
||-------5------|------------------|------5------|------------------|


  Q.   E E E E E   E E Q  Q  Q     H    Q.   E   +E  E Q  Q  Q
|----------------|---------------|-------------|------------------|
|-5----5-----7s9-|-9-9-9--9------|-------------|------------------|
|----------5-----|---------------|-3----5----7-|-(7)-7-7--7-------|
|----------------|-----------7\--|-------------|-------------7\---|


  H    Q.   E   +E  E Q  Q  E E   W          E E Q  E Q.
|-------------|-----------------|----------|-----------------|
|-------------|-----------------|----------|-----------------|
|-3----5----7-|-(7)-7-7--7--7s3s|=7--------|---7-7--7s3s==---|
|-------------|-----------------|----------|-----------------|

   Q   +Q    H      E E Q  E E Q
|-----------------|------------------|
|-----------------|------------------|o
|-19--(19)\-------|---7-7--7---7\----|o
|-----------------|------------------|


 Guitar Solo

  E E Q  E E Q     H    Q.   E   E E Q  Q  Q
|----------------|-------------|-----------------|
|----------------|-------------|-----------------|
|---7-7--7---7\--|-5---------5h|~7-7-7--7--7\----|
|----------------|------5------|-----------------|


  H    Q.   E   E E Q  Q  Q     H    Q.   E   E E Q  Q  Q
|-------------|---------------|-------------|----------------|
|-------------|---------------|-------------|----------------|
|-5---------5h|=7-7-7--7--7\--|-5---------5h|~7-7-7--7--7\---|
|------5------|---------------|------5------|----------------|


                                          ~~
  H    Q.   E   E E Q  Q  Q     H    Q.   E   E E Q  Q  Q
|-------------|---------------|-------------|----------------|
|-------------|---------------|-------------|----------------|
|-5---------5h|=7-7-7--7--7\--|-5---------5h|~7-7-7--7--7\---|
|------5------|---------------|------5------|----------------|


  H    Q.   E   E E Q  Q  Q     H    Q.   E   E E Q  Q  Q
|-------------|---------------|-------------|----------------|
|-------------|---------------|-------------|----------------|
|-5---------5h|=7-7-7--7--7\--|-5---------5h|~7-7-7--7--7\---|
|------5------|---------------|------5------|----------------|


  H    Q.   E   E E Q  Q  Q     H    Q.   E   E E Q  E E E E
|-------------|---------------|-------------|-----------------|
|-------------|---------------|-------------|-----------------|
|-5---------5h|=7-7-7--7--7\--|-5---------5h|~7-7-7--7---5-6--|
|------5------|---------------|------5------|----------7------|


 Outro
  E E E E E E E E   E E E Q  E E E   E E E Q  E E E   E E E Q  E E E
|-----------------|----------------|----------------|-----------------*
|-----------------|----------------|----------------|-----------------*
|-7-7-7-7-7-7-7-7-|-5-5-5-5--5-5-5-|-4-4-4-4--4-4-4-|-2-2-2-2--2-2-2--*
|-----------------|----------------|----------------|-----------------*

-----------------------------------------------------------------------------|
-----------------------------------------------------------------------------|

Golden Slumber

G----------|----------|----------|----------|----------|
D-4/7------|----------|----------|----------|-2/5------|
A----------|----------|-2/5------|----------|----------|
E----------|----------|----------|----------|----------|

G----------|----------|---TWO----|------4---|----------|
D------2---|-7--------|---BEAT---|-5-7----5-|----------|
A-3--------|------5---|-MEASURE--|----------|-3--------|
E----------|----------|----------|----------|----------|

G----------|----------|----------|----------|----------|
D----0h2h5-|-3-30h2h5-|----0h2h5-|----0h2h5-|-3-30h2h5-|
A-3-3-----3|---------3|-3-3-----3|-3-3-----3|---------3|
E----------|----------|----------|----------|----------|

G----------|----------|---TWO----|------4---|----------|
D----------|----------|---BEAT---|-5-7----5-|----------|
A-3-3--2-2-|------5---|-MEASURE--|----------|-3--------|
E----------|-5-5------|----------|----------|----------|

G----------|----------|----------|-7--------|----------|
D-5/7------|----------|----------|---------5|-5----5-5-|
A----------|----------|-5--------|--5---5/7-|----------|
E----------|-5--------|----------|----------|----------|

G----------|----------|-2-2-\7---|---TWO----|------4-7\|
D-5\-------|------2-2-|--------5-|---BEAT---|-5-7------|
A----------|-3-3------|----------|-MEASURE--|----------|
E----------|----------|----------|----------|----------|

G----------|
D----------|  To "Carry That Weight"
A-3--------|
E----------|

-----------------------------------------------------------------------------|
-----------------------------------------------------------------------------|

Carry That Weight

Chorus:
This rhythm comes up a few times. It's 1  &  2 e &  3  &  4 e &
G|---5--------------5------------|-----------------------------------------|
D|-------------5-------------5---|--5-------------5------------------------|
A|------3--5s7---------3--5s7----|----------2-5-----------2-5--------------|
E|-------------------------------|-----3--3----------3--3------------------|

G|------------------------------|-------------------------------|
D|----------2-5----------2-5----|----------2-5----------2-5-----|
A|--3--3--3------3--3--3--------|--3--3--3------3--3--3---------|
E|------------------------------|-------------------------------|

        Now repeat first the two measures WITHOUT the last measure

0:24
G|------------------|-------|----------------------|------|
D|--Quarter notes---|-5s7---|--5h7----------2--3--4|-5----|
A|---3---3---2---2--|-------|---------5------------|------|
E|------------------|-------|----------------------|------|
Guitar solo-->
G|----------------------5-|---------|-------------------------|-------|
D|--------------5---5-7---|---------|-----------------4--5--6-|-7-----|
A|-3---5-5s7--------------|-8-----8-|--------5--6--7----------|-------|
E|------------------------|---------|--7--8-------------------|----5\-|
  "I never..."
G|---------|-----------------|----------|-------------------5------|
D|-/7------|-5h7-----------7-|-5--------|------------5--5h7--------|
A|---------|------5--5-5h8---|----------|-3---5--7-----------------|
E|---------|-----------------|----------|--------------------------|
 "And in the ..."
G|----------|-----------------------|---------|--------------------------|
D|----------|----------------4--5--6|-7-------|-----5--------5-5-5-3-3---|
A|-8-----8--|-------5--6--7---------|---------|--------------------------|
E|----------|-7--8------------------|-------5-|--------------------------|

Now play the chorus

G|-----------|---------------|-------------|-----------------------------|
D|-----------|---------------|-------------|--7------7-------------------|
A|-3---2---2-|-0----0/12--12\|--3----2----2|-----------------------------|
E|-----------|---------------|-------------|-----------------------------|

-----------------------------------------------------------------------------|
-----------------------------------------------------------------------------|

The End


G--------------|-------------------------|       |
D--------------|-------------------------|-Drums-|
A---5-----7----|------4-5-6-7-9----7-5---|       |
E-5-----5------|-5---7-----------------5-|       |

G--------------|-------------------------|       |
D--------------|-------------------------|-Drums-|
A---5-----7----|------4-5-6-7-9----7-5---|       |
E-5-----5------|-5---7-----------------5-|       |

After Second Drum Solo Play (x14)
G-----------------|-----------------|
D-----------------|-----------------| End on A-note
A-----------3---3-|-5-5-5-5---5-5-3-|
E-5-5-5-5-5---5---|-----------------|

-----------------------------------------------------------------------------|
-----------------------------------------------------------------------------|

Her Majesty

D--0-----------------------------------------------------------5-5-5-|
A--5----5-4-2-0---0-5--0-2-4-5-4-2-0---0-0-0-2---2----5-5---2--------|
E---------------0--------------------0---------2---2------3----------|
                                       ^___^                   ^___^

D-----------------------|
A---5-2--0-5-2---0-5----|
E-------0------0-----5--|


possible version two:  octaves

G--7-----7-6-4-2---2-7--2-4-6-7---6-4-2---2-2-2-4---4---7-7---4----12-12-12--|
D--7-------------2----------------------2---------4---4-----5----------------|
A--5-----5-4-2-0---0-5--0-2-4-5---4-2-0---0-----2---2---5-5---2--10----------|
E----------------0----------------------0---------2---2-----3----------------|
                                          ^___^                  ^_________^

G--7-5---2-7-5---2-7---|
D------2-------2-------|
A--5-2---0-5-2---0-5---|
E------0-------0-----5-|


possible version three:   upper fretboard tapping

I know jack shit about tapping...
I've seen one friend do it and it blew my mind;  this is NOT the kind
where you tap with the right hand high on the fretboard and the left hand
low on the fretboard doing a counter line.  Stu Hamm I'm not, nor aspire
to be.   This is for fun.  And it helps if you keep your left index
finger across the 12th fret of both D and G strings to retain clarity and
harmonics

L=left hand    R=right hand

   R                                                      L
   L     R  R  R  L  L  L R     L R  R     R   R  R  L L  R
G--19---19-18-16-14----14-19---14-16-18----19-18-16-14----14--------|
D--12---------------14---------------------------------14-19-19-19--|
                                                          ^---------|

   R   R  R  R  R R   R  L   R          R  R L  L   R  R   L  L  R  R
G--16----16----19-19----16--24-24-24---19-16----14-19--16----14-19-----|
D-----16----16-------17----------------------14-----------14-------19--|
                            ^------------------------------------------|
3 comments total.
+1 reply
k00kie M0nster wrote on March 28 2008, 06:31 pm

shit man! that looks great must've taken ages.

+2 reply
SoftParade1967 wrote on May 8 2008, 07:45 pm

wheres she came in through the bathroom window? couldent tab it yourself?

Plus come togethers wrong.

+1 reply
R8:31b wrote on March 18 2009, 05:41 pm

theres a much better version of I want you (shes so heavy), come together is not the best, yeah and wheres She came in through the bathroom window??? played all the way to that song and was pissed when it wasnt there.
B+

I want to post or [tab]
guest
You may want to rate the tab now too:
select rating
Please do not post tabs as comments. Select "correction" instead!