Oops, an error
Loading. Please wait.

Abbey Road Tab

ver1
ver1

Album

More versions @911Tabs.com
223,821 views 261 this week
11 commentsread comments
1 2 3 4 5
accurate
x 18
add to favorites launch autoscroll
font size
0
reset
Autoscroll
+/-
esc
set tempo
stop
Contributor
WARNING: You are trying to view
                                    content from Ultimate-Guitar.com
                                    in an unauthorized application,
                                    which is prohibited.

                                    Please use an official Ultimate
                                    Guitar Tabs application for iPhone,
                                    iPad or Android to access legitimate
                                    chords, guitar, bass, and drum tabs
                                    from Ultimate-Guitar.com database.

                                    Type "ultimate guitar tabs" in Apple
                                    App Store's or Android Market's
                                    search to find the application.
Abbey Road
Album


1. Come Together
2. Something
3. Maxwell's Silver Hammer
4. Oh! Darling
5. Octopus's Garden
6. I Want You (She's So Heavy)
7. Here Comes The Sun
8. Because
9. You Never Give Me Your Money
10. Sunk King
11. Mean Mr Mustard
12. Polythene Pam
13. She Came In Through The Bathroom Window
14. Goldern Slumbers
15. Carry That Weight
16. The End
17. Her Majesty


===========================================================================

Come Together


e--------------------------------|
B--------------------------------|
G--------------10----------------|
D-0--0---------10--12------------|    thats the first rif for the whole song
A-------10/12--------------------|
E--------------------------------|

now this is the D boogie
e---------------------------|
B---------------------------|
G---------------------------|
D-7--7--9--9----------------|        note:all chords are down strums
A-5--5--5--5----------------|
E---------------------------|

other chords

A 57xxxx
g#46xxxx i think
g 35xxxx
Bm7997xx

         verse
D boogie
here come old flat top, he come grooving up slowly,
D boogie
he got joo joo eyeball, he one Holy roller
       A                        g#
he got hair down to his knee          ****
G {strum only once at 1/8 of note}
got to be a joker he just do what he please


****
e--------------|
B--------------|
G--------------|
D--------------|    do this right after   cool
A--7--6--6--5--|
E--5--4--4--3--|

chorus
     Bm              G
come together, right now,  over me

riff

here come old flat top, he come grooving up slowly
he got joo joo eyeball, he one Holy roller
he got hair down to his knee
got to be a joker he just do what he please

riff

he wair no shoe shine he got toe jam football
he got monkey finger he shoot co-ca cola
he say i know you, you know me
one thing i can tell you is you got to be free

chorus

he bag big production he got wal-rus gumboot
he got O-no sideboard he one spinal cracker
he got feet down below his knee
hold you in his armchair you can feel his disease

chorus

he roller coaster he got early warning
he got muddy water he one Mo-jo filter
he say one and one and one is three
got to be good looking cause he so hard to see

chorus

   1/4bend    full bend
e----------------------|
B--13b-13-10--13b------|
G----------------------|
D----------------------|          played at end while singing "come together"
A----------------------|        at full bend cool
E----------------------|


                          **********************
late chexmix adress atop donations acepeted

p.s its nomal tooning

e aster         transcribed by darrin morris
B unnys
G et
D runk
A t
E aster  late chexmix


-----------------------------------------------------------

		Come Together - Beatles

Chords Used

Dm  		A7		G7		Bm		G
000231       	002223		320001		000432		320003

The riff that they use in the song goes something like this

------------1--------------|
-------H----1--3-----------|
------0--2-----------------|
0--0-----------------------|
---------------------------|
---------------------------|

Dm
Here come old flat top, He come grooving up slowly,

Dm
He got Joo Joo eyeball, He one holy roller

	A7
He got  Hair down to his knee;

G7
Got to be a joker, he just do what he please.


			 (Riff)

Dm
He wear no shoe shine, he got toe jam football

Dm
He got monkey finger, he shoot co-ca cola

        A7
He say, "I know you, you know me."

G7
One thing I can tell you is you got to be free

     Bm              G
Come Together, Right now, over me

			 (Riff)

Dm
He bag production, He got wal-rus gumboot

Dm
He got O-no sideboard, He one spinal cracker

       A7
He got feet down below his knee

G7
Hold you in his armchair, you can feel his disease

     Bm              G
Come together, right now,  over me

			 (Riff)

Dm
He roller coaster, he got early warning

Dm
He got muddy water, He one Mo-jo filter

        A7
He say, " One and one and one is three."

G7
Got to be good looking 'cause he so hard to see

     Bm
Come together, Right now, over me


===========================================================================

SOMETHING


Riff 1:
    F                Eb  G   C
|--------------------------------|
|--10--b(13)12--10--11--12--13---|
|--------------------------------|
|--------------------------------|
|--------------------------------|
|--------------------------------|


C                          Cmaj7
  Something in the way she moves
C7                            F
  Attracts me like no other lover
    D                       G
  Something in the way she woos me
     Am                    G#dim7
  I don't want to leave her now
       Am7              D/F#    F  Eb  G  C
  You know I believe in how  (riff 1)


C                            Cmaj7
  Somewhere in her smile she knows
C7                            F
  That I don't need no other lover
   D                           G
  Something in her style that shows me               [Riff 2:]
    Am                     G#dim7             F                Eb  G   A
  I don't want to leave her now            |-----------------------------|
      Am7               D/F#  F Eb G A     |-10--b(13)12--10--11--12--14-|
  You know I believe in how   (riff 2)     |-----------------------------|
                                           |-----------------------------|
                                           |-----------------------------|
                                           |-----------------------------|

  A         C#m/G#             F#m
You're asking me will my love grow
A/E          D     G        A  (Bass line: G#  G  F#  F  E)
   I don't know   I don't know
 A        C#m/G#             F#m
You stick around and it may show
A/E         D     G        C   (Bass line: B  A  G  E  D)
   I don't know   I don't know

[Solo: see below]
C  Cmaj7  C7  F  D  G
Am  G#dim7  Am7  D/F#
F  Eb  G


C                        Cmaj7
  Something in the way she knows
C7                         F
  And all I have to do is think of her
   D                           G
  Something in the things she shows me
     Am                    G#dim7
  I don't want to leave her now
       Am7               D    F Eb G A   F Eb G C
  You know I believe in how  (riff 3)


[riff 3:]

   F                Eb  G   A                F                Eb  G   C
|---------------------------------16-15-14-------------------------------|
|-10--b(13)12--10--11--12--14--14-----------10--b(13)12--10--11--12--13--|
|------------------------------------------------------------------------|
|------------------------------------------------------------------------|
|------------------------------------------------------------------------|
|------------------------------------------------------------------------|

[solo:]

  C        Cmaj7                      C7
|-------------------------------------------------------------8----|
|-------8----------8b(10)-b(10)8-------------8--10--8---8/10-------|
|--7/9-----9--7/9----------------9------7/9------------------------|
|------------------------------------------------------------------|
|------------------------------------------------------------------|
|------------------------------------------------------------------|

              F                                     D
|--8--10--b(12)10--8-------------8--8\-----------------------------|
|---------------------10-----/10--------------8--8-----------------|
|-----------------------------------------/9--------\2---4\2-------|
|------------------------------------------------------------------|
|------------------------------------------------------------------|
|------------------------------------------------------------------|

                         G
|-------------------------------------------------9-8-7--/12-11-10-|
|-------7--7--b(11)10--10b(11)10 10b(11)10--8---8------------------|
|--2/7-------------------------------------------------------------|
|------------------------------------------------------------------|
|------------------------------------------------------------------|
|------------------------------------------------------------------|

   Am                 G#dim7                   Am7
|------------------------------------------------------------------|
|------------------------------------------------------------------|
|-----b(9)7--b(9)7--5----b(9)7-b(9)7-b(9)7--5-- b(9)7--b(9)7--5----|
|------------------------------------------------------------------|
|------------------------------------------------------------------|
|------------------------------------------------------------------|

              D                  F               Eb  G   C
|----------10/12--10--8--10--8-------------------------------------|
|-------8-----------------------10--b(13)12--10--11--12--13--------|
|--7/9-------------------------------------------------------------|
|------------------------------------------------------------------|
|------------------------------------------------------------------|
|------------------------------------------------------------------|

-----------------------------------------------------------------------

  G#dim7     This chord is basically an Am with a G# bass.
   ---       Guess you could think of it as an A minor major 7th.
   -5-
   -5-
   -6-
   -7-
   -5-

===========================================================================


MAXWELL'S SILVER HAMMER


   D        D/C#       B7                   Em
Joan was quizzical, studied pataphysical science in the home,
 A7                                     D        A
late nights all alone with a test tube, oh oh oh oh.
  D      D/C#      B7                  Em
Maxwell Edison, majoring in medicine, calls her on the phone.
 A7                                  D       A
"Can I take you out to the pictures, Jo-o-o-oan?"
     E7                               A7
But, as she's getting ready to go, a knock comes from the door.


[chorus: note that the guitar solo plays behind the chorus each time]

  D                                       E7
Bang! Bang! Maxwell's silver hammer came down upon her head.
 A7                                         Em       A7       D   A   D
Clang! Clang! Maxwell's silver hammer made sure that she was dead.


D  F#/C#  Bm  D7  G   D  A  D


  D      D/C#           B7                            Em
Back in school again, Maxwell plays the fool again, teacher gets annoyed.
 A7                             D       A  (riff 2: see below)
Wishing to avoid an unpleasant sce-e-e-ene.
 D        D/C#         B7                           Em
She tells Max to stay when the class has gone away, so he waits behind.
 A7                                D      A
Writing fifty times "I must not be so-o-o-o."
      E7                                      A7
But, when she turns her back on the boy, he creeps up from behind.


 D                                        E7
Bang! Bang! Maxwell's silver hammer came down upon her head.
 A7                                         Em                A7
Clang! Clang! Maxwell's silver hammer made sure that she was dead.


(guitar solo: see below)
D   E7   A7   Em A7 D  A  D

D  F#/C#  Bm  D7  G   D  A  D

 D     D/C#     B7                                 Em
P.C. thirtyone said "We've caught a dirty one.", Maxwell stands alone.
 A7                            D           A  (riff 2)
Painting testimonial pictures, oh, oh, oh, oh.
 D        D/C#       B7                       Em
Rose and Valerie, screaming from the gallery, say he must go free.
     A7                                    D      A
The judge does not agree and he tells them so-o-o-o.
     E7                                    A7
But, as the words are leaving his lips, a noise comes from behind.


 D                                        E7
Bang! Bang! Maxwell's silver hammer came down upon her head.
 A7                                         Em               A7
Clang! Clang! Maxwell's silver hammer made sure that he was dead.

(repeat solo)
D  E7  A7  Em A7 D  A  D

D  F#/C#  Bm  D7   G   D  A  D
Sil-ver   Ham-mer man!

-------------------------------------------------
riff 2:

|--5----5-----3--2--|
|--5h3--3p5---3--3--|
|-------------------|
|-------------------|
|-------------------|
|-------------------|


solo: this is TWO guitars!

guitar 1:
|---------5--------------------------------------------12-|
|--7--7---7-----------------7--9---5h7--5-----10--12------|
|--7--7------7/9--7-----9---------------------------------|
|--------------------9------------------------------------|
|---------------------------------------------------------|
|---------------------------------------------------------|

guitar 2:
|---------------------------------------------------------|
|------------------------------------------------------10-|
|--7------7--------------------9--------------9---9-------|
|-----7------7/9--7---------9------9h11--9----------------|
|--------------------9--11--------------------------------|
|---------------------------------------------------------|

guitar 1:
--9h10--9-------3----3----3----3----2-----10\------------|
-----------8----5----5----5----5----3-----10\------------|
---------------------------------------------------------|
---------------------------------------------------------|
---------------------------------------------------------|
---------------------------------------------------------|

guitar 2:
---------------------------------------------------------|
--10---10---------------------------------7\-------------|
----------------7h9---7--b(11)9-7h9--7-------------------|
---------------------------------------------------------|
---------------------------------------------------------|
---------------------------------------------------------|

-------------------------------------------

Maxwell's Silver Hammer

[D]Joan was quizzical, [B7]studied pataphysical [Em]science in the home,
[A7]late night all alone with a test tube, [D]oh, oh, oh, [A]oh.
[D]Maxwell Edison, [B7]majoring in medicine, [Em]calls her on the phone.
[A7]Can I take you out to the pictures, [D]Jo-o-o-o[A]an?
But, [E7]as she's getting ready to go, a [A7]knock comes from the door:

{soc}
[D]Bang! Bang! Maxwell's silver hammer came [E7]down upon her head.
[A7]Clang! Clang! Maxwell's silver hammer made [Em]sure that [A7]she was [D]dead.
{eoc}

Back in school again, Maxwell plays the fool again, teacher gets annoyed.
Wishing to avoid an unpleasant sce-e-e-ene.
She tells Max to stay when the class has gone away,
so he waits behind. Writing fifty times "I must not be so-o-o-o.
But, when she turns her back on the boy, he creeps up from behind:

{c:Chorus}

P.C. thirtyone said "We've caught a dirty one.", Maxwell stands alone.
Painting testimonial pictures, oh, oh, oh, oh.
Rose and Valerie, screaming from the gallery, say he must go free.
The judge does not agree. And he tells them so-o-o-o.
But, as the words are leaving his lips, a noise came from behind:

{c:Chorus}

===========================================================================

                                "Oh! Darling"


Chords used:
    E+     A      E     F#m     D     Bm7    E7     A7     F7     B7     Bb7
e --o--  --o--  --o--  --2--  --2--  --2--  --o--  --o--  --1--  --2--  --4--
B --1--  --2--  --o--  --2--  --3--  --3--  --o--  --2--  --1--  --o--  --3--
G --1--  --2--  --1--  --2--  --2--  --2--  --1--  --o--  --2--  --2--  --3--
D --2--  --2--  --2--  --4--  --o--  --2--  --o--  --2--  --1--  --1--  --3--
A --x--  --0--  --2--  --x--  --x--  --2--  --2--  --o--  --x--  --2--  --x--
E --x--  --x--  --o--  --x--  --x--  --x--  --o--  --x--  --x--  --x--  --x--


Verse:
E+    A                E
Oh___ darling please believe me
F#m                  D
I'll never do you no harm
   Bm7                  E7
Be-lieve me when I tell you
Bm7        E7        A
I'll never do you no harm

Interlude:

A-D-A-E

E     A              E
Oh___ darling if you leave me
F#m                 D
I'll never make it alone
Bm7                   E7
Believe me when I beg you
Bm7                  A
Don't ever leave me alone

Interlude:

A-D-A-A7

Chorus:
A7       D                  F7
When you told me you didn't need me anymore
A
Well you know I nearly broke down and cried
         B7
When you told me you didn't need me anymore
         E7            F7(5)         E7   E+
Well you know I nearly fell down and died___

E+ A              E
Oh darling if you leave me
F#m                 D
I'll never make it alone
  Bm7                  E7
Believe me when I tell you
Bm7        E7        A
I'll never do you no harm

Interlude:

A-D-A-A7
    (Spoken) Belive me, darling

(repeat chorus)

E+ A                E
Oh darling please believe me
F#m                D
I'll never let you down

(spoken) oh believe me darling
Bm7                    E7
Believe me when I tell you
Bm7        E7        A
I'll never do you no harm

End:

A-D-A-Bb7-A7

Notes: For the interludes, listen to the CD and you will easily get the
       rhythm and hear how to play it. The end is exactly the same, except
       you add the Bb7-A7 "goodbye" bit. Just hit these chords once. Again,
       listen to the CD and you can't miss it.

       If you are having troubles with the chords (as some new guitar players
       surely will) you can simplify them by using barre chords (since they
       are all standard form). It will not sound nearly as good, but that's
       just a suggestion. Don't let chords like Bm7 or F#m sound hard. They
       aren't.


===========================================================================

Octopus's Garden


INTRO:

|----------------------------------------------------|
|--------------------12----14\12---------------------|
|---------9h11/13------------------13\11---9---11b---|
|--9h11----------------------------------------------|
|----------------------------------------------------|
|----------------------------------------------------|

|-----------------12---------------------------------|
|---------------------14p12----------------------14--|
|--------9h11/13-------------13\11--9--11-12-13------|
|--9h11--------------------------------11-13-14------|
|----------------------------------------------------|
|----------------------------------------------------|

|----------------------------------------------------|
|----------------------------------------------------|
|--13\11--9--9---11p9--------------------------------|
|----------------------11p9--------------------------|
|----------------------------11p9--7--7--9-----------|
|-------------------------------------------7-7-7-7--|


VERSE:

   (E)                              (C#m)
||--0-------------|--0-------------|--4-------------|--4-------------|
||-----------0----|-----------0----|-----------5----|-----------5----|
||-------1--------|-------1--------|-------6--------|-------6--------|
||-----2-------2--|-----2-------2--|-----6-------6--|-----6-------6--|
||--2------2------|--2------2------|--4------4------|--4------4------|
||----------------|----------------|----------------|----------------|

  (A)                               (B)
|--5-------------|--5-------------|--2-------------|--2-------------||
|-----------5----|-----------5----|-----------4----|-----------4----||
|-------6--------|-------6--------|-------4--------|-------4--------||
|-----7-------7--|-----7-------7--|-----4-------4--|-----4-------4--||
|--7------7------|--7------7------|--2------2------|--2------2------||
|----------------|----------------|----------------|----------------||

The following chords are played during, "I'd ask my friends..."

C#m B A B

E C#m A B E

SOLO:

|---------------------14-------------------------------------------|
|-----------12-------------------------------------17--17--17------|
|--11/13--------16b--------16br---14--14----16/18------------------|
|------------------------------------------------------------------|
|------------------------------------------------------------------|
|------------------------------------------------------------------|

|---------------------------------19b--17-17---19b--17-17----------|
|---------17-17-17---------17-17--------------------------17-17----|
|--16/18------------16/18------------------------------------------|
|------------------------------------------------------------------|
|------------------------------------------------------------------|
|------------------------------------------------------------------|

|---------------------------------14-------------------------------|
|--17--17br----------------------------------------------17-17-17--|
|-------------14---------14--16b------16--14--16---16/18-----------|
|-----------------14h16--------------------------------------------|
|------------------------------------------------------------------|
|------------------------------------------------------------------|

|---------------------------------19b--19b--19br--17--17--19--17---|
|---------17-17-17---------17-17-----------------------------------|
|--16/18------------16/18------------------------------------------|
|------------------------------------------------------------------|
|------------------------------------------------------------------|
|------------------------------------------------------------------|

The chords below are played during, "In an octopus's garden with you."

A B C#m
A B C#m
A B E

The riff below is played over that last E chord.

|---14br--12----------------------------|
|-------------14--12--------------------|
|---------------------13\11--9h11--11b--|
|---------------------------------------|
|---------------------------------------|
|---------------------------------------|

CHORDS

E: 022100
C#m: 446654
A: 577655
B: 224442


-------------------------------------------------

OCTOPUS'S GARDEN


 [intro]
	B E
	B A B
	E C#m A B

      E               C#m
	I'd like to be   under the sea
	       A                        B
	In an Octopus's Garden in the shade.

      E              C#m
	He'd let us in   knows where we've been,
	        A                        B
	In his Octopus's Garden in the shade.
      C#m
	I'd ask my friends to come and see
      A                B
	An Octopus's Garden with me.

      E               C#m
	I'd like to be   under the sea
	       A                        B
	In an Octopus's Garden in the shade.


      E                 C#m
	We would be warm   below the storm
                 A                           B
	In our little hideaway beneath the waves.
      E                 C#m
	Resting our head   on the sea bed
	       A                       B
	In an Octopus's Garden near a cave.
      C#m
	We would sing and dance around
      A                     B
	Because we know we can't be found.

      E               C#m
	I'd like to be   under the sea
	       A                        B
	In an Octopus's Garden in the shade.


	[Solo]
	A F#m D   E
	A F#m D E A B


      E               C#m
	We would shout   and swim about
      A                                  B
	The coral that lies beneath the waves.
      E                   C#m
	Oh, what joy for every girl and boy
      A                                    B
	Knowing they're happy and they're safe.
      C#m
	We would be so happy, you and me.
      A                                 B
	No one there to tell us what to do.

      E               C#m
	I'd like to be   under the sea
               A          B	    C#m
	In an Octopus's Garden with you,
	       A          B	    C#m
	In an Octopus's Garden with you,
	       A          B	     E   B   E
	In an Octopus's Garden with you.

 ===========================================================================

I Want You (She's So Heavy)


|Dm               |E7-9    Bb     |

A+           F        Am
               I want you      I want you so bad    I want you
Am                      Dm7        F        G       G#+  Am    Am7
I want you so bad  it's driving me mad it's driving me   mad
       Dm   Dm7                                           Dm
I want you      You know I want you so bad babe.   I want you
                                C          Bb                   E7-9
You know I want you so bad it's driving me mad it's driving me  mad

E7-9 = xx0101
A+ = xx3221
G#+ = xx2110
--------------------------------------------------
I Want You (She's So Heavy)
The Beatles

   |-------------------------|-------------6-----6-----|   |-------5-----|
   |---------------------3---|-0-------3---------6---6-|   |-----6-6-----|
12 |-------------------2---2-|-1-----4---4-----7---7---| 6 |---6-6-6-----|
-- |-0---0-3-0-------0-3-0---|-----0-3-----8-8-------7-| - |-7---7-7-----|
8  |---0-------0---0---------|---2---------------------| 8 |-------------|
   |-------------1-----------|-------------------------|   |-------------|
     |_|_| |_|_| |_|_| |_|_|   |_|_| |_|_| |_|_| |_|_|       |_|_| |.

   |-------------------------|-------------------------|   |-------------|
12 |-------------------------|-------3-----------------| 6 |-------------|
-- |-5---------------------0-|---------3-2-1-----1-3-5-| - |-0-----0-----|
8  |-------0-----1-----3-----|-0-----------------------| 8 |-------------|
     |.    |.    |.    |  _|   |.    |_|_| |.    |_|_|       |.    |.

  |---------|   ||---------------|--------------------|-----------------|
  |---------|   ||---------------|------------------6-|-----------------|
2 |-----5---| 4 ||o-7(9)---------|---------5----7-----|-7-5-----5---7---|
- |---7-----| - ||o--------------|-------7------------|-----7-----------|
4 |---------| 4 ||---------------|--------------------|-----------------|
  |---------|   ||---------------|--------------------|-----------------|
    ;_| |           |              ; ; ;_| |____|   |   |_| |   |   |
      I want        you                  I want you so  bad
  |---------|   ||---------------|--------------------|-----------------|
2 |---------| 4 ||o--------2-0---|--------------------|------------2-0--|
- |---------| - ||o-0----------3-|-0------------------|-0--------------3|
4 |---------| 4 ||---------------|------------------0-|-----------------|
                    d.     |=|_|   d.               |   d.         |=|_|

|-------------------|-------------------------|----------------------------|
|-------------------|-------------------------|----------------------------|
|-------------5-----|-7(8)(7)(8)(7)(8)(7)p5\2-|-------------5----7---7(8)--|
|-----------7-------|-------------------------|-----------7----------------|
|-------------------|-------------------------|----------------------------|
|-------------------|-------------------------|----------------------------|
  ; ; ; ; ;_| |       |_|__|__|  |__|__|==|_|   ; ; ; ; ;_| |____|___|_|
            I want    you                                 I want you so
|-------------------|-------------------------|----------------------------|
|-------------2-0---|-------------------------|----------------------2-0---|
|-0---------------3-|-0-----------------------|-0---0--------------------3-|
|-------------------|------------------0------|----------------------------|
  d.          |=|_|   d.               |        |   |   ; ; ;    ;   |=|_|

|-----------------|-------------------|-------------------|----------------|
|-----------------|-------------------|-------------------|----------------|
|-7-5-----5-------|-------------------|-------------------|----------------|
|-----7-------7---|-5------5--7---5---|-------------------|----------------|
|-----------------|---7---------------|-7-5----3--0-------|----------------|
|-----------------|-------------------|-------------------|----------------|
  |_| |   |   |     |_|    |  |   |     |_|    |  d
  bad         it's driving me mad it's driving me mad
|-----------------|-------------------|-------------------|----------------|
|-----------------|-0-----------------|-------------------|----------------|
|-0-------3-------|-------------------|-----------0-----0-|-0-------0----3-|
|-----------------|-----------1-------|-3------4----------|----------------|
  d       d         d         d         |      |  |.   _|   d       |.  _|

  |--------|   |-------------|---------------------------|---------------------|
  |------6-|   |-8(10)-------|--------------------8--10--|-8-------------10----|
2 |---7----| 4 |-------------|---7---7-----7-10----------|---10-7---10---------|
- |--------| - |-------------|---------------------------|---------------------|
4 |--------| 4 |-------------|---------------------------|---------------------|
  |--------|   |-------------|---------------------------|---------------------|
    ;_|  |       |             ;_|   |_____| |____|   |    |__| |    |    |
       I want    you            (You know) I want you so   bad            babe
  |--------|   |-------------|---------------------------|---------------------|
2 |--------| 4 |-------------|-0-0---0-------------------|-0---------0---------|
- |(3)-0-4-| - |-0-----0---0-|--------------------5---3-0|----------------5p3p0|
4 |--------| 4 |-------------|---------------------------|---------------------|
    |__| |       d     |   |   |_|   |       ;   _|   |_|  d         |    |=|_|

|------------------|---------------------------|-------------------------|
|------------6-----|-8(10)(8)(10)(8)(10)(8)--6-|------------------8---10-|
|----------7-------|---------------------------|---7---7-----7-10--------|
|------------------|---------------------------|-------------------------|
|------------------|---------------------------|-------------------------|
|------------------|---------------------------|-------------------------|
          _| |       |__|__|__|   |__|___|___|   ;_|   |_____| |____|   |
           I want    you                          (You know) I want you so
|------------------|---------------------------|-------------------------|
|-0------3-0-------|-0------------0------------|-0-----------5----3---0--|
|------------3-0---|---------------------3p0---|-------------------------|
|----------------3-|-------------------------0-|-------------------------|
  d      |_| |=|_|   d            |      |=|_|   d           |____|   |

|----------------|-------------------|   |-----------|   |-----------------|
|-8-6-----6------|-------------------|   |-----------|   |-0---6-6-6-6---6-|
|-----7-------7--|-5-------5--7---5--| 2 |-----------| 4 |-----7-7-7-7---7-|
|----------------|----7--------------| - |-5--6----7-| - |-2---6-6-6-6---6-|
|----------------|-------------------| 4 |-----------| 4 |-----7-7-7-7---7-|
|----------------|-------------------|   |-----------|   |-----------------|
  |_| |   |   |    |__|    |  |   |        |__|____|       |   |_| |_| ;_|
  bad         it's driving me mad it's     driving me      mad
|----------------|-------------------|   |-----------|   |-----------------|
|-0--------------|-------------------| 2 |-0--0----2-| 4 |-----------------|
|----------------|-3----------1------| - |-----------| - |-----------------|
|---------1------|-------------------| 4 |-----------| 4 |-0-0-0-0-0-0-0-0-|
  d       d        d          d            |__|____|       |_|_|_| |_|_|_|


                                          +-----------------|
                                          | 1               |
                                          |                 |
|-----------------------|-----------------|-----------------||
|-6-6-------------------|-----6-6-6-6-6-6-|-6---------------||
|-7-7-------------------|-----7-7-7-7-7-7-|-7-----------5--o||
|-6-6-------------------|-----6-6-6-6-6-6-|-6---------7----o||
|-7-7-------------------|-----7-7-7-7-7-7-|-7---------------||
|-----------------------|-----------------|-----------------||
  |_|                     ; ; |_| |_|_|_|   |   ; ; ;_| |
                                                      I want
|-----------------------|-----------------|-----------------||
|-----------------------|-----------------|----------------o||
|-------------7-(7)-5---|-----------------|----------------o||
|-0-4-2-1-0-7---------5-|-0-0-0-0-0-0-0-0-|-0---------------||
  |_|_|_| |_|=|  |==|_|   |_|_|_| |_|_|_|   d


+-----------------
| 2,3
|
|-----------------|    |-------------------------|-------------4--4--------|
|-6---------------|    |-------------------------|---------3-0-3--3--------|
|-7------5-----7--| 12 |-------------------------|-------------3--3--------|
|-6---------------| -- |-0---0-3-0-------0-3-0---|-----0-3-----3--3--------|
|-7---------------| 8  |---0-------0---0-------0-|---2---------------------|
|-----------------|    |-------------1-----------|-4-----------------------|
  |  ; ; |     |         |_|_| |_|_| |_|_| |_|_|   |_|_| |_|_| | _|  ; ; ;
         She's so                                              heavy
|-----------------|    |-------------------------|-------------------------|
|-----------------| 12 |-0-----------------------|-----------------------0-|
|-----------------| -- |-----------------------0-|---------3-2-1---3-1-3---|
|-0---------------| 8  |-------0-----1-----3-----|-0----(0)----------------|
  d                      |.    |.    |.    |  _|   |.    |_|_| |  _| |_|_|

  |-1---------------|    |-5-5---------5-5--(5)----|-7------------------------|
  |-2---------------|    |-6-6---6-6---6-6--(6)----|-9-9-9--------------------|
6 |-2---------------| 12 |-7---7-7---7-5-5-5-5-5-5-|-7-7-7--------------------|
- |-3---------------| -- |---7-----7---7-7-7-7-7-7-|-9-9-9-----------0-3--0---|
8 |-----------------| 8  |-------------5-5---------|-7-----7------------------|
  |-----------------|    |-------------------------|---------8-7-6-6--------4-|
    d                      |_|_| |_|_| |_|_| |_|_|   |_|_| |_|_| |_|_| |__|_|
            She's so       heavy heavy heavy
  |-----------------|    |-------------------------|--------------------------|
6 |---------------3-| 12 |-0-----------------------|------------------------0-|
- |-0-0-4-0-4-------| -- |-----------------------0-|---------3-2-1----(1)-3---|
8 |-----------------| 8  |-------0-----1-----3-----|-0----(0)-----------------|
    |_|_| |_|_____|        |.    |.    |.    |  _|   |.    |_|_| |.    |__|_|

  |------------|   |----------||
  |-2-----2----|   |----------||
6 |-2-----2----| 2 |-----5---o||
- |-2-----3----| - |---7-----o||
8 |-0-0-4-0----| 4 |----------||
  |------------|   |----------||
    |_|_| |.         ;_| |
                       I want
  |------------|   |----------||
6 |-----2------| 2 |---------o||
- |-0-4---0----| - |---------o||
8 |------------| 4 |----------||
    |_|_| |.

===========================================================================

Here Comes the Sun


     A
E||------9-------7---9----------|
B||------10--10--10--10-----10--|
G||------9------------------9---|
D||------7---------------7------|
A||-----------------------------|
E||-----------------------------|


                       D
-------9--7----------------|-----------7---------------|
----------------10-----7---|----10-----------10--------|
----------------9------7---|-----------------7---------|
----7--------7---------7---|--------7-----7------7--7--|
--------------------7--9---|--------9-----9------9-----|
--------------------7--10--|---------------------------|


  E7    E7sus4    E7          A
------------------7--------|-------9-------7---9----------|
--9--7--9--10-----9-----9--|-------10--10--10--10-----10--|
--7--7--7--7------7--------|--9-----------------------9---|
--9-----9------9-----9-----|--7--------------------7------|
--7-----7------7-----------|------------------------------|
---------------------------|------------------------------|


                         D                            E7
-------9---7-----------------|----9------7---------------|
-------10--10-----10-----7---|-----------------10-----9--|
----9-------------9------7---|------------------------7--|
---------------7---------7---|------------------------9--|
----------------------7--9---|--------------9------7--7--|
----------------------7--10--|-------10------------7--7--|


                     A
------------------|------9---7-----9---------|
------------------|------10--10----10----10--|
------------------|------9---------------9---|
------------------|--------------------------|
------------------|--------------------------|
------------------|--------------------------|


                                D
-------9-------7---9---------|--------9--7-----9---------|
-------10--10--10--10-----7--|--------7--7-----7-----10--|
----9---------------------7--|--------7------------------|
-----------------------7-----|--------------7------------|
-----------------------------|--------------9-----7------|
-----------------------------|--10----------------7------|


  B7                      A
-----------------------|-----9------7--------------|
-----------------------|-----10-----10----10-------|
--8--8--8----8----8----|--9---------------------9/-|
--9--9--9----9----9----|--7------7-----------------|
--9--9--9----9----9----|---------------------------|
--7-----7----7----7----|---------------------------|


  N.C.
----------7---------7---------|
------10--------10--------10--|
--11---------9---------7------|
------------------------------|
------------------------------|
------------------------------|


                                A
--7---------7----------------|-------9-------7---9---------|
--------10-----10p-9---------|-------10--10--10--10----10--|
-----9----------------11p-9--|--9----------------------9---|
-----------------------------|--7--------------------------|
-----------------------------|-----------------------------|
-----------------------------|-----------------------------|


                       D
-------9---7--------------|-------------7---------------|
-------10--10----10----7--|------10-----------10-----7--|
----9------------9-----7--|------7------------7------7--|
-----------------------7--|----------7-----7------7-----|
--------------------------|--9-------9-----9------9-----|
--------------------------|--10-------------------------|


  E7       E7sus4E7          A
-----------------7--------|-------9-------7---9---------|
--9--7--9--10----9-----9--|-------10--10--10--10----10--|
--7-----7--7-----7--------|--9----------------------9---|
--9-----9-----------------|--7--------------------------|
--7-----------------7-----|-----------------------------|
--------------------------|-----------------------------|


                       D                        E7
-------9---7--------------|------9--7--------------|
-------10--10----10----7--|------7--7----10-----9--|
----9------------9-----7--|------7-------7---7--7--|
-----------------------7--|------------------7--9--|
--------------------------|------------------9--7--|
--------------------------|------------------------|


               E7sus4        A
--------------------------|-------9---7-----9---------|
----7--9-------10-----10--|-------10--10----10----10--|
----7--7----7--7---7--7---|--9----9---------------9---|
-------9----9------9------|--7------------------------|
-------7----7------7------|---------------------------|
--------------------------|---------------------------|


                                D
-------9-------7---9---------|--------9--7-----9---------|
-------10--10--10--10-----7--|--------7--7-----7-----10--|
----9---------------------7--|--------7------------------|
-----------------------7-----|--------------7------------|
-----------------------------|--------------9-----7------|
-----------------------------|--10----------------7------|


  B7                      A
-----------------------|-----9------7--------------|
-----------------------|-----10-----10----10-------|
--8--8--8----8----8----|--9---------------------9h-|
--9--9--9----9----9----|--7------7-----------------|
--9--9--9----9----9----|---------------------------|
--7-----7----7----7----|---------------------------|


  N.C.
----------7---------7---------|
------10--------10--------10--|
--11---------9---------7------|
------------------------------|
------------------------------|
------------------------------|


                                A
--7---------7----------------|-------9-------7---9--------|
--------10-----10p-9---------|-------10--10--10--10----7--|
-----9----------------11p-9--|--9----9-----------------7--|
-----------------------------|--7-------------------------|
-----------------------------|----------------------------|
-----------------------------|----------------------------|


  E7       E7sus4E7        A
-----------------7------|-------9-------7---9---------|
--9--7--9--10----9------|-------10--10--10--10----10--|
--7--7--7--------7------|--9----------------------9---|
--9-----9---------------|--7--------------------------|
--7-----7---------------|-----------------------------|
------------------------|-----------------------------|


                       D
-------9---7--------------|-------------7---------------|
-------10--10----10----7--|------10-----------10-----7--|
----9------------9-----7--|------7------------7------7--|
-----------------------7--|----------7-----7------7-----|
--------------------------|--9-------9-----9------9-----|
--------------------------|--10-------------------------|


  E7       E7sus4E7          A
-----------------7--------|-------9-------7---9---------|
--9--7--9--10----9-----9--|-------10--10--10--10----10--|
--7-----7--7-----7--------|--9----------------------9---|
--9-----9-----------------|--7--------------------------|
--7-----------------7-----|-----------------------------|
--------------------------|-----------------------------|


                       D                             E7
-------9---7--------------|------9------7---------------|
-------10--10----10----7--|-------------------10-----9--|
----9------------9-----7--|--------------------------7--|
-----------------------7--|--------------------------9--|
--------------------------|--9-------------9------7--7--|
--------------------------|--10-----10------------7--7--|


               E7sus4        A
--------------------------|-------9---7-----9---------|
-------9-------10-----10--|-------10--10----10----10--|
-------7----7--7---7--7---|--9----9---------------9---|
----9--9----9------9------|--7------------------------|
----7--7----7------7------|---------------------------|
--------------------------|---------------------------|


                                D
-------9-------7---9---------|--------9--7-----9---------|
-------10--10--10--10-----7--|--------7--7-----7-----10--|
----9---------------------7--|--------7------------------|
-----------------------7-----|--------------7------------|
-----------------------------|--------------9-----7------|
-----------------------------|--10----------------7------|


  B7                      A
-----------------------|-----9------7--------------|
-----------------------|-----10-----10----10-------|
--8--8--8----8----8----|--9---------------------9h-|
--9--9--9----9----9----|--7------7-----------------|
--9--9--9----9----9----|---------------------------|
--7-----7----7----7----|---------------------------|


  N.C.
----------7---------7---------|
------10--------10--------10--|
--11---------9---------7------|
------------------------------|
------------------------------|
------------------------------|


                                A
--7---------7----------------|-------9-------7---9---------|
--------10-----10p-9---------|-------10--10--10--10-----7--|
-----9----------------11p-9--|--9----9---------------9--7--|
-----------------------------|--7--------------------7-----|
-----------------------------|-----------------------------|
-----------------------------|-----------------------------|


  E7                              (G)
--7------------------|----------------------|
--9------------------|---------8------------|
--7------------------|------9------------7--|
--9---------------9--|--10------------9-----|
--7--------7--11-----|------------10--------|
---------------------|----------------------|


  (D/F#)   (D)       A
------------------|-------9-------------|
------------------|-------10------------|
--------7---------|---------------------|
-----7------------|--7------------------|
--9------------9--|---------------------|
-----------10-----|---------------------|


  E7                               (G)
----------------------|----------------------|
--9----9--------------|---------8------------|
--7----7--------------|------9------------7--|
--9----9-----------9--|--10------------9-----|
--7----7----7--11-----|------------10--------|
----------------------|----------------------|


  (D/F#)   (D)       A
------------------|-------9-----9-----9------|
------------------|-------10----10----10--7--|
--------7---------|-------9-----9-----9---7--|
-----7------------|--7----------7-----7------|
--9------------9--|-------------------7------|
-----------10-----|--------------------------|


  E7                                 (G)
----------------------||-----------------------|
--9----9--------------||----------8------------|
--7----7--------------||*------9------------7--|
--9----9-----------9--||*--10------------9-----|
--7----7----7--11-----||-------------10--------|
----------------------||-----------------------|


  (D/F#)       (D)   A                      E7
------------------|-------9-------7---9--------|
------------------|-------10--10--10--10----9--|
--------7---------|-------9-----------------7--|
-----7------------|--7----------------------9--|
--9------------9--|----------------------------|
-----------10-----|----------------------------|


                                      (G)
-----------------------||-----------------------|
----7--9---------------||----------8------------|
----7--7--------------*||*------9------------7--|
-------9-----------9--*||*--10------------9-----|
------------7--11------||-------------10--------|
-----------------------||-----------------------|


                     A                      E7
------------------|-------9-------7---9--------|
------------------|-------10--10--10--10----9--|
--------7---------|-------9-----------------7--|
-----7------------|--7----------------------9--|
--9------------9--|----------------------------|
-----------10-----|----------------------------|


                                      (G)
-----------------------||-----------------------|
----7--9---------------||----------8------------|
----7--7--------------*||*------9------------7--|
-------9-----------9--*||*--10------------9-----|
------------7--11------||-------------10--------|
-----------------------||-----------------------|


                     A                      E7
------------------|-------9-------7---9--------|
------------------|-------10--10--10--10----9--|
--------7---------|-------9-----------------7--|
-----7------------|--7----------------------9--|
--9------------9--|----------------------------|
-----------10-----|----------------------------|


                                               E7sus
-----------------------||--------------------------|
----7--9---------------||----9--9--9--9--7--9--10--|
----7--7--------------*||----7--7-----7--7--7--7---|
-------9-----------9--*||----9--9-----9--------9---|
------------7--11------||-------7-----7--------7---|
-----------------------||--------------------------|


                     E7
---------------------7--|-----------7---------10--|
----------10--9--10--9--|------9----9--10-----9---|
----------7---7--7---7--|------7----7--7------7---|
----------9---9--9------|---------------------9---|
------------------------|------------------7--7---|
------------------------|-------------------------|


                                A
----10--10--10--10----10--9--|-------9-------7---9--------|
----9---9---9---9-----9------|-------10--10--10--10-------|
----7---7---7---7-----7------|-------------------------9h-|
----9---9---9---9-----9------|--7-------------------------|
----7---7---7---7-----7------|----------------------------|
-----------------------------|----------------------------|

----------7---------7---------|
------10--------10--------10--|
--11---------9---------7------|
------------------------------|
------------------------------|
------------------------------|


                                (A7)     (G)
--7---------7----------------|---------------------|
--------10-----10p-9---------|--------8------------|
-----9----------------11p-9--|-----9------------7--|
-----------------------------|--7------------9-----|
-----------------------------|-----------10--------|
-----------------------------|---------------------|


  (D/F#)   (D)       A
------------------|--9~----------------||
------------------|--10~---------------||
--------7---------|--9~----------------||
-----7------------|--7~----------------||
--9------------9--|--7~----------------||
-----------10-----|--------------------||


----------------------------------------------------------

HERE COMES THE SUN

|CAPO ON SEVENTH FRET

INTRO

   D  Dsus2 D                  Dsus2         G             G6    G
|--2-----0--2--------|-------2--0----------------|---------0-----------0--|
|--3--3-----------3--|-----------------3-----0---|---------0-----3-----0--|
|--2--------------2--|-----------------2-----0---|---3-----0-----0-----0--|
|--0-----------0-----|-0--0---------0--------0---|---0-----0-----0-----0--|
|--------------------|-----------------------2---|------2--2--2--2--2-----|
|--------------------|--------------------0--3---|-3-------3-----3--------|

 A7 A7sus2 A7 A7sus4     A     D      Dsus2 D
|------------------0--------|------2-----0--2------|
|-2--0----2--3-----------2--|------3--3---------3--|
|-0-------0-----0--------2--|------2---------------|
|-2-------2-----2-----2--2--|--0---0---------------|
|-0-------0-----0-----------|----------------------|
|---------------------------|----------------------|

             Dsus2      G    Gmaj7    G6  G/B       A7
|--------2--0--------------|-----2-----0------------------|
|-----------------3-----0--|-----0------------3-----2-----|
|-----------------------0--|-----0------------0-----0-----| (rest)
|--0--0--------0--------0--|-----0------------0-----2-----|
|-----------------------2--|-----3---------2--2--0--0-----|
|--------------------0--3--|--3--3--3---------------------|

CHORUS

D     Dsus2 D              Dsus2   D   G    Gmaj7 G6  Gmaj7 E7
 Here comes the sun    doo doo doo doo       Here comes the sun
|--2--0-----2-------|----2------0--2------|----2--0-----2---------|
|---------------3---|-------3----------0--|-----------------3-----|
|-------------------|---------------------|-----------------------|
|-------------------|---------------------|-----------------------|
|-------------------|---------------------|-----------------------|
|-------------------|---------------------|-----------------------|

                        D      Dsus2  D
       and I___ say_     "It's  al-  right."
|--------------------|----2-----0---------------|
|--3--3----3-----3---|----------------3---------|
|--------------------|----------------------2---|
|--------------------|--0----0-----0-----0------|
|--------------------|--------------------------|
|--------------------|--------------------------|


|-------0--------0--------|--0--------0-------------||
|----3--------3--------3--|--------3-----3\2--------||
|-4--------2--------0-----|-----2-------------4\2---||
|-------------------------|-------------------------||
|-------------------------|-------------------------||
|-------------------------|-------------------------||

VERSE 1 and 2

D      Dsus2 D          D      Dsus2    G           G6    G
1. Little darling,     it's been   a    long  cold  lone--ly  wint-
2. Little darling,      the smiles re - turning     to  their face-
|--2------0--2------|-------2--0-----------|---------0------------|
|-----3----------3--|-(3)----------3----0--|------3-------3---0---|
|-------------------|----------------------|----------------------|
|-------------------|----------------------|----------------------|
|-------------------|----------------------|----------------------|
|-------------------|----------------------|----------------------|

A7  A7sus2 A7 A7sus4 A7    D  Dsus2   D                 Dsus2       G
  --- ter; \
  --- ces; /                  Lit-tle darling,       it seems  like years
|-------------------0------|----2--2--0--2------|-------2--0-------------|
|-2---0----2--3---------2--|-----------------3--|--(3)---------3----0----|
|--------------------------|--------------------|------------------------|
|--------------------------|--------------------|------------------------|
|--------------------------|--------------------|------------------------|
|--------------------------|--------------------|------------------------|

          G6    G     A7            A7sus4
     since its  been  clear
|-2--------0-------------|-----------------------||
|---------------3-----2--|---2--2---3--3--3--3---||
|------------------------|-----------------------||
|------------------------|-----------------------||
|------------------------|-----------------------||
|------------------------|-----------------------||

REPEAT CHORUS

D     Dsus2 D              Dsus2   D   G    Gmaj7 G6  Gmaj7 E7
 Here comes the sun    doo doo doo doo       Here comes the sun
|--2--0-----2-------|----2------0--2------|----2--0-----2---------|
|---------------3---|-------3----------0--|-----------------3-----|
|-------------------|---------------------|-----------------------|
|-------------------|---------------------|-----------------------|
|-------------------|---------------------|-----------------------|
|-------------------|---------------------|-----------------------|

                        D      Dsus2
       and I___ say_     "It's  al-  right."
|--------------------|----2-----0---------------|
|--3--3----3-----3---|-----------------3--------|
|--------------------|-----------------------2//|
|--------------------|--------------------------|
|--------------------|--------------------------|
|--------------------|--------------------------|


|-------0--------0--------|--0--------0-------------||
|----3--------3--------3--|--------3-----3\2--------||
|/4--------2--------0-----|-----2-------------4\2---||
|-------------------------|-------------------------||
|-------------------------|-------------------------||
|-------------------------|-------------------------||

SOLO

 D     Dsus2 A7sus2 A7 A7sus2 A7                       A         F
|--2----0--2-----|----------------0-----|------------|--------------------|
|-----3-------0--|--2--0---2--3------2--|--2----2----|-----------------1--|
|----------------|----------------------|------------|--------------2-----|
|----------------|----------------------|------------|--------2--3--------|
|----------------|----------------------|------------|--0--4--------------|
|----------------|----------------------|------------|--------------------|

  C           G                  D              A7       A
|-----------|-----------------|--------------|--------|------------||
|-----------|-----------------|--------------|--2--2--|------------||
|--------0--|--------0--------|-----(rest)---|--------|------------||
|-----2-----|-----0-----------|--0-----------|--------|--------2---||
|--3--------|--2-----------2--|--------------|--------|--0--4------||
|-----------|-----------3-----|--------------|--------|------------||

BRIDGE (?)
repeat twice

   F           C           G                  D
   Sun,        sun,        sun,    here it    comes.
|-----------|-----------|------------------|--------------------------|
|--------1--|-----------|------------------|--------------------------|
|-----2-----|--------0--|--------0---------|--------------------------|
|--3--------|-----2-----|-----0------------|--0-----------------------|
|-----------|--3--------|--2------------2--|--------------------------|
|-----------|-----------|------------3-----|--------------------------|

then do this:

   A7         A7sus2 A7 A7sus4         A7 A7sus4 A7         A7sus4 A7 A
|--------------------------|---------------------0--|--0--0--0-----0--5---|
|--2----2---2--2--0--2--3--|----3--3---3--2--3------|-----------3---------|
|--------------------------|------------------------|---------------------|
|--------------------------|------------------------|---------------------|
|--------------------------|------------------------|---------------------|
|--------------------------|------------------------|---------------------|


|--5--5--5--5----5--||----------------------------------------------------|
|-------------------||----------------------------------------------------|
|-------------------||----------------------------------------------------|
|-------------------||----------------------------------------------------|
|-------------------||----------------------------------------------------|
|-------------------||----------------------------------------------------|

VERSE 3

D      Dsus2 D                 Dsus2    G           G6    G
3. Little darling,      I   feel   that ice      is slow -ly  melt-
|--2------0--2------|-------2--0-----------|---------0------------|
|-----3----------3--|--------------3----0--|--(0)-3-------3---0---|
|-------------------|----2-----------------|----------------------|
|-------------------|----------------------|----------------------|
|-------------------|----------------------|----------------------|
|-------------------|----------------------|----------------------|

A7  A7sus2 A7 A7sus4 A7    D  Dsus2   D                 Dsus2       G
  --- ing;                    Lit-tle darling,       it seems  like years
|-------------------0------|----2-----0--2------|-------2--0-------------|
|--2--0----2--3---------3--|-------3---------3--|--------------3----2----|
|--------------------------|--------------------|---2--------------------|
|--------------------------|--------------------|------------------------|
|--------------------------|--------------------|------------------------|
|--------------------------|--------------------|------------------------|

   Gmaj7  G6    G     A7            A7sus4
     since its  been  clear
|-2--------0-------------|-----------------------||
|---------------3-----2--|-0-2--2---3--3--3--3---||
|------------------------|-----------------------||
|------------------------|-----------------------||
|------------------------|-----------------------||
|------------------------|-----------------------||

REPEAT CHORUS

D     Dsus2 D              Dsus2   D   G    Gmaj7 G6  Gmaj7 E7
 Here comes the sun    doo doo doo doo       Here comes the sun
|--2--0-----2-------|----2------0--2------|----2--0-----2---------|
|---------------3---|-------3----------0--|-----------------3-----|
|-------------------|-2-------------------|-----------------------|
|-------------------|---------------------|-----------------------|
|-------------------|---------------------|-----------------------|
|-------------------|---------------------|-----------------------|

                        D      Dsus2
       and I___ say_     "It's  al-  right."
|--------------------|----2-----0---------------|
|--3--3----3-----3---|-----------------3--------|
|--------------------|-----------------------2//|
|--------------------|--------------------------|
|--------------------|--------------------------|
|--------------------|--------------------------|


|-------0--------0--------|--0--------0-------------||
|----3--------3--------3--|--------3-----3\2--------||
|/4--------2--------0-----|-----2-------------4\2---||
|-------------------------|-------------------------||
|-------------------------|-------------------------||
|-------------------------|-------------------------||

REPEAT CHORUS AD-LIB


OUTRO                                       F6       C        G
                                            slowly
|--------0--------0--------0-------------|--------------------------------|
|-----3--------3--------3------3\2-------|--------1-----------------------|
|--4--------2--------0--------------4\2--|-----2-----------0--------0-----|
|----------------------------------------|--0-----------2--------0--------|
|----------------------------------------|-----------3--------2-----------|
|----------------------------------------|--------------------------------|

         D/A
|--------2----------------------------------------------------------------|
|--------3----------------------------------------------------------------|
|--------2----------------------------------------------------------------|
|--------0----------------------------------------------------------------|
|-----2--0----------------------------------------------------------------|
|--3----------------------------------------------------------------------|

CHORDS USED

D           xx0232
Dsus2       xx0230
G           32000x
G(type2)    320030
G6          320000
Gmaj7       3x0002
A7sus2      x0200x
A7sus4      x0203x
E7          020130
G/B         x2003x
A7          x02020
F           xx321x
A7type3     x02223
C           x320xx
A           x01114


-----------------------------------------------------


Here Comes the Sun  -

Arranged for two guitars by John Kean.
 - 1st guitar : Capo on 7th fret; fingerpicks melodic accompaniment.
 - 2nd guitar : No capo; strums chords (written above tab).


INTRO:

4/4
 (2nd guitar tacit)
|-----2---0-2-----|-----2-0---------|-------0---------|-----------0-----|
|-------3-------3-|-----------3---0-|-----3-----3---0-|-2-0-2-3---2-----|
|---2-------------|---2-------------|---0-------------|-0---2-4-------0-|
|-0---0---0---0---|-0---0---0---0---|-----------------|-----------------|
|-----------------|-----------------|-----------------|-0---0---0---0---|
|-----------------|-----------------|-3---3---3---3---|-----------------|


  A(xx765x)         A(xx765x)         D(xx777x)    E7(076xxx) slide down
|-----2---0-2-----|-----2-0---------|-----2-0---------|-----------------|
|-------3-------3-|-----------3---0-|-----------3---2-|-(2)-------------|
|---2-------------|---2-------------|---0-----------0-|-(0)-------------|
|-0---0---0---0---|-0---0---0---0---|-----------------|-----------------|
|-----------------|-----------------|---------------0-|-(0)-------------|
|-----------------|-----------------|-3---3---3---3---|-----------------|


  A(577655)         A                 Dmaj7(x57675)      B7(x21202)
|-----2-0---2-----|-----2---0-2-----|-----2-0---2-----|-----------------|
|-----3-----3---3-|-----3-3-3-------|-----0-----0---3-|-------2---0-----|
|---2-------------|---2-----------2-|---0-----------1-|-------1---1-----|
|-0---0---0---0---|-0---0---0---0---|-----------------|-----------------|
|-----------------|-----------------|-----------------|-----------------|
|-----------------|-----------------|-3---3---3---3---|-0---0---0---0---|
   Here comes the sun                  Here comes the sun    and I say


  A                D(x5423x) A/C#(x4222x) Bm7(x2423x) A/C#     E7(020100)
|---2---0---------|-------0-----------0----------|-0---------0----------|
|---3---3---3-----|----3----------3-----------3--|--------3-----3p2-----|
|---------------2-|-4---------2------------0-----|-----2------------4p2-|
|-0---0---0---0---|-0---------0------------0-----|-----0----------------|
|-----------------|------------------------------|--------------0---0---|
|-----------------|------------------------------|----------------------|
  It's alright


VERSES 1 and 2:

    A                 A                 D                 E7
||------2---0-2-----|-----2-0---------|-------0---------|-----------0-----|
||--------3-------3-|-----------3---0-|---3-------3---0-|-2-0-2-3---2-----|
||*---2-------------|---2-------------|-----------------|-0---2-4-------0-|
||*-0---0---0---0---|-0---0---0---0---|-----------------|-----------------|
||------------------|-----------------|-----------------|-0---0---0---0---|
||------------------|-----------------|-3---3---3---3---|-----------------|
 1. Little darling,     it's been a long cold lonely winter;
 2. Little darling,     the smiles returning to their faces;

  A                 A                 D                 E7
|-----2---0-2-----|-----2-0---------|---2---0---------|-----------0-----|
|-------3-------3-|-----------3---0-|-----------3---2-|-----2-3---2-----|
|---2-------------|---2-------------|-----------------|---0-----------0-|
|-0---0---0---0---|-0---0---0---0---|-----------------|-----------------|
|-----------------|-----------------|-----------------|-0---0---0---0---|
|-----------------|-----------------|-3---3---3---3---|-----------------|
1,2. Little darling,  it seems like years since it's been clear


  A                 A                 Dmaj7             B7
|-----2-0---2-----|-----2---0-2-----|-----2-0---2-----|-----------------|
|-----3-----3---3-|-----3-3-3-------|-----0-----0---3-|-------2---0-----|
|---2-------------|---2-----------2-|---0-----------1-|-------1---1-----|
|-0---0---0---0---|-0---0---0---0---|-----------------|-----------------|
|-----------------|-----------------|-----------------|-----------------|
|-----------------|-----------------|-3---3---3---3---|-0---0---0---0---|
   Here comes the sun (doot'n do do)  Here comes the sun    and I say


  A                 D     A/C#   Bm7       A/C#    E7
|---2---0---------|-----0------0-------|-0------0----------|
|---3---3---3-----|---3------3------3--|------3----3p2-----|
|---------------2-|-4------2------0----|----2----------4p2-|
|-0---0---0---0---|-0------0------0----|----0--------------|
|-----------------|--------------------|-----------0---0---|
|-----------------|--------------------|-------------------|
  It's alright
                  ....................  ......................
                   1.                |   2. 2/4       3/8
  A                 E7               |       E7       (tacit)
|-----2---0-2-----|-----------0------||    |---------|-------|
|-------3-------0-|-2-0-2-3---2------||    |-2-------|-------|
|---2-------------|-0---2-4-------0-*||    |-0-------|-------|
|-0---0---0---0---|-----------------*||    |---------|-----2-|
|-----------------|-0---0---0---0----||    |-0-------|-0-4---|
|-----------------|------------------||    |---------|-------|


CHORUS:                                            ....................
                                                    1,2,3,4,5.        |
  3/8               5/8          4/4               2/4       3/8      |
    C        G        D            A                 E7       (tacit) |
||---------|--------|------------|-----2---0-2-----|---------|--------||
||------1--|--------|------------|-----3-3-------2-|---0-2---|--------||
||*---2----|-----0--|-----0------|---------------0-|-----0---|-------*||
||*-3------|---2----|---0--------|-0---0---0---0---|---------|-----2-*||
||---------|-3------|-2-------2--|-----------------|-0---0---|-0-4----||
||---------|--------|-------3----|-----------------|---------|--------||
1,2.     (no singing)
3,4,5,6. Sun,  sun,  sun,  here it comes


.....................................
 6.
4/4
  E7                E7                E7                E7
|-----------------|---------------0-|-------------0-3-|---------5---5---|
|-----------0-2-3-|-----------2-3-2-|-----------3-2-2-|---------2---2---|
|-------------0-0-|-----------0-0---|-----------0-----|---------2---2---|
|-----------------|-----------------|-----------------|-----------------|
|-0---0---0---0---|-0---0---0---0---|-0---0---0---0---|-0---0---0---0---|
|-----------------|-----------------|-----------------|-----------------|

VERSE 3:

    A                 A                 D                 E7
||------2---0-2-----|-----2-0---------|-------0---------|-----------0-----|
||--------3-------3-|-----------3---0-|---3-------3---0-|-2-0-2-3---2-----|
||*---2-------------|---2-------------|-----------------|-0---2-4-------0-|
||*-0---0---0---0---|-0---0---0---0---|-----------------|-----------------|
||------------------|-----------------|-----------------|-0---0---0---0---|
||------------------|-----------------|-3---3---3---3---|-----------------|
       Little darling,    I feel that ice is slowly melting;

  A                 A                 D                 E7
|-----2---0-2-----|-----2-0---------|---2---0---------|-----------0-----|
|-------3-------3-|-----------3---0-|-----------3---2-|-----2-3---2-----|
|---2-------------|---2-------------|-----------------|---0-----------0-|
|-0---0---0---0---|-0---0---0---0---|-----------------|-----------------|
|-----------------|-----------------|-----------------|-0---0---0---0---|
|-----------------|-----------------|-3---3---3---3---|-----------------|
   Little darling,  it seems like years since it's been clear


    A                 A                 Dmaj7             B7
||------2-0---2-----|-----2---0-2-----|-----2-0---2-----|-----------------|
||------3-----3---3-|-----3-3-3-------|-----0-----0---3-|-------2---0-----|
||*---2-------------|---2-----------2-|---0-----------1-|-------1---1-----|
||*-0---0---0---0---|-0---0---0---0---|-----------------|-----------------|
||------------------|-----------------|-----------------|-----------------|
||------------------|-----------------|-3---3---3---3---|-0---0---0---0---|
     Here comes the sun (doot'n do do)  Here comes the sun    and I say


  A                 D     A/C#   Bm7       A/C#    E7
|---2---0---------|-----0------0-------|-0------0-----------||
|---3---3---3-----|---3------3------3--|------3----3p2------||
|---------------2-|-4------2------0----|----2----------4p2-*||
|-0---0---0---0---|-0------0------0----|----0--------------*||
|-----------------|--------------------|-----------0---0----||
|-----------------|--------------------|--------------------||
  It's alright


  A                 D     A/C#   Bm7       A/C#    E7
|---2---0---------|-----0------0-------|-0------0----------|
|---3---3---3-----|---3------3------3--|------3----3p2-----|
|---------------2-|-4------2------0----|----2----------4p2-|
|-0---0---0---0---|-0------0------0----|----0--------------|
|-----------------|--------------------|-----------0---0---|
|-----------------|--------------------|-------------------|
  It's alright


CODA:

3/8               5/8          4/4
  C(note)  B(note)  D(note)      A(x022xx)
|--------|--------|------------|-2---------||
|-----1--|--------|------------|-3---------||
|---2----|-----0--|-----0------|-2---------|| Fine.
|-3------|---2----|---0--------|-0---------||
|--------|-3------|-2-------2--|-----------||
|--------|--------|-------3----|-----------||


===========================================================================


Because

standard tuning
1
|------------------|-------------------|
|--------5---------|--------5----------|
|------6---6-------|------6---6--------|
|----6-------6---6-|----6-------6---6--|
|--4-----------7---|--4-----------7----|
|------------------|-------------------|
C#m

 3
|------------------|-------------------|
|--------4---------|--------4----------|
|------6---6-------|------5---5--------|
|----7-------7---4-|----6-------6---6--|
|--6-----------7---|--6----------------|
|------------------|--------------4----|
D#m7-5              G#/D#         G#

5
|------------------|-------------------|
|--------5---------|--------5----------|
|------6---6-------|------6---6--------|
|----7-------7---7-|----6-------6---6--|
|--------------7---|--4-----------4----|
|--5---------------|-------------------|
 A                  C#m

7
|------------------|-------------------|
|--------8---------|-----------7-------|
|------6---6-------|------6------------|
|----5-------5---5-|----5--------------|
|--------------7---|-------------------|
|--5---------------|--5----------------|
 A7                 A13
9
|--------2---------|-------------------|
|------3---3-------|--------7-6--------|
|----2-------2---2-|----4/7------------|
|--------------4---|--0---------6------|
|--5---------------|-------------------|
|------------------|-------------------|
 D                  D*7

11
|------4-----------|----4--------------|
|--5-----------5---|------5-------5----|
|--------6---------|----------6--------|
|----6-----6-----6-|--6-----6---6---6--|
|--4---------4-----|--4----------------|
|------------------|-------------------|
 C#m

13
|--------2---------|-------------------|
|----2-----2-------|----------4--------|
|--2---2-----2-----|--------5---5------|
|--1---------------|------4-------6----|
|--------------0---|----6--------------|
|------------------|--4----------------|
 D#m7-5             G#7

15
|--------5---------|--------4----------|
|--5-------5-------|--5-------5--------|
|------6-------6---|------6------------|
|----7-------7---7-|----6---------6----|
|------------------|--4---------6---6--|
|--5---------------|-------------------|
 A                   C#m

17
|--------5---------|--------5----------|
|--8-------8-----8-|--7-------7--------|
|------6-------6---|------6------------|
|----7-------7-----|----5--------5-----|
|------------------|-------------------|
|--5---------------|--5----------------|
 A7                 A13

19
|--------0-2p0-----|--1----------------|
|------3---3---3---|--0----------------|
|----2-----2-----2-|--1---1-2-4---1-2--|
|--0-------0-------|--0----------------|
|------------------|-------------------|
|------------------|-------------------|
  D                  D*7

21
|-------------2----|-------------------|
|---------2-----2--|----------2--------|
|-----3-----3------|------3-4-3----3-4-|
|--4----4----------|----4-----4--4-----|
|------------------|-------------------|
|--2---------------|--2-------2--------|
 F#m

23
|-------------4----|-----------4--4----|
|---------4-----4--|--------5----------|
|-----5-----5------|------5------------|
|--6----6----------|----4--------------|
|------------------|-------------------|
|--4---------------|--4----------------|
 G#                 G#7-5

25
|-12-----9------12----|----------9----12----|
|----9------9---------|-9------9-9----------|
|------9------9-------|------9---9----------|
|---------11-------11-|---11-------11----11-|
|---------------------|---------------------|
|-9-------------------|-9--------9----------|
 C#m

27
|--5-------5--------|--------------4-----|
|--7-----7---7------|----------4---------|
|--6---6-------6----|--------5---5-------|
|----7--------------|------6----------6--|
|--6-------------0--|----6---------------|
|-------------------|--4-----------------|
 D#m7-5              G#

29
|-12--------------9----|-12------------9----|
|----10------10--------|----9------9--------|
|-------9-------9------|------9------9------|
|---------11--------11-|--------11-------11-|
|-0--------------------|--------------------|
|----------------------|-9------------------|
 A                      C#m
31
|-15----------------15----|-14----------14----|
|----14-------14-------14-|-14-------14----14-|
|-------12-------12-------|-12----12----------|
|----------14-------------|----14-------------|
|-0-----------------------|-0-----------------|
|-------------------------|-------------------|
 A7                        A13

33
|-14--------12-10-----------|-16--14--13----14--16-|
|-10--10-------10--14-12-10-|-15------15-----------|
|-11-----11----11-----------|-16------16-16--------|
|-0------------0------------|-0-------0------------|
|---------------------------|----------------------|
|---------------------------|----------------------|
 D                           D*7

35
|-12-----9-------12---|----------9----12-|
|----9-------9--------|-9------9-9-------|
|------9-------9----9-|------9---9--9----|
|---------11----------|---11-------------|
|---------------------|------------------|
|-9-------------------|-9--------9-------|
 C#m

37
|-14-------12-11----------|-------------11-12-|
|-14-14----------14-13-14-|-13-------13-------|
|-14----14----------------|-------11----------|
|-------------------------|----13-------------|
|-------------------------|-11----------------|
|-11----------11----------|-------------------|
 D#m7-5                    G#7

39
|-9--------------9----|-12------------9----|
|---10------10--------|----9------9--------|
|------9-------9------|------9------9------|
|--------11--------11-|--------11-------11-|
|-0-------------------|--------------------|
|---------------------|-9------------------|
  A                    C#m

41
|-9----------------9----|--------------9-|
|---12----------12---12-|-------12-------|
|------12----12---------|-11-------11----|
|---------11------------|----11----------|
|-0---------------------|-0--------------|
|-----------------------|----------------|
 A9                      A13

43
|--5---3---2----------|--7-------------|
|--7---5---3--5--3----|--9-------7--6--|
|-------------6--4----|-----4h7--------|
|--0----------------0-|--0-------------|
|---------------------|----------------|
|---------------------|----------------|
 D                      D*7


"

===========================================================================

		       You Never Give Me Your Money


  Am7                Dm7(add9) Dm       G7                  Csus4  C
|----0--0--0--0--0--0-----0-----------------------------------1---0----------|
|----1--1--1--1--1--1--1--1----3----3-----3--3--3--3--3--3----1-----1--------|
|----0--0--0--0--0--0-----2----2--2---2---0--0--0--0--0--0----0--------0-----|
|----2--2--2--2--2--2-----0----0----------3--3--3--3--3--3----2--------------|
|-0-------------------------------------2---------------------3-----------3--|
|---------------------------------------3------------------------------------|


 Fmaj7                   Dm        E       Am
|----0--0--0--0--0--0--0-----------0-----------------------------------------|
|----1--1--1--1--1--1--1--3--1--3--0--------------1----------------1---------|
|-2--2--2--2--2--2--2--2--2--------1----1---2-----2----2---2---2---2---2---2-|
|-3-----------------------0--------2--2-----2--2--2--2---2---2---2---2---2---|
|-3--------------------------------2--------0--------------------------------|
|----------------------------------0-----------------------------------------|


Am7                   Dm7(add9) Dm
You never give me your    mo    ney
G                     C
You only give me your funny paper
Fmaj7                   Dm  E
And in the middle of negotiations
    Am
You break down


Am7              Dm7(add9) Dm
I never give you my num    ber
G                  C
I only give you my situation
Fmaj7                  Dm   E
And in the middle of investigation
  Am          C  G7
I break down


C               E7
Out of college, money spent
Am             C7
See no future, pay no rent
F               G7
All the money's gone
           C  C7
Nowhere to go


C           E7
Any jobber, got the sack
Am               C7
Monday morning, turning back
F             G7
Yellow lorry slow
           C  C7
Nowhere to go


    Bb                     F
But oh, that magic feeling
           C
Nowhere to go
Bb                      F
Oh, that magic feeling
           C
Nowhere to go,  nowhere to go


Bb   F    C
Ah---------

Bb   F    C
Ah---------

Bb   F    C
Ah---------

D  Eb  G  C  A  Eb  C  F#  Eb  A  F#  G  G#  A


           B
One sweet dream
C            D       E7                 A
Pick up the bags and get in the limousine
D7                  G
Soon we'll be away from here
D7               G                   A
step on the gas and wipe that tear away

                                             here's the little riff:
            B7         C  G/B      A
One sweet dream came true      today        -----------------------5--|
       C  G/B     A                         -------------0------------|
came true       today                       -----0-----0---0-----2----|
       C  G/B     A                         ---2-----0---------2------|
came true       today  yes it did!          -3-----2---------0--------|
                                            --------------------------|
C  G/B  A


 C            G/B
One two three four five six seven
 A
All good children go to heaven
 C            G/B
One two three four five six seven
 A
All good children go to heaven...


All "odd" chords are in the intro I have tabbed out, so use that to find the
fingerings.




===========================================================================

Sun King

(each line represents 4 bars)
E
A   E
A   E
A6   A6   A6  A6       A6   A7   Amaj7  E

Dm          ahhh    (2 bars)

C            Em                Gm7       A
Here      come    the    sun         king

C            Em                Gm7        A
Here      come    the    sun         king

F                                    D           F                                 D
      Everybody's     laughing           Everybody's     happy

C            Em                Gm7        F         (notice the change)
Here      come    the    sun         king


A   E               here they sing in Italian.
A   E               understand me for not writing the words.
A   E


This song turns immediatly to MEAN MR. MUSTARD with no break
in between.

===========================================================================
Mean Mr Mustard

E                      E7
Mean Mr Mustard sleeps in the park

              E
Shaves in the dark, trying to save paper
B                           B7 C7 Db7 D7
Sleeps in a hole in the road
D                               D7 Db7 C7 B7
Saving up to buy his new clothes
B
Keeps a ten bob note up his nose
       E        C7 B7      E        C7 B7
Such a mean old man,       mean old man


E                    E7
His sister Pam works in a shop
          E
She never stops she's a go-getter
B                                 B7 C7 Db7 D7
Takes him out to look at the Queen
                             D7 Db7 C7 B7
Only place that he's ever been

Always shouts out something obscene
      E          C7 B7          E          C7 B7
Such a dirty old man,            dirty old man

B7 C7 Db7 D A E, D A E

[E] Mean Mr Mustard sleeps [E7] in the park

Shaves in the [E] dark, trying to save paper
[B] Sleeps in a hole in the road  B7 C7 Db7 D7
Saving up to buy his new clothes D7 Db7 C7 B7
Keeps a ten bob note up his nose
Such a [E] mean old [C7 B7] man, [E] mean old [C7 B7] man

[E] His sister Pam works [E7] in a  shop
She never [E] stops she's a go-getter
[B] Takes him out to look at the Queen  B7 C7 Db7 D7
Only place that he's ever been  D7 Db7 C7 B7
Always shouts out something obscene
Such a [E] dirty old [C7 B7] man, [E] dirty old [C7 B7]man

B7 C7 Db7 D A E, D A E

==========================================================================

POLYTHENE PAM


D/E  A  E  (x 2)
E                   D   A         E
   Well, you should see Polythene Pam
                  D              A            E
   She's so good looking but she looks like a man
                      G                             B
   Well, you should see her in drag, dressed in her polythene bag
                   C   D         E
   Yes, you should see Polythene Pam.
   C     D     E
   Yeah, yeah, yeah

D/E  A  E (x 2)

Get a dose of her in jackboots and kilt
She's killer diller when she's dressed to the hilt
She's the kind of a girl that makes the _News of the World_
Yes, you could say she was attractively built.
Yeah, yeah, yeah

D/E  A  E (x2)
D  A  E  (x 9?)

[Geez, while I'm at it, here's She Came in through the Bathroom Window.
Same source:] ltrics corrected by Charlie_Gibbs@mindlink.bc.ca

A                                 D
 She came in through the bathroom window
A          F#m         D
 protected by a silver spoon
A            F#m                 D
 But now she sucks her thumb and wonders
        D7                      A
 by the banks of her own lagoon

(A)                Dm
Didn't anybody tell her?
A                   Dm
Didn't anybody see?
G7                       C
Sunday's on the phone to Monday
G7                        C        (go to 2/4 for the C)
Tuesday's on the phone to me

She said she'd always been a dancer
Worked in fifteen clubs a day
And though I thought I knew the answer
Well, I knew but I could not say

So I quit the police department
and got myself a steady job
And though she tried her best to help me
she could steal but she could not rob

Chorus

===========================================================================


                   She Came in Through the Bathroom Window

A                                   D
 She came in through the bathroom window
A                        D
 Protected by a silver spoon
A                                   D
 But now she sucks her thumb and wonders
                               A
By the banks of her own lagoon

                Dm      A
Didn't anybody tell her?
                Dm
Didn't anybody see?
  G7                         C  C/B
Sunday's on the phone to Monday
  G7                      C   A
Tuesday's on the phone to me

                               D     A
She said she'd always been a dancer
                               D    A
She worked in fifteen clubs a day
                                   D
And though she thought I knew the answer
                                  A
Well, I knew but I could not say


                             D       A
And so I quit the police department
                         D    A
And got myself a steady job
                                  D
And though she tried her best to help me
                                      A
She could steal but she could not rob


                Dm      A
Didn't anybody tell her?
                Dm
Didn't anybody see?
  G7                         C  C/B
Sunday's on the phone to Monday
  G7                      C      A
Tuesday's on the phone to me oh yea


transcribed by Chris Sears
cts@mail.utexas.edu


===========================================================================


Golden Slumbers

INTRO (one measure)
(quietly)
------------------------|
------------------------|
0-----0-----0-----0-----|
------------------------|
3--0--3--0--3--0--3--0--|
------------------------|
1  &  2  &  3  &  4  &

-VERSE-
(quietly the 1st time, louder the 2nd time)
Am7				           Dm7
Once, there was a way_________ to get back homeward
G7					   C
Once, there was a way_________ to get back home
Em		Am           Dm9
Sleep pretty darling, do not cry,
G7		   	C
 And I will sing a lullaby
-CHORUS-
(loudly)
C	   F		      C
Gold  - en slumbers fill your eyes
C	F		  C
Smiles awake you when you rise
Em		Am	      Dm9
Sleep pretty darling, do not cry,
G7		       C
And I will sing a lullaby

(Repeat VERSE)

HOW TO FINGER THE CHORDS:
  Am7	  Dm7	  G7	   C	  Em	  Am	  Dm9	   F
 o o o	  o	  ooo	   o o	o  ooo	 o   o	  o  o
||||*|	||||**	|||||*	||||*|	||||||	||||*|	||||*|	||||**
||*|||	|||*||	|*||||	||*|||	|**|||	||**||	|||*||	|||*||
||||||	||||||	*|||||	|*||||	||||||	||||||	||||||	|**|||

I like to strum the first verse with no pick and then use a pick for the
chorus and the rest of the song.  The end of this song leads directly into
"Carry That Weight," with no break between the two songs.

===========================================================================

CARRY THAT WEIGHT

 C                    G
Boy, you're gonna to carry that weight
                     C
carry that weight a long time.
                       G
Boy, you're gonna to carry that weight
                      C        C/B
carry that weight a long time.


Am7  Dm7(add9) Dm  G  Csus4  C  Fmaj7  Dm  E7  Am


                   Dm7(add9) Dm   G
I never give you my   pil    low
                  Csus4  C      Fmaj7
I only send you my  invitations
                         Dm  E7
And in the middle of the celebrations
   Am        G  C  G
I break down


 C                    G
Boy, you're gonna to carry that weight
                      C
carry that weight a long time.
                      G
Boy, you're gonna to carry that weight
                      C        G/B   A
carry that weight a long time.

C  G/B   A

Dm(add9)

  -0-
  -3-
  -2-
  -0-
  ---
  ---


===========================================================================

              The End

    A   D     B    E
-|--5---10----7----12----|
-|--5---10----7----12----|
-|--2---7-----4----9-----|
-|--2---7-----4----9-----|
-|-----------------------|
-|-----------------------|
    Oh Yeah  All Right

     A                       Eb dim      A
-|-----------------------------------------------|
-|-----------------------------------------------|
-|-----------------------------------------------|
-|-----------------------------------------------|
-|-----------4--5--6--7---8---9----9--7--4-------|
-|---5-------5--7--8--9--10--11---10--8--5-------|
    Are you gon na be in my dreams    to night


    A7   A      D7   D7
-|--0----0------2----2---------|
-|--2----2------1----1---------|
-|--0----2------2----2---------|
-|--2----2------0----0---------|   (repeat six times)
-|--0----0---------------------|
-|-----------------------------|
   Love You    Love You


The leads: Make sure to change your tone completely from
line to line so you sound like three different guys  ;^)


                A7    A            D7
-|--------------5-----5--3------------------------------------|
-|--5--5--5--5-----5--------3/1-----3--1----------------------|
-|-------------------------------2--------2--0----------------|
-|------------------------------------------------------------|
-|------------------------------------------------------------|
-|------------------------------------------------------------|


                   A7  A             D7
-|-----------------------------------------------------------------------|
-|----------------b(13)11--11h13p11--------------------------------------|
-|--12h14--12h14---------------------12--12--12--------------------------|
-|-----------------------------------------------14--14--12--12----------|
-|---------------------------------------------------------------15--12--|
-|-----------------------------------------------------------------------|


    A7                  A                       D7
-|-----------------------------------------------------------------------!)  (this is
-|--12--14--14--14--12--14--14--14--12--14--14--14--12-------------------!)   the best
-|--12--14--14--14--12--14--14--14--12--14--14--14--12-------------------!)   I got for
-|--12--14--14--14--12--14--14--14--12--14--14--14--12-------------------!)   this part!
-|---------------------------------------------------------   So sue me--!)
-|-----------------------------------------------------------------------!)


             A7       A              D7
-|--8--8--8--8---------------------------------------------|
-|--------------5-----------5--4--5--------------11b(13)---|
-|-----------------5-----5-----------14--12--14------------|
-|--------------------7------------------------------------|
-|---------------------------------------------------------|
-|---------------------------------------------------------|


          A           A7                   D7
-|------------------------------------------------------------5--|
-|--------5--5--------5--5-----5--5-----5--7b(9)r7--5h7p5--------|
-|--------5--5--------5--5-----5--5-----5--7b(9)r7--5h7p5--------|
-|--7--7--------7--7--------7--------7---------------------7-----|
-|---------------------------------------------------------------|
-|---------------------------------------------------------------|
-|---------------------------------------------------------------|
-|---------------------------------------------------------------|


             A     A7   D7
-|---------------------------------------------------------------|
-|---------------------------------------------------------------|
-|---------------------------------------------------------------|
-|---------------------------------------------------------------|
-|-----------3--5--3--5--3--5--3--b(7)5--5--3--5-----------------|
-|--0--3--5------------------------------------------------------|


             A              A7      D7
-|-------------------------------------------------------------------|
-|-------------------------------------------------------------------|
-|--------------5--5--5--5--------------5--5--5--5-------------------|
-|--5--5--5--5--------------5--5--5--5--------------7\5--------------|
-|-------------------------------------------------------7\5--3--0---|
-|-------------------------------------------------------------------|


     A       A7      D7
-|-----------------15b(17)--15-----------------------------------|
-|--5/8--8/10--13---------------13--15--13-----------------------|
-|---------------------------------------------------------------|
-|---------------------------------------------------------------|
-|---------------------------------------------------------------|
-|---------------------------------------------------------------|


             A    A7           D7                A
-|---------------------------------------------------------------|
-|-----------7--7--7--7--7--7--7--7--7--7--7--7--5---------------|
-|-----------7--7--7--7--7--7--7--7--7--7--7--7--6---------------|  (sue me
-|-----5--7--7--7--7--7--7--7--7--7--7--7--7--7--7---------------|   again!)
-|--7------------------------------------------------------------|
-|---------------------------------------------------------------|

===========================================================================

	Her Majesty


        Her Majesty's a pretty nice girl but she hasn't got a lot to say
   D        D/C#       D/B          D              E7          A7     D
E -2----2-2----2--2---2--------2-2--------2---2--------------------------------|
B -3----3-2----3--3---3--------3-3--------3---3----------3--3-----2---3--------|
G -2----2-2----2--2---2--------2-3--------2---2----------1--1-----0---2--------|
D -0--0--------------------------------------------------2--2-----2---0--------|
A -0---------4----------2-----------0--------------------------0--------0-2-4--|
E -2-----------------------------------------------0---------------------------|

      Her Majesty's a pretty nice girl but she changes from day to day
          D/C#       D/B          D              E7                 A
E ----2-2----2--2---2--------2-2--------2---2---------------------------------|
B ----3-2----3--3---3--------3-3--------3---3----------3--------3-----2-2-3-2-|
G ----2-2----2--2---2--------2-3--------2---2----------1--------1-----2-2-2-2-|
D --0--------------------------------------------------2--------2-----2-2-4-2-|
A ---------4----------2-----------0---------------------------------0---------|
E -----------------------------------------------0-----------0----------------|

      I wanna tell her I love her alot but I gotta get a belly fulla wine
    Bm                     Bm9                 D7                    G
E ---------------------------------------------------------------------------|
B ------3--3-----------3----------2-----2--2--------1-----------1------0---0-|
G ------4--4-----------4----------4-----4--4--------2-----------2------0---0-|
D ------4--4-----------4----------4-----4--4---0----------0------------0---0-|
A --2----------2-----------2--------2----------------------------------------|
E -------------------------------------------------------------------3---3---|

       Her Majesty's a pretty nice girl some day I'm gonna make her
  (S) Ddim               D          B7        E7            A
E -----7--7-----7----7--------2----------------------------------------------|
B -----6--6-----6----6--------3----------0------------3----------2-----------|
G ---7-7--7--7--7----7--------2----------2------------1----------2-----------|
D -----6--6-----6----6---0---------------1------------2----------2-----------|
A ----------------------------------2-----------------------0----------------|
E --------------------------------------------0------------------------------|

    Mine oh yeah some day I'm gonna make her mine.
    D         B7       E7             A7       D
E -------2-------------------------------------------------------------------|
B -------3------0---------------3---------2----------------------------------|
G -------2------2---------------1---------2----------------------------------|
D --0-----------1---------------2---------2----0-----------------------------|
A ------------2-----------------------0------------0-------------------------|
E ---------------------0-----------------------------------------------------|

(S) = Slide up to this note
comments
print report bad tab
11 comments total. Showing first comments.
0 reply
folk_rocknroll wrote on May 10 2005, 12:00 am

i especially like "sunk" king, lol jk- good tab tho long live the beatles. o ya
PS- if you play abbey backwords it says "paul is dead" and notice that he is the only one with no shows (dead), also 1 and 1 and 1 is three. ever think its weird theres for beatles? also the license plate on the cover says "if 29" which is the age he was. This is all stuff that might be true or might be made up. it is the result of a rumor that circulated that paul died. some still think the current one is an imposter. but hes not cause i saw him and he kicked ass!!!!!

0 reply
The One 777 wrote on May 11 2005, 12:00 am

if you like the beatles go check out my hound dog solo of elvis presley

+1 reply
DeadPaul wrote on September 1 2005, 12:00 am

how come theres not tab for the "and in the end..." bit?

I want to post or [tab]
guest
You may want to rate the tab now too:
select rating
Please do not post tabs as comments. Select "correction" instead!