Oops, an error
Loading. Please wait.

Abbey Road Bass Tab

ver2
ver2

Album

Interactive

More versions @911Tabs.com
3,866 views 1 this week
no commentswrite comment
1 2 3 4 5
accurate
x 1
Autoscroll
+/-
esc
set tempo
stop
Difficulty
intermediate
Hey! There's an official Ultimate Guitar app which is ideal
for learning songs when you're away from computer. Get the app
WARNING: You are trying to view
                                    content from Ultimate-Guitar.com
                                    in an unauthorized application,
                                    which is prohibited.

                                    Please use an official Ultimate
                                    Guitar Tabs application for iPhone,
                                    iPad or Android to access legitimate
                                    chords, guitar, bass, and drum tabs
                                    from Ultimate-Guitar.com database.

                                    Type "ultimate guitar tabs" in Apple
                                    App Store's or Android Market's
                                    search to find the application.
1) Come Together

	Intro/Verse
G|-------------------10----------|
D|-----------------------12------|
A|------------10h12--------------|X8
E|----10--10---------------------|

  "He Got Hair Down to His Knees"
G|------------5-------------|
D|------------------7-------|
A|-----0-0------------------|X3
E|--------------------------|

   bridge
G|-------------5--------|
D|----------------------|
A|-------0--0-----7-----|
E|-------------------3--|


G|-------------------10----------|
D|-----------------------12------|
A|------------10h12--------------|X8
E|----10--10---------------------|

"He say "I know you, you know me""
G|------------5-------------|
D|------------------7-------|
A|-----0-0------------------|X3
E|--------------------------|

   bridge
G|-------------5--------|
D|----------------------|
A|-------0--0-----7-----|
E|-------------------3--|

   Chorus
G|--------------------------------------|
D|--------------------------------------|
A|--------------------------------------|
E|--------7-7-7-7-7-7-7-5-5-3-3--5------|
                                     Last  Time
G|-------------------10----------|  |-----------------10h12h10------|
D|-----------------------12------|  |-------------------------- 12--|
A|------------10h12--------------|X7|----------10h12----------------|
E|------7--7---------------------|  |----7--7-----------------------|

"He Got Feet Down Below his Knee"
G|------------5-------------|
D|------------------7-------|
A|-----0-0------------------|X3
E|--------------------------|

   bridge
G|-------------5--------|
D|----------------------|
A|-------0--0-----7-----|
E|-------------------3--|

  Chorus
G|--------------------------------------|
D|--------------------------------------|
A|--------------------------------------|
E|--------7-7-7-7-7-7-7-5-5-3-3--5------|


G|-------------------10----------|
D|-----------------------12------|
A|------------10h12--------------|X8
E|----10--10---------------------|

"He say "One and one and one is three""
G|------------5-------------|
D|------------------7-------|
A|-----0-0------------------|X3
E|--------------------------|

   bridge
G|-------------5--------|
D|----------------------|
A|-------0--0-----7-----|
E|-------------------3--|


  Chorus
G|--------------------------------------|
D|--------------------------------------|
A|--------------------------------------|
E|--------7-7-7-7-7-7-7-5-5-3-3--5------|


  Chorus
G|--------------------------------------|
D|--------------------------------------|
A|--------------------------------------|
E|--------10-10-10-10-10-10-10-10-------|

Repeat until the end

2) Something

                                          Something in the way she moves
G|--------------------------------|----------5-5-5-5---------------|
D|--------------------------------|------------------------2--3/5--|
A|----------------6-------5-------|3-------------------------------|
E|1-------------------------------|--------------------------------|
  ^       ^       ^       ^        ^       ^       ^       ^

                                     Attracts me like no other lover
 |--------------------------------|----5-5-5-5-5-------------------|
 |5~~~--------5h7-5---------------|----------------------------2---|
 |----------------------------5---|3-------------------3---5-------|
 |--------------------------------|--------------------------------|
  ^       ^       ^       ^        ^       ^       ^       ^

                                 Something in the way she
 |--------------------------------|------------7-7-7---------------|
 |3-----------3h5-3-------2-------|------------------------4---9p7-|
 |--------------------------------|5-------------------5-----------|
 |--------------------------------|--------------------------------|
  ^       ^       ^       ^        ^       ^       ^       ^

  woos me                        I don't want to leave her now
 |--------------------------------|-------------7h9-10-9-7---------|
 |5-5-5h7-7-7-7/9-9~~~------------|7-----------------------10-9-7--|
 |--------------------------------|--------------------------------|
 |--------------------------------|--------------------------------|
  ^       ^       ^       ^        ^       ^       ^       ^

 You know I believe and how
 |--------------------------------|--------------------------------|
 |5-----------6-7-----------------|--------------------------------|
 |----------------5-----------7---|8-------8p7-5---6-------5-------|
 |--------------------------------|--------------8-----------------|
  ^       ^       ^       ^        ^       ^       ^       ^

  Somewhere in her smile she knows
 |----5---5-5-5-5-5---5-----------|--------------------------------|
 |------------------------2--3/5--|5~~~--------5h7-5---------------|
 |3-------------------------------|------------------------7---5---|
 |--------------------------------|--------------------------------|
  ^       ^       ^       ^        ^       ^       ^       ^

     That I don't need no other lover
 |----5-5-5---5-5-5---------------|--------------------------------|
 |----------------------------2---|3-----------------------2-------|
 |3-------------------3---5-------|--------------------------------|
 |--------------------------------|--------1-1-1---1---------------|
  ^       ^       ^       ^        ^       ^       ^       ^

 Something in her style that shows me
 |--------------------------------|--------------------------------|
 |------------4---7---------------|5-5-5-5-5h7-7-7-7-7/9--9--------|
 |5-----------------------5-------|--------------------------------|
 |--------------------------------|--------------------------------|
  ^       ^       ^       ^        ^       ^         ^       ^

 Don't want to leave her now    You know I believe and how
 |-------------7h9-10-9-7---------|--------------------------------|
 |7---7-------------------10-9-7--|5-----5---6-7-------------------|
 |--------------------------------|---5------------5-----------7---|
 |--------------------------------|--------------------------------|
  ^       ^       ^       ^        ^       ^       ^       ^


 |--------------------------------|--------6---9---6-6-6-6-6-7-8-9-|
 |--------------------------------|7-7-7-7---7---7-----------------|
 |8---------------6-------5-------|--------------------------------|
 |--------------------------------|--------------------------------|
  ^       ^       ^       ^        ^       ^       ^       ^

   You're asking me will my love grow                      I don't
 |--------9---9-----------9---9---|--------9---9-----------9---9---|
 |7---7-----------6---6-----------|--------------------------------|
 |--------------------------------|9---9-----------7---7-----------|
 |--------------------------------|--------------------------------|
  ^       ^       ^       ^        ^       ^       ^       ^

  know            I don't know
 |--------------------------------|--------------------------------|
 |--------4---4---5---5---5---5---|--------------------------------|
 |5---5---------------------------|--------------------------------|
 |--------------------------------|5----4-----3-----2----1----0----|
  ^       ^       ^       ^

     You stick around now it may show                      I don't
 |--------------------------------|--------------------------------|
 |--------2---2-----------2h4-2---|--------2---2-----------2---2---|
 |--------------------------------|--------------------------------|
 |5---5-----------4---4-----------|2---2-----------0---0-----------|
  ^       ^       ^       ^        ^       ^       ^       ^


  know            I don't know
 |--------------------------------|5----4--------------------------|
 |--------4---4---5---5---5---5---|-----------7-----5--------------|
 |5---5---------------------------|----------------------7----5----|
 |--------------------------------|--------------------------------|
  ^       ^       ^       ^

  Guitar solo
 |----------5-5-5-5---5-----------|--------------------------------|
 |------------------------2---3/5-|5-----------5h7-5---------------|
 |3-------------------------------|----------------------------7p5-|
 |--------------------------------|--------------------------------|
  ^       ^       ^       ^        ^       ^       ^       ^


 |---5--5-5-5-5-5-5---------------|--------------------------------|
 |--------------------------------|------3-3-3-3-----------2-------|
 |3-------------------3---1p0-----|----------------------------3---|
 |----------------------------3\1-|1-------------------------------|
  ^       ^       ^       ^        ^       ^       ^       ^


 |--------------------------------|--------------------------------|
 |--------------4-7-----------4---|5-5-5-5-5h7-7-7-7-7/9~~~--------|
 |5-----------5-------5---7-------|--------------------------------|
 |--------------------------------|--------------------------------|
  ^       ^       ^       ^        ^       ^         ^       ^


 |-------------7h9-10-9-7---------|-----------------------------7\-|
 |7---7-------------------10-9-7-9|7\----5-----6-7-----------------|
 |--------------------------------|--------7-5-----5---------------|
 |--------------------------------|--------------------------------|
  ^       ^       ^       ^        ^       ^       ^       ^

                                   Something in the way she knows
 |--------------------------------|--------------------5-5-5-5-5---|
 |--------------------------------|-------------------------------5|
 |8-------7p5-----6-------5-------|3h5p3-------3---3---------------|
 |------------8-------------------|--------------------------------|
  ^       ^       ^       ^        ^       ^       ^       ^

                                       And all I got   to do is
 |----------------5---------------|----5-5-5-5-5-5-5---------------|
 |5h7p5---5h7p5-------5h7-5-------|--------------------2---5---2---|
 |----------------------------7\5-|3-------------------------------|
 |--------------------------------|--------------------------------|
  ^       ^       ^       ^        ^       ^       ^       ^

 think of her                     Something in the things she
 |--------------------------------|------------------7-7---7-------|
 |3-----------------------2-------|--------------4-7-----------4---|
 |--------------------------------|5-----------5-------------------|
 |------------1-1-1---------------|--------------------------------|
  ^       ^       ^       ^        ^       ^       ^       ^

 shows me                         Don't want to leave her now
 |--------------------------------|-------------7h9-10-9-7---------|
 |5---5-5-5h7-7-7-7/9-------------|7---7-------------------10-9-7-9|
 |--------------------------------|--------------------------------|
 |--------------------------------|--------------------------------|
  ^       ^       ^       ^        ^       ^       ^       ^

  You know I believe and how
 |--------------------------------|--------------------------------|
 |7\------------------------------|--------------------------------|
 |---5--0---3--5--5-----------7---|8---------------6-------5-------|
 |--------------------------------|--------------------------------|
  ^       ^       ^       ^        ^       ^       ^       ^


 |------------6-6-6-7-7-7-8-8-9-9-|9/10-10-10-10p9-7--8----7-------|
 |7-7-7-7-7-7---------------------|-----------------10-------------|
 |--------------------------------|--------------------------------|
 |--------------------------------|--------------------------------|
  ^       ^       ^       ^        ^       ^          ^    ^


 |--------------------------------|
 |--------------------------------|
 |5p3-----------------------------|
 |--------------------------------|
  ^       ^       ^       ^

3) Maxwell's Silver Hammer

VERSE

  t=132

G|---------------------------------|---------------------------------|
D|-0-------------------------------|---------------------------------|
A|-----------------4---------------|-2-----------------------2-------|
E|---------------------------------|-----------------2---------------|



G|---------------------------------|---------------------------------|
D|-2-------------------------------|-2-------0-----------------------|
A|-----------------2------------2--|-----------------4-------2-------|
E|---------------------------------|---------------------------------|



G|---------------------------------|---------------------------------|
D|---------------------------------|-2--------------------2----------|
A|-0---------------4---------------|--------------0--4-------4-------|
E|---------------------------------|---------------------------------|



G|---------------------------------|---------------------------------|
D|-0-------------------------------|---------------------------------|
A|-----------------4-------2-------|-0------------0--2-------4-------|
E|---------------------------------|---------------------------------|



G|---------------------------------|---------------------------------|
D|-0-------------------------------|---------------------------------|
A|-----------------4---------------|-2-----------------------2-------|
E|---------------------------------|-----------------2---------------|



G|---------------------------------|---------------------------------|
D|-2-------------------------------|-2-------0-----------------------|
A|-----------------2------------2--|-----------------4-------2-------|
E|---------------------------------|---------------------------------|



G|---------------------------------|---------------------------------|
D|---------------------------------|-2-----------------------2-------|
A|-0---------------4---------------|--------------0--4---------------|
E|---------------------------------|---------------------------------|



G|---------------------------------|---------------------------------|
D|-0-------------------------------|-------------------------2-------|
A|-----------------4-------2-------|-0---------------0----4-------4--|
E|---------------------------------|---------------------------------|



PRE-CHORUS


G|---------------------------------|---------------------------------|
D|-2-------------------------------|-------------------------2--/-7--|
A|---------------------------------|---------------------------------|
E|---------------------------------|---------------------------------|



G|---------------------------------|---------------------------------|
D|---------------------------------|---------------------------------|
A|-0-------------------------------|------4--4-------2-------0-------|
E|---------------------------------|---------------------------------|



CHORUS



G|---------------------------------|---------------------------------|
D|---------------------------------|---------------------------------|
A|-5-------------------------------|-5------------4--5-------6-------|
E|-----------------5---------------|---------------------------------|



G|---------------------------------|---------------------------------|
D|-2----------------------------2--|------9--------------------------|
A|-----------------2---------------|-9/11----11\9-7--9-------7-------|
E|---------------------------------|---------------------------------|



G|-2------------2------------------|---------------------------------|
D|-----------------2------------2--|--------------2----------2-------|
A|---------------------------------|-0---------------0----4----------|
E|---------------------------------|---------------------------------|



G|---------------------------------|---------------------------------|
D|-2-------------------------------|-0---------------0---------------|
A|---------2-------0-------2-------|------0--2-----------------------|
E|---------------------------------|---------------------------------|



G|---------------------------------|---------------------------------|
D|-0-------------------------------|---------------------------------|
A|-----------------4---------------|-2---------------0---------------|
E|---------------------------------|---------------------------------|



G|---------------------------------|---------------------------------|
D|---------------------------------|---------------------------------|
A|---------0-------2-------4-------|-5----7--4-------5-------0-------|
E|-3-------------------------------|---------------------------------|



VERSE


G|---------------------------------|---------------------------------|
D|-0-------------------------------|---------------------------------|
A|-----------------4---------------|-2-----------------------2-------|
E|---------------------------------|-----------------2---------------|



G|---------------------------------|---------------------------------|
D|-2-------------------------------|-2-------0-----------------------|
A|-----------------2------------2--|-----------------4-------2-------|
E|---------------------------------|---------------------------------|



G|---------------------------------|---------------------------------|
D|---------------------------------|-2-----------------------2-------|
A|-0---------------4---------------|--------------0--4---------------|
E|---------------------------------|---------------------------------|



G|---------------------------------|---------------------------------|
D|-0-------------------------------|---------------------------------|
A|-----------------4-------2-------|-0---------------0-------2-------|
E|---------------------------------|---------------------------------|



G|---------------------------------|---------------------------------|
D|-0-------------------------------|---------------------------------|
A|-----------------4---------------|-2---------------2---------------|
E|---------------------------------|---------------------------------|



G|---------------------------------|---------------------------------|
D|-2-------------------------------|-2-------0-----------------------|
A|-----------------2------------2--|-----------------4-------2-------|
E|---------------------------------|---------------------------------|



G|---------------------------------|---------------------------------|
D|---------------------------------|-2-----------------------2-------|
A|-0---------------4---------------|-----------------4---------------|
E|---------------------------------|---------------------------------|



G|---------------------------------|---------------------------------|
D|-0-------------------------------|-------------------------2-------|
A|-----------------4-------2-------|-0---------------0----4-------4--|
E|---------------------------------|---------------------------------|



PRE-CHORUS


G|---------------------------------|---------------------------------|
D|-2-------------------------------|-------------------------2--/-7--|
A|---------------------------------|---------------------------------|
E|---------------------------------|---------------------------------|



G|---------------------------------|---------------------------------|
D|---------------------------------|---------------------------------|
A|-0-------------------------------|------4--4-------2-------0-------|
E|---------------------------------|---------------------------------|



CHORUS


G|---------------------------------|---------------------------------|
D|---------------------------------|---------------------------------|
A|-5-------------------------------|-5------------4--5-------6-------|
E|-----------------5---------------|---------------------------------|



G|---------------------------------|---------------------------------|
D|-2----------------------------2--|-2-4-2---0-2-0-------------------|
A|-----------------2---------------|-----------------4-5-4---2-4-2---|
E|---------------------------------|---------------------------------|



G|---------------------------------|---------------------------------|
D|---------------------------------|-2------------2-------2----------|
A|-0------------0--4------------4--|-----------------4-------4-------|
E|---------------------------------|---------------------------------|



G|---------------------------------|---------------------------------|
D|-2-------------------------------|---------------------------------|
A|-----------------2---------------|-0-------2-------4-------0-------|
E|---------------------------------|---------------------------------|



GUITAR SOLO


G|---------------------------------|---------------------------------|
D|-0-------------------------------|-0---------------0-------1-------|
A|-----------------0---------------|--------------4------------------|
E|---------------------------------|---------------------------------|



G|---------------------------------|---------------------------------|
D|-2-------------------------------|------9--11---9------------------|
A|-----------------2---------------|-9/11------------11\9-7--9----7--|
E|---------------------------------|---------------------------------|



G|-2------------2------------------|---------------------------------|
D|-----------------2------------2--|-------------------------2-------|
A|---------------------------------|-0---------------0----4----------|
E|---------------------------------|--------------0------------------|



G|---------------------------------|---------------------------------|
D|-2-------------------------------|-0---------------0---------------|
A|---------2-------0-------2-------|---------0-----------------------|
E|---------------------------------|---------------------------------|



G|---------------------------------|---------------------------------|
D|-0-------------------------------|---------------------------------|
A|-----------------4---------------|-2---------------0---------------|
E|---------------------------------|---------------------------------|



G|---------------------------------|---------------------------------|
D|---------------------------------|---------------------------------|
A|---------0-------2-------4-------|-5----7--4-------5-------0-------|
E|-3-------------------------------|---------------------------------|



VERSE


G|---------------------------------|---------------------------------|
D|-0-------------------------------|---------------------------------|
A|-----------------4---------------|-2-----------------------2-------|
E|---------------------------------|-----------------2---------------|



G|---------------------------------|---------------------------------|
D|-2-------------------------------|-2-------0-----------------------|
A|-----------------2------------2--|-----------------4-------2-------|
E|---------------------------------|---------------------------------|



G|---------------------------------|---------------------------------|
D|---------------------------------|-2-------------------------------|
A|-0---------------4---------------|--------------0--4-------0-------|
E|---------------------------------|---------------------------------|



G|---------------------------------|---------------------------------|
D|-0-------------------------------|---------------------------------|
A|-----------------4-------2-------|-0------------0--4-------0-------|
E|---------------------------------|---------------------------------|



G|---------------------------------|---------------------------------|
D|-0-------------------------------|---------------------------------|
A|-----------------4---------------|-2---------------2---------------|
E|---------------------------------|--------------2----------2-------|



G|---------------------------------|---------------------------------|
D|-2-------------------------------|-2-------0----------0------------|
A|-----------------2------------2--|-----------------4-----4--2------|
E|---------------------------------|---------------------------------|



G|---------------------------------|---------------------------------|
D|---------------------------------|-2------------2------------------|
A|-0---------------4------------4--|-----------------4-------0-------|
E|---------------------------------|---------------------------------|



G|---------------------------------|---------------------------------|
D|-0-------------------------------|-------------------------2-------|
A|-----------------4-------2-------|-0---------------0----4----------|
E|---------------------------------|---------------------------------|



PRE-CHORUS


G|---------------------------------|---------------------------------|
D|-2-------------------------------|-------------------------2--/-7--|
A|---------------------------------|---------------------------------|
E|---------------------------------|---------------------------------|



G|---------------------------------|---------------------------------|
D|-7-------------------------------|------9--7-------5---------------|
A|---------------------------------|-------------------------7-------|
E|---------------------------------|---------------------------------|



CHORUS


G|---------------------------------|---------------------------------|
D|-0-------------------------------|-0---------------0-------1-------|
A|-----------------0------------0--|--------------0------------------|
E|---------------------------------|---------------------------------|



G|---------------------------------|---------1-----------------------|
D|-2---------------2---------------|-2---------------4----2--4-------|
A|--------------2---------------2--|---------------------------------|
E|---------------------------------|---------------------------------|



G|-2------------2------------------|---------------------------------|
D|-----------------2------------2--|--------------2----------2-------|
A|---------------------------------|-0---------------0----4----------|
E|---------------------------------|---------------------------------|



G|---------------------------------|---------------------------------|
D|-2-------------------------------|---------------------------------|
A|-----------------2---------------|-0-------2-------4-------0-------|
E|---------------------------------|---------------------------------|



GUITAR SOLO


G|---------------------------------|---------------------------------|
D|-0-------------------------------|-0---------------0-------1-------|
A|-----------------0---------------|--------------0------------------|
E|---------------------------------|---------------------------------|



G|---------------------------------|---------------------------------|
D|-2----------------------------2--|------9--------------------------|
A|-----------------2---------------|-9/11----11------9-------9-------|
E|---------------------------------|---------------------------------|



G|---------------------------------|---------------------------------|
D|---------------------------------|-2-------------------------------|
A|-0---------------4---------------|-----------------4-------0-------|
E|---------------------------------|---------------------------------|



G|---------------------------------|---------------------------------|
D|-2-------------------------------|-0---------------0---------------|
A|---------4-------0-------2-------|---------0-----------------------|
E|---------------------------------|---------------------------------|



OUTRO


G|---------------------------------|---------------------------------|
D|-0-------------------------------|---------------------------------|
A|-----------------4---------------|-2---------------0---------------|
E|---------------------------------|---------------------------------|



G|---------------------------------|---------------------------------|
D|---------------------------------|---------------------------------|
A|---------0-------2-------4-------|-5----7--4-------5---------------|
E|-3-------------------------------|---------------------------------|

4) Oh! Darling

  VERSE
  00:02

G|-------------------------------------|-------------------------------------|
D|-------------------------------------|-------------------------------------|
A|--------------7H9--7--------4--5--6--|-7-----------------------------------|
E|-5-----------------------------------|--------------7H9--7------7H9-----7--|





G|-------------------------------------|-------------------------------------|
D|--------------5/7--------------------|-------------------7-----------------|
A|-9-----------------9-----------0-----|-5------------7/9---------7/9-----5--|
E|----------------------------------0--|-------------------------------------|





G|-------------------------------------|-------------------------------------|
D|---------------------------4H6-------|-------------------------------------|
A|-------------9-----7-----------------|-------------9-----7-----------------|
E|-7--------------7--------------------|-7--------------7--------------------|





G|-------------------------------------|-------------------------------------|
D|-------------------------------------|-7--7--7--7--6-----------------------|
A|----------------4--5--5--5--5--6--7--|----------------9--7-----------------|
E|-5--5--5--5--7-----------------------|-------------------------------------|





  VERSE
  00:36

G|-------------------------------------|--------------4H6--4-----------4-----|
D|-------------------------------------|--------------------------4/6-----4/6|
A|-7------------7H9--7--------4--5--6--|-7-----------------------------------|
E|-5-----------------------------------|-------------------------------------|





G|-------------------6-----------------|-------------------------------------|
D|-4--------------7-----------7-\------|-------------------7-----------7-----|
A|----------------------------------7--|-5------------7/9---------7/9-----7/9|
E|-------------------------------------|-------------------------------------|





G|-------------------------------------|-------------------------------------|
D|--------------------------------4/6--|------------------------------4/6-9--|
A|-----------5/6--9--7-----------------|-------------9-----7--------7--------|
E|-7-----------------------------------|-7--------------7--------------------|





G|-------------------------------------|-------------------------------------|
D|-------------------------------------|-------------------------------------|
A|----------------4--5--5--5--5--4-----|-------------------------------------|
E|-5--5--5--5--7--------------------7--|-5--5--5--5--5--5--7--7--8--9--9--7--|





  BRIDGE
  01:08

G|-------------------------------------|-------------------------------------|
D|-------------------------------------|-3--------3--------------------3-----|
A|-5-----5--5-----5--5-----5--5--6--7--|----------------3-----------3-----3--|
E|-------------------------------------|-------------------1-----1-----------|





G|-------------------------------------|-------------------------------------|
D|-------------------------------------|-7-----------------------------------|
A|-0--------2--------3--------4--------|---------7H9--7H9--7-----------7--9--|
E|-------------------------------------|-------------------------8--9--------|





G|-------------------------------6--6--|-------------------------------6-----|
D|--------------------------4/6--------|--------------------------4/6--------|
A|----------6--------9-----------------|-9--------6--------9-----------------|
E|-7-----------------------------------|---7---------------------------------|





G|-------------------------------------|-------------------------------------|
D|-------------4/6---------------5/7---|-------------------------------------|
A|-7--7--7--7--------8--8--8--8--------|-7-----------------------------------|
E|-------------------------------------|-------------------------------------|





  VERSE
  01:41

G|-------------------------------------|--------------4H6--4-----------------|
D|-------------------------------------|-------------------------------------|
A|--------------7/9--7--------4--5--6--|-7-----------------------------------|
E|-5-----------------------------------|--------------------------7H9-7H9-7--|





G|-------------------6-----------------|-------------------------------------|
D|----------------7--------------------|-------------------7------7/9--7-----|
A|-9------------------------7H9--8--7--|-5------------7/9-----------------9--|
E|-------------------------------------|-------------------------------------|





G|-------------------------------------|-------------------------------------|
D|-----------------------------4H6--9--|--------------------------------4H6--|
A|-------------9-----7-----------------|-------------9-----7-----------------|
E|-7--------------7--------------------|-7--------------7--------------------|





G|-------------------------------------|-------------------------------------|
D|-------------------------------------|----------------------------------7--|
A|----------------4--5--5--5--5--6--7--|-------------------------5--7-7H9----|
E|-5--5--5--5--7-----------------------|-5--5--7--7--8--8--9--9--------------|





  BRIDGE
  02:14

G|-------------------------------------|-------------------------------------|
D|-------------------------------------|---------5H7--------------5H7-----7--|
A|-5--------5--------5--------5--6--7--|-8-----------------8-----------------|
E|-------------------------------------|-------------------------------------|





G|-------------------------------------|-------------------------------------|
D|-------------------------------------|----------------------------------7--|
A|-0--------2--------3--------4--------|-0-----2--3-----3--4-----4--5--------|
E|-------------------------------------|-------------------------------------|





G|-------------------------------------|-------------------------------------|
D|--------------------------4H6--9--6--|----------------------------------7H9|
A|----------6--------9-----------------|----------6--------9-----9--6--9-----|
E|-7-----------------------------------|-7-----------------------------------|





G|-----------------------------------4-|-------------------------------------|
D|----------------------------3--5/7---|-------------------------------------|
A|-7--7--7-----------------------------|-7-----------------------------------|
E|----------0--0--0--1--1--1-----------|-------------------------------------|





  VERSE
  02:48

G|-------------------------------------|--------------4H6--4-----------------|
D|-------------------------------------|---------------------------4H6-4H6-4-|
A|--------------7H9--7--------4--5--6--|-7-----------------------------------|
E|-5-----------------------------------|-------------------------------------|





G|-------------------------------------|-------------------------------------|
D|-------------------4-----------------|-------------------7-----------7-----|
A|----------------4-----------4-----4--|-5------------7H9----------7H9---7H9-|
E|-2--------2--------------------------|-------------------------------------|





G|-------------------------------------|-------------------------------------|
D|-------------------------------------|----------------------------------7--|
A|--------------9----7------------7H9--|-------------9-----7---------7H9-----|
E|-7--------------7--------------------|-7--------------7--------------------|





G|-------------------------------------|-------------------------------------|
D|-------------------------------------|-------------------------------------|
A|----------------4--5--5--5--5--6--7--|-------------------------------------|
E|-5--5--5--5--7-----------------------|-5--------6-----5--------------------|

5) Octopus' Garden

INTRO
  00:00
  t=184
G|---------------------------------|---------------------------------|
D|---------------------------------|---------------------------------|
A|---------------------------------|-----------------7---------------|
E|---------------------------------|---------7-----------------------|


G|---------------------------------|---------------------------------|
D|---------------------------------|---------------------------------|
A|---------------------------------|-----7-------------------6-------|
E|---------------------------------|---------7-------9---------------|


G|---------------------------------|---------------------------------|
D|---------------------------------|---------------------------------|
A|-7-------------------------------|-4-------------------------------|
E|-----------------7---------------|-----------------4---------------|


G|---------------------------------|---------------------------------|
D|---------------------------------|---------------------------------|
A|-----------------7---------------|-----------------6---------------|
E|-5-------------------------------|-7-------9---------------7-------|


VERSE

  00:10

G|---------------------------------|---------------------------------|
D|---------------------------------|---------------------------------|
A|-7-------------------------------|-7---------------6---------------|
E|-----------------7---------------|---------------------------------|
           I’d     like    to  be

G|---------------------------------|---------------------------------|
D|---------------------------------|---------------------------------|
A|-4-------------------------------|-4---------------2---------------|
E|-----------------4---------------|---------------------------------|
           under       the     sea                           in  an

G|---------------------------------|---------------------------------|
D|---------------------------------|---------------------------------|
A|-----------------7---------------|-----------------7---------------|
E|-5-------------------------------|-5-----------------------5-------|
   octopus’s                   garden                    in  the shade

G|---------------------------------|---------------------------------|
D|---------------------------------|---------------------------------|
A|---------------------------------|-----------------6------------6--|
E|-7-------7-------7-------7-------|-7-------9------------7--7h9-----|


G|---------------------------------|---------------------------------|
D|---------------------------------|---------------------------------|
A|-7-------------------------------|-7---------------6---------------|
E|-----------------7---------------|---------------------------------|
           He’d    let us      in

G|---------------------------------|---------------------------------|
D|---------------------------------|---------------------------------|
A|-4-------------------------------|-4---------------2---------------|
E|-----------------4---------------|---------------------------------|
           knows   where we’ve been                          in  his

G|---------------------------------|---------------------------------|
D|---------------------------------|---------------------------------|
A|-----------------7---------------|-----------------7---------------|
E|-5-------------------------------|-5-----------------------5-------|
   octopus’s                   garden                    in  the shade

G|---------------------------------|---------------------------------|
D|---------------------------------|---------------------------------|
A|---------------------------------|---------6---------------6-------|
E|-7-------7-------7-------7-------|-9---------------7---9-----------|


PRE-CHORUS

  00:31

G|---------------------------------|---------------------------------|
D|---------------------------------|---------------------------------|
A|---------------------------------|---------------------------------|
E|-9-------------------------------|---------------------------------|
           I’d     ask     my        friends                 to

G|---------------------------------|---------------------------------|
D|---------------------------------|---------------------------------|
A|---------------------------------|---------------------------------|
E|---------------------------------|-9---------------7---------------|
   come            and     see

G|---------------------------------|---------------------------------|
D|---------------------------------|---------------------------------|
A|---------------------------------|---------------------------------|
E|-5-------------------------------|---------------------------------|
           an      octopus’s

G|---------------------------------|---------------------------------|
D|---------------------------------|---------------------------------|
A|---------------------------------|-------------------------6-------|
E|-7-------7-------7-------7-------|---------7-------9---------------|
   garden          with    me

CHORUS

  00:41

G|-----------------9---------------|---------------------------------|
D|---------------------------------|---------------------------------|
A|-7-------------------------------|-7---------------6---------------|
E|---------------------------------|---------------------------------|
           I’d     like    to  be

G|-----------------6---------------|---------------------------------|
D|---------------------------------|---------------------------------|
A|-4-------------------------------|-4---------------2---------------|
E|---------------------------------|---------------------------------|
           under       the     sea                           in  an

G|---------------------------------|---------------------------------|
D|-----------------7---------------|---------------------------------|
A|---------------------------------|-------------------------6-------|
E|-5-----------------------5-------|-7---------------9---------------|
   octopus’s                   garden                    in  the shade

G|-----------------9---------------|-9---------------9---6---6-------|
D|---------------------------------|---------------------------------|
A|-7-------------------------------|---------------------------------|
E|---------------------------------|---------------------------------|


VERSE

  00:52

G|---------------------------------|---------------------------------|
D|---------------------------------|---------------------------------|
A|-7-------------------------------|-7---------------6---------------|
E|-----------------7---------------|---------------------------------|
           We      would   be  warm

G|---------------------------------|---------------------------------|
D|---------------------------------|---------------------------------|
A|-4-------------------------------|-4-------4-------2---------------|
E|-----------------4---------------|---------------------------------|
           below       the     storm                         in  our

G|---------------------------------|---------------------------------|
D|---------------------------------|---------------------------------|
A|-----------------7---------------|-----------------7---------------|
E|-5-------------------------------|-5-----------------------5-------|
   little          hideaway                      beneath the waves

G|---------------------------------|---------------------------------|
D|---------------------------------|---------------------------------|
A|-----------------9---------------|-----------------6---------------|
E|-7-------------------------------|-7-------9---------------7-------|


G|---------------------------------|---------------------------------|
D|---------------------------------|---------------------------------|
A|-7-------------------------------|-7b9r7-----------6---------------|
E|-----------------7---------------|---------------------------------|
           Resting     our     head

G|---------------------------------|---------------------------------|
D|---------------------------------|---------------------------------|
A|-4-------------------------------|-4b6r4-----------2---------------|
E|-----------------4---------------|---------------------------------|
           on      the seabed                                in  an

G|---------------------------------|---------------------------------|
D|---------------------------------|---------------------------------|
A|-----------------7---------------|-----------------4-------7-------|
E|-5-------------------------------|-5-------------------------------|
   octopus’s                   garden                   near a

G|---------------------------------|---------------------------------|
D|---------------------------------|---------------------------------|
A|---------------------------------|---------6-----------------------|
E|-7---------------7-------7-------|-9-------------------7-----------|
   cave

PRE-CHORUS

  01:12

G|---------------------------------|-13------------------------------|
D|---------------------------------|---------------------------------|
A|---------------------------------|---------------------------------|
E|-9-------------------------------|---------------------------------|
                   We      would     sing                    and

G|---------------------------------|---------------------------------|
D|---------------------------------|---------------------------------|
A|---------------------------------|---------------------------------|
E|---------------------------------|-9---------------7---------------|
   dance           around

G|---------------------------------|---------------------------------|
D|---------------------------------|---------------------------------|
A|---------------------------------|---------------------------------|
E|-5-------------------------------|---------------------------------|
           because         we        know            we

G|---------------------------------|---------------------------------|
D|---------------------------------|---------------------------------|
A|---------------------------------|-------------------------6-------|
E|-7-------7-------7---------------|---------7-------9---------------|
   can’t   be      found

CHORUS

  01:23

G|---------------------------------|---------------------------------|
D|---------------------------------|---------------------------------|
A|-7-------------------------------|-7---------------6---------------|
E|-----------------7---------------|---------------------------------|
           I’d     like    to  be

G|---------------------------------|---------------------------------|
D|---------------------------------|---------------------------------|
A|-4-------------------------------|-4---------------2---------------|
E|-----------------4---------------|---------------------------------|
           under       the     sea                           in  an

G|---------------------------------|---------------------------------|
D|---------------------------------|---------------------------------|
A|-----------------7---------------|-----------------6---------------|
E|-5-------------------------------|-7-------9---------------7-------|
   octopus’s                   garden                    in  the shade

G|---------------------------------|/9-------9---9---9---7---6-------|
D|---------------------------------|-----------------------------9---|
A|-7-------------------------------|---------------------------------|
E|-----------------7---------------|---------------------------------|


GUITAR SOLO

  01:33

G|---------------------------------|---------------------------------|
D|-7-------7-----------------------|-7-------7-----------------------|
A|-----------------7---------------|-----------------7---------------|
E|---------------------------------|---------------------------------|
   Aaaaaaaaaaaaaaaaaaaaaaaaaaaaaaaaaaaaaaaaaaaaah    Aaaaaaaaaaaah

G|---------------------------------|---------------------------------|
D|-4-------4-----------------------|-4-------4-----------------------|
A|-----------------4---------------|-----------------4---------------|
E|---------------------------------|---------------------------------|
   Aaaaaaaaaaaaaaaaaaaaaaaaaaaaaaaaaaaaaaaaaaaaaaaaaaaaaaaah

G|---------------------------------|---------------------------------|
D|---------------------------------|---------------------------------|
A|-5-------5-----------------------|-5-------5---------------5-------|
E|-----------------5---------------|-----------------5---------------|
   Aaaaaaaaaaaaaaaaaaaaaaaaaaaaaaaaaaaaaaaaaaaaah    Aaaaaaaaaaaah

G|---------------------------------|---------------------------------|
D|---------------------------------|---------6-----------------------|
A|-7-------7-----------------------|-7---9-----------7---------------|
E|-----------------7---------------|---------------------------------|
   Aaaaaaaaaaaaaaaaaaaaaaaaaaaaaaaaaaaaaaaaaaaaaaaaaaaaaaaah

G|---------------------------------|---------------------------------|
D|-7-------7-----------------------|-7-------7-----------------------|
A|-----------------7---------------|-----------------7---------------|
E|---------------------------------|---------------------------------|
   Aaaaaaaaaaaaaaaaaaaaaaaaaaaaaaaaaaaaaaaaaaaaah    Aaaaaaaaaaaah

G|---------------------------------|---------------------------------|
D|-4-------4-----------------------|-4-------4-----------------------|
A|-----------------4---------------|-----------------4---------------|
E|---------------------------------|---------------------------------|
   Aaaaaaaaaaaaaaaaaaaaaaaaaaaaaaaaaaaaaaaaaaaaaaaaaaaaaaaah

G|---------------------------------|---------------------------------|
D|---------------------------------|---------------------------------|
A|-5-------5-----------------------|-7-------7-----------5---4-------|
E|-----------------5---------------|-----------------7-----------7---|
   Aaaaaaaaaah     aaaaaaaaaah       aaaaaaaaaah     aaaaaaaaaah

G|---------------------------------|---------------------------------|
D|---------------------------------|---------------------------------|
A|---------------------------------|-------------------------6-------|
E|-5-------5-------5-------5-------|-7-------7-------9---------------|
   Aaaaaaaaaaaaaaah        aaaaah    aaaaaaaaaah     aaaaaaaaaah

VERSE

  01:54

G|---------------------------------|---------------------------------|
D|---------------------------------|---------------------------------|
A|-7-------------------------------|-7-------7-----------------------|
E|-----------------7---------------|-------------------------4-------|
                   We  would   shout

G|---------------------------------|---------------------------------|
D|---------------------------------|---------------------------------|
A|-4-------------------------------|-4-------4---------------2-------|
E|-----------------4---------------|---------------------------------|
           and        swim about                                 the

G|---------------------------------|---------------------------------|
D|---------------------------------|---------------------------------|
A|-----------------7---------------|-----------------7---------------|
E|-5-------------------------------|-5-----------------------5-------|
   coral                  that lies              beneath     the waves

G|---------------------------------|---------------------------------|
D|---------------------------------|---------------------------------|
A|-------------------------6-------|-7-----------------------6-------|
E|-7-------7-------9---------------|---------7-------9---------------|
  (Lies            beneath                   the     ocean

G|---------------------------------|---------------------------------|
D|---------------------------------|---------------------------------|
A|-7-------7-----------------------|-7---------------6---------------|
E|-----------------7---------------|---------------------------------|
   waves)          Oh, what    joy                               for

G|---------------------------------|---------------------------------|
D|---------------------------------|---------------------------------|
A|-4-------------------------------|-4-------4-------2---------------|
E|-----------------4---------------|---------------------------------|
   ev’ry          girl and     boy

G|---------------------------------|---------------------------------|
D|---------------------------------|---------------------------------|
A|-----------------7---------------|---------4-------7-------4-------|
E|-5-------------------------------|-5-------------------------------|
   knowing                 they’re   happy           and they’re

G|---------------------------------|---------------------------------|
D|---------------------------------|---------------------------------|
A|-----------------9---------------|-------------------------6-------|
E|-7-------------------------------|-7---------------9---------------|
   safe
  (Happy                             and             they’re

PRE-CHORUS

  02:15

G|---------------------------------|---------------------------------|
D|---------------------------------|---------------------------------|
A|---------------------------------|---------------------------------|
E|-9-------------------------------|---------------------------------|
   safe)           We      would     be                      so

G|---------------------------------|---------------------------------|
D|---------------------------------|---------------------------------|
A|---------------------------------|---------------------------------|
E|-------------------------4-------|-9-------9-------7-------7-------|
   happy           you and     me

G|---------------------------------|---------------------------------|
D|---------------------------------|---------------------------------|
A|---------------------------------|---------------------------------|
E|-5-------------------------------|---------------------------------|
   no      one     there       to   tell us          what    to  do

G|---------------------------------|---------------------------------|
D|---------------------------------|---------------------------------|
A|---------------------------------|-------------------------6-------|
E|-7-------7-------7-------7---7---|-----7---7-------9---------------|


CHORUS

  02:25

G|---------------------------------|---------------------------------|
D|---------------------------------|---------------------------------|
A|-7-------------------------------|-7-------7-------6---------------|
E|-----------------7---------------|---------------------------------|
           I’d     like    to  be

G|---------------------------------|---------------------------------|
D|---------------------------------|---------------------------------|
A|-4-------------------------------|-4---------------2---------------|
E|-----------------4---------------|---------------------------------|
           under       the     sea                           in  an

G|---------------------------------|---------------------------------|
D|---------------------------------|---------------------------------|
A|-----------------7---------------|-------------------------6-------|
E|-5-------------------------------|-7---------------9---------------|
   octopus’s                   garden                    with    you

G|---------------------------------|---------------------------------|
D|---------------------------------|---------------------------------|
A|-7-------------------------------|---------------------------------|
E|-----------------7---------------|-9---------------7---------------|
                                                             in  an

G|---------------------------------|---------------------------------|
D|---------------------------------|---------------------------------|
A|-----------------4-------7-------|-----------------6-------9-------|
E|-5-------------------------------|-7-------------------------------|
   octopus’s                   garden                    with    you

G|---------------------------------|---------------------------------|
D|---------------------------------|---------------------------------|
A|---------------------------------|---------------------------------|
E|-9-------9-------9-------9-------|-9-------7-------7-------7-------|
                                                             in  an

G|---------------------------------|---------------------------------|
D|---------------------------------|---------------------------------|
A|-----------------7---------------|-----------------6---------------|
E|-5-------------------------------|-7-------------------------------|
   octopus’s                   garden                    with    you

G|---------------------------------|---------------------------------|
D|---------------------------------|---------------------------------|
A|-7---------------\---------------|---------6-------7---------------|
E|---------------------------------|---------------------------------|

6) I Want You (She's So Heavy)


  E|-------------------------------|





  G|-------------------------------|-------------------------------|
  D|-------------------------------|----------------5---------7----|
  A|-5--------------7--------------|-8-----------------------------|
  E|-------------------------------|-------------------------------|





  G|-------------------------------|-------------------------------|
  D|-------------------------------|-------------------------------|
  A|-7---------x-\-----------------|---------------------3----5----|
  E|---------------------8----7----|-6-----------------------------|





  G|---------------------6----9----|
  D|----------------7--------------|
  A|-0-----------------------------|
  E|-------------------------------|





  G|-7--------------9--------------|-------------------------------|
  D|-------------------------------|----------------5---------7-\--|
  A|-------------------------------|-8-----------------------------|
  E|-------------------------------|-------------------------------|





  G|-------------------------------|-------------------------------|
  D|-------------------------------|-------------------------------|
  A|-7-----------------------------|---------------------3----5----|
  E|---------------------8----7----|-6-----------------------------|





  G|-------------------------------|
  D|--------------x-\-x-\-x-\------|
  A|-0-----------------------------|
  E|-------------------------------|





  G|-------------------------------|-------------------------------|
  D|-------------------------------|-------x-\-/----5---------7----|
  A|-5--------------7--------------|-8-----------------------------|
  E|-------------------------------|-------------------------------|





  G|-------------------------------|-------------------------------|
  D|-------------------------------|-------------------------------|
  A|-7-----------------------------|---------------------3----5----|
  E|---------------------8----7----|-6-----------------------------|





  G|-------------------------------|
  D|-------------------------------|
  A|-0-----------------------------|
  E|-------------------------------|





  G|-------------------------------|-------------------------------|
  D|-------------------------------|----------------5---------7----|
  A|-5--------------7--------------|-8-----------------------------|
  E|-------------------------------|-------------------------------|





  G|-------------------------------|-------------------------------|
  D|-------------------------------|-------------------------------|
  A|-7-----------------------------|---------------------3----5----|
  E|---------------------8----7----|-6-----------------------------|





  G|-------------------------------|
  D|-------------------------------|
  A|-0-----------------------------|
  E|-------------------------------|





  G|-------------------------------|-------------------------------|
  D|-------------------------------|----------------5---------7----|
  A|-5--------------7--------------|-8-----------------------------|
  E|-------------------------------|-------------------------------|





  G|-------------------------------|-------------------------------|
  D|-------------------------------|-------------------------------|
  A|-7-----------------------------|---------------------3----5----|
  E|---------------------8----7----|-6-----------------------------|





  G|-------------------------------|
  D|-------------------------------|
  A|-0-----------------------------|
  E|-------------------------------|





  G|-------------------------------|-------------------------------|
  D|-------------------------------|----------------5---------7----|
  A|-5--------------7--------------|-8-----------------------------|
  E|-------------------------------|-------------------------------|





  G|-------------------------------|-------------------------------|
  D|-------------------------------|-------------------------------|
  A|-7-----------------------------|---------------------3----5----|
  E|---------------------8----7----|-6-----------------------------|





  G|-------------------------------|
  D|-------------------------------|
  A|-0-----------------------------|
  E|-------------------------------|





  G|-------------------------------|-------------------------------|
  D|-------------------------------|----------------5---------7----|
  A|-5--------------7--------------|-8-----------------------------|
  E|-------------------------------|-------------------------------|





  G|-------------------------------|-------------------------------|
  D|-------------------------------|-------------------------------|
  A|-7-----------------------------|---------------------3----5----|
  E|---------------------8----7----|-6-----------------------------|





  G|-------------------------------|
  D|-------------------------------|
  A|-0-----------------------------|
  E|-------------------------------|





  G|-------------------------------|-------------------------------|
  D|-------------------------------|----------------5---------7----|
  A|-5--------------7--------------|-8-----------------------------|
  E|-------------------------------|-------------------------------|





  G|-------------------------------|-------------------------------|
  D|-------------------------------|-------------------------------|
  A|-7-----------------------------|---------------------3----5----|
  E|---------------------8----7----|-6-----------------------------|





  G|-------------------------------|
  D|-------------------------------|
  A|-0-----------------------------|
  E|-------------------------------|

7) Here Comes The Sun

bass comes in at exactly 23 seconds into the song

G-------------------|-------------------------------------------|
D-----------------2-|--7--7--7--7---7-777----------------6---6--|
A---------------2---|--0--0-----0-----------5-555-77-7-9---9---7|
E-10-9-7-5-0-4------|-------------------------------------------|

G-----------------------------|---------------------------------|
D-7-777-7-777-----------------|-7-5-7--------6----6-------------|
A--------------5-555-5-5-4-5-6|-------7--7-9---9----7-----------|
E-----------------------------|---------------------------------|

G---------------------------|------------------|--------------|.|
D-7--7-7--7-7-7-------------|-----------------2|-7-777-7------| |(reapet from little
A-0----0--------5-5-5-5-7-7-|--------------2---|----------5---|.|darling 1X)
E---------------------------|10-9-7-5-0-4------|--------------| |

At about 1:30 into song play this
G-5----------------------|----------------------4-|.|
D---5-4----4-7-----------|-7-7-7--------------6---| |(reapet 6x but on sixth time
A--------5---------------|-------5--7-7-7---7-----|.|play the bottom riff instead
E------------------------|------------------------| |of the second half of sun sun
                                                     here it comes riff.)

G------------------------|--------------------------------|
D------------------------|-7-777-7-777-------------6---6--|
A-7-7-7-7-7-7-7-7-7-7-7-7|-------------5-555-77-7-9--9---7|
E------------------------|--------------------------------|

G----------------------------|------------------------|
D-7-777-7-777----------------|-7-5-7---------6---6----|
A-------------5-555-5-5-4-5-6|--------7--7-9---9----7-|
E----------------------------|------------------------|

G----------------------------|--------------------|.|
D-7--7-7--7-7-7--------------|----------------2---| |Reapet from here comes the sun
A-0----0--------5-5-5-5-7-7--|--------------2-----|.|
E----------------------------|10-9-7-5-0-4--------| |

G-------------------|------------|Coda(finish)
D---------------2---|------------|
A-------------2-----|-3----------|
E10-9-7-5-0-4-------|------------|

8) Because

Because Bass Tab
Intro    0:24 Bass enters in the song
G-------------|----------7--------------------------|
D-------------|-------------------6-----------------|
A-------------|---5---------4---------7-----4-------|
E-------------|-------------------------------------|

G--------------------------------|
D---6--------------------4-------|
A--------7----6-----7---------6--|
E--------------------------------|

G------------------------------------------------------|
D----------7---------------------------------7---------|
A-------------7------4-----7----4----------------------|
E--4---5-------------------------------5---------------|

G-------------7--------------------------|
D----------------------6-----------------|
A------5---------4---------7-----4-------|
E----------------------------------------|

G--------------------------------|
D---6--------------------4-------|
A--------7----6-----7---------6--|
E--------------------------------|

G------------------------------------------------------|
D----------7---------------------------------7---------|
A-------------7------4-----7----4----------------------|
E--4---5--------------------------5---5----------------|

G-------------7------|
D--------------------|
A------5-------------|
E--------------------|


The «Love is...» part*

G--------------------------------------------------------|
D---4-------------4-----4--------4---6--------4----6—-6--|
A------------4----------------4----------4---------------|
E--------------------------------------------------------|

G--------------------------------------|
D--------------------6-----------------|
A--------------4---------7-----4-------|
E--------------------------------------|

G--------------------------------|
D---6--------------------4-------|
A--------7----6-----7---------6--|
E--------------------------------|

G------------------------------------------------------|
D----------7------------------------------7------------|
A-------------7------4-----7----4----------------------|
E--4---5--------------------------5---5----------------|

G-------------7-----|
D-------------------|
A------5------------|
E-------------------|

9) You Never Give Me Your Money

Bass enters at about 46 seconds:

  “I never give you my number…”
G|----------------------------------|
D|-------------------------2-3------|
A|----------------5------5----------|
E|-5--------------------------------|

  “I only give you my situation…”
G|---------------------------------|
D|-5--------------0--2-------------|
A|----------3--3-------------------|
E|---------------------------------|

  “and in the middle of investigation…”
G|----------------------------------|
D|-3-----------0-2------------------|
A|---------2-3----------------------|
E|------------------0---------------|

“I break down”
G|----------------------------------|
D|---------------5-3-2--------------|
A|---------------------5------------|
E|-5--------------------------------|

“Out of college, money spent…”
G|-------------------|
D|--------------6----|
A|---7-11-7-7-9---7--|
E|-8-----------------|

“See no future, pay no rent…”
G|--------------------|
D|-7-9-10-7-10-8-7-5--|
A|--------------------|
E|--------------------|

“All the money’s gone, no where to go”
G|--------------------|
D|---5-----5-----5----|
A|-8---7-8---8-7------|
E|--------------------|

G|--------------------|
D|-----5-7-8-7-5------|
A|---7-----------7----|
E|-8------------------|

“Any jobber got the sack…”
G|-------------------|
D|--------------6----|
A|---7-11-7-7-9---7--|
E|-8-----------------|

“Monday morning, turning back…”
G|--------------------|
D|-7-9-10-7-10-8-7-5--|
A|--------------------|
E|--------------------|

“Yellow lorry slow, nowhere to go”
G|--------------------|
D|---5-7---5----------|
A|-8-----8---8-7-5----|
E|--------------------|

G|--------------------|
D|-----5-7-8-7-5------|
A|---7-----------7----|
E|-8------------------|

 “But oh that magic feeling, nowhere to go…”
G|--------------------------------|
D|--------------------------------|
A|------------8----8--------------|
E|-6----6----------------8----8---|

 “Oh that magic feeling, nowhere to go…”
G|--------------------------------|
D|--------------------------------|
A|--------------------------------|
E|-6----6----1----1----8---8------|

G|--------------------------------|
D|--------------------------------|
A|--------------------------------|x4
E|-6----6----1----1----8----8-----|

Guitar Jam:
G|-------------------------------------|
D|-------------------------------------|
A|------------------5-5-5-5-5555555----|
E|-8-8-8-8-8888888---------------------|

G|-------------------------------------|
D|-------------------------------------|
A|-6-6-6-6-11-11-11-11-11-11-----------|
E|-------------------------------------|

G|------------------------------------------------|
D|------7-------11-------13-------16-17-18-19\----|
A|-11--------6--------9-------12------------------|
E|------------------------------------------------|

“One Sweet Dream…”
G|-----------------------------|
D|-----------------------------|
A|--------------222-222-2-2-2--|
E|-5-5-5-5555------------------|

“Pick up your bags and get in the limousine…”
G|---------------------------------------------|
D|---------2-2-2-2------------------4-7--------|
A|-3-3-3-5----------------------4-7-----4------|
E|-----------------5-5-5-5-55-5----------------|

“Soon we’ll be away from here…”
G|----------------------|
D|-----------12-12-12---|
A|-5---5----------------|
E|----------------------|

“Step on the gas and wipe that tear away”
G|---------------------------|
D|---------------------------|
A|-5---5----/12--------------|
E|----------------5-5-5-5----|

“One sweet dream came true… today”
G|-----------------------|
D|--------------4--7-----|
A|-3---2------4----------|
E|----------5------------|

G|-----------------------|
D|--------------4--7-----|
A|-3---2------4----------|
E|----------5------------|

Throw this in after the 4th time
G|------------------|
D|-7777777777-------|
A|------------------|
E|------------------|

FADE OUT

10) Sun King

INTRO

G|-------------9---9---------------|-------------9-9-9---------------|
D|---------------------------------|---------------------------------|
A|-7-------------------------------|-7-------------------------------|
E|---------------------------------|---------------------------------|

G|-------------9---9---------------|-------------9-9-9---------------|
D|---------------------------------|-----------------------------9---|
A|-7-------------------------------|-7-------------------7---11------|
E|---------------------------------|---------------------------------|

G|-------------9---9---------------|-------------9---9---------------|
D|---------------------------------|-------------------------9\------|
A|-9-------------------------------|-9-------------------------------|
E|---------------------------------|---------------------------------|

G|-------------9---9---------------|-------------9-------------------|
D|---------------------------------|-----------------6---7---9-------|
A|-7-------------------------------|-7---------------------------9---|
E|---------------------------------|---------------------------------|

G|-------------9---9---------------|-------------9---9---------------|
D|---------------------------------|-------------------------9\------|
A|---------------------------------|-9-------------------------------|
E|---------------------------------|---------------------------------|

G|-------------9---9---------------|-------------9-9-9---------------|
D|---------------------------------|---------------------6---7---9---|
A|-7-------------------------------|-7-------------------------------|
E|---------------------------------|---------------------------------|

G|-------------9---9---------------|-------------9-9-9---------------|
D|---------------------------------|-------------------------9\------|
A|-9-------------------------------|-9-------------------------------|
E|---------------------------------|---------------------------------|

G|-------------9---9---------------|-----------------9---------------|
D|---------------------------------|-------------9-----------9-------|
A|-7-------------------------------|-7-------------------------------|
E|---------------------------------|---------------------------------|

G|---------------------------------|---------------------------------|
D|-5-------------------------------|---------------------------------|
A|---------------------------------|---------------------------------|
E|---------------------------------|---------------------------------|

VERSE

G|---------------------------------|---------------------------------|
D|---------------------------------|-----------------------------3---|
A|-3-------------------------------|-3-------------------------------|
E|---------------------------------|---------------------------------|

G|---------------------------------|---------------------------------|
D|-5-------------------------------|-7-------------------------------|
A|---------------------------------|-----------------7-------4---7---|
E|---------------------------------|---------------------5-----------|

G|---------------------------------|---------------------------------|
D|---------------------------------|-------------------------2-------|
A|-3-------------------------------|-3-------------------------------|
E|---------------------------------|---------------------------------|

G|---------------------------------|-2-----------2---2---------------|
D|-5-----------5---5-------2-------|---------------------------------|
A|---------------------------------|---------------------------------|
E|---------------------------------|---------------------------------|

G|---------------------------------|---------------------------------|
D|-3-----------3---3---------------|-----------------------------2---|
A|---------------------------------|-5-----------5---5---------------|
E|---------------------------------|---------------------------------|

G|---------------------------------|-------------7-------------------|
D|-3-----------3-------------------|---------------------------------|
A|---------------------------------|-5---------------5---------------|
E|---------------------------------|---------------------------------|

G|---------------------------------|---------------------------------|
D|---------------------------------|-2-----------------------3---5---|
A|-3-----------3---3-------5-------|---------------------------------|
E|---------------------------------|---------------------------------|

G|---------------------5-----------|---------------------------------|
D|-----------------5/7-----7---5---|-3-----------3---3-------5-------|
A|-3-------------------------------|---------------------------------|
E|---------------------------------|---------------------------------|

VERSE

G|---------------------------------|---------9-9-9-9-9---------------|
D|-7-------------------------------|-------------------------9\------|
A|---------------------------------|---------------------------------|
E|---------------------------------|---------------------------------|

G|-------------9---9---------------|-------------------------9-------|
D|---------------------------------|-------------6---7---9-------9---|
A|-7-------------------------------|---------------------------------|
E|---------------------------------|---------------------------------|

G|-------------9---9---------------|---------9-9-9-9---9-------------|
D|---------------------------------|-------------------------9\------|
A|-7-------------------------------|-7-------------------------------|
E|---------------------------------|---------------------------------|

G|-------------9-9-9---------------|-------------9-------------------|
D|---------------------------------|-----------------6---7---9-------|
A|-7-------------------------------|-----------------------------9---|
E|---------------------------------|---------------------------------|

G|-------------9---9---------------|-----9-------9-------9-----------|
D|---------------------------------|-------------------------9\------|
A|-7-------------------------------|-7-------7-------7---------------|
E|---------------------------------|---------------------------------|

G|-------------9-9-9---------------|---------------------------------|
D|-------------------------9\------|---------------------------------|
A|-7-------------------------------|-7-------------------------------|
E|---------------------------------|---------------------------------|

11) Mean Mr. Mustard

|--------------------------------------|
|--------------------------------------|
|--77----77----77----77-x-767-x-9----99|
|-----77----77----77--------------77---|

|--------------------------------------------|
|-----------77-------------------------------|
|----------------------------99---------6----|
|-77-78910-----1010-1098-77-------77-79---7--|


|-------------------------------------------------|
|-------------------------------------------------|
|--77------------6----77---------------7----77----|
|-----88--77--79---7-----88---77--679-----------77|


|--------------------------------------------------|
|-------------------------------------------77-----|
|-77----77----77-x-767-x-9-----99------------------|
|----77----77---------------77----77-78910---------|

|--------------------------------------------------|
|--------------------------------------------------|
|------------99-------6----7--------6--7---------67|
|-1010-10987----77-79---7----8-9-79------8-9-79----|

12) Polythene Pam

 Intro
  Q=155
 4/4

  W          E E Q  E Q.    W          E E Q  H
|----------|--------------|----------|-------------|
|----------|--------------|----------|-------------|
|----------|---7-7--7s3s==|=7--------|---7-7--7----|
|----------|--------------|----------|-------------|


   Verses 1/2
    H    Q.   E   +E  E Q  E E Q     H    Q.   E   +E  E Q  E E Q
||--------------|------------------|-------------|------------------|
||o-------------|------------------|-------------|------------------|
||o-5---------7-|-(7)-7-7--7---7\--|-5---------7-|-(7)-7-7--7---7\--|
||-------5------|------------------|------5------|------------------|


  Q.   E E E E E   E E Q  Q  Q     H    Q.   E   +E  E Q  Q  Q
|----------------|---------------|-------------|------------------|
|-5----5-----7s9-|-9-9-9--9------|-------------|------------------|
|----------5-----|---------------|-3----5----7-|-(7)-7-7--7-------|
|----------------|-----------7\--|-------------|-------------7\---|


  H    Q.   E   +E  E Q  Q  E E   W          E E Q  E Q.
|-------------|-----------------|----------|-----------------|
|-------------|-----------------|----------|-----------------|
|-3----5----7-|-(7)-7-7--7--7s3s|=7--------|---7-7--7s3s==---|
|-------------|-----------------|----------|-----------------|

   Q   +Q    H      E E Q  E E Q
|-----------------|------------------|
|-----------------|------------------|o
|-19--(19)\-------|---7-7--7---7\----|o
|-----------------|------------------|


 Guitar Solo

  E E Q  E E Q     H    Q.   E   E E Q  Q  Q
|----------------|-------------|-----------------|
|----------------|-------------|-----------------|
|---7-7--7---7\--|-5---------5h|~7-7-7--7--7\----|
|----------------|------5------|-----------------|


  H    Q.   E   E E Q  Q  Q     H    Q.   E   E E Q  Q  Q
|-------------|---------------|-------------|----------------|
|-------------|---------------|-------------|----------------|
|-5---------5h|=7-7-7--7--7\--|-5---------5h|~7-7-7--7--7\---|
|------5------|---------------|------5------|----------------|


                                          ~~
  H    Q.   E   E E Q  Q  Q     H    Q.   E   E E Q  Q  Q
|-------------|---------------|-------------|----------------|
|-------------|---------------|-------------|----------------|
|-5---------5h|=7-7-7--7--7\--|-5---------5h|~7-7-7--7--7\---|
|------5------|---------------|------5------|----------------|


  H    Q.   E   E E Q  Q  Q     H    Q.   E   E E Q  Q  Q
|-------------|---------------|-------------|----------------|
|-------------|---------------|-------------|----------------|
|-5---------5h|=7-7-7--7--7\--|-5---------5h|~7-7-7--7--7\---|
|------5------|---------------|------5------|----------------|


  H    Q.   E   E E Q  Q  Q     H    Q.   E   E E Q  E E E E
|-------------|---------------|-------------|-----------------|
|-------------|---------------|-------------|-----------------|
|-5---------5h|=7-7-7--7--7\--|-5---------5h|~7-7-7--7---5-6--|
|------5------|---------------|------5------|----------7------|


 Outro
  E E E E E E E E   E E E Q  E E E   E E E Q  E E E   E E E Q  E E E
|-----------------|----------------|----------------|-----------------*
|-----------------|----------------|----------------|-----------------*
|-7-7-7-7-7-7-7-7-|-5-5-5-5--5-5-5-|-4-4-4-4--4-4-4-|-2-2-2-2--2-2-2--*
|-----------------|----------------|----------------|-----------------*

13) She Came In Through The Bathroom Window

--------------------|
--------------------|
-7-5-4-2-22-222/12--|
--------------------|

Verse
----------------------------4----------------|
---4-7-77-4/-----4------4-7---7-4-----4------|
-5-----------0-4---4--5-----------0-4---7----|
---------------------------------------------|

-----------------------|
-----4-777-------------|
-5-7-------5-5-5-555/0-|
-----------------------|

Chorus
------------------------------------------------|
-------5-7--------------------------------------|
-5-7-8-----7/-4-0--5-3-2-0----2-5-----2-3--2--0-|
----------------------------3-----3h5-----------|

-----------------2--|
-----5/------2-5----|
---5----2--3--------|
-3------------------|

Verse
------------------------------------------4---------------|
-------4h7p4/------2-24-42-----4-7-7----7--------2-24-42--|
-5-55-5--------0-04-------4-05------5-5------0-04-------4-|
----------------------------------------------------------|

------------4------------4-4h5-7-4---------|
-----4-7------7-4----4-7-----------7-4/----|
-05-5----05-------05--------------------0--|
-------------------------------------------|

Play first verse again, adding this in for last.
-------------------4-7-4-------|
-----4-777-----4-7-------7/----|
-5-7-------5-5-------------0---|
-------------------------------|

Chorus
---------------------------------------------|
-------5-7------------------------5----------|
-5-7-8-----7/-4-0--5-3-2-0----2-5----3--2--0-|
----------------------------3----------------|

-----------------2--|
-----5/------2-5----|
---5----2--3--------|
-3------------------|

14) Golden Slumbers

Bass comes in on 2nd measure
G----------|----------|----------|----------|----------|
D-4/7------|----------|----------|----------|-2/5------|
A----------|----------|-2/5------|----------|----------|
E----------|----------|----------|----------|----------|

G----------|----------|---TWO----|------4---|----------|
D------2---|-7--------|---BEAT---|-5-7----5-|----------|
A-3--------|------5---|-MEASURE--|----------|-3--------|
E----------|----------|----------|----------|----------|

G----------|----------|----------|----------|----------|
D----0h2h5-|-3-30h2h5-|----0h2h5-|----0h2h5-|-3-30h2h5-|
A-3-3-----3|---------3|-3-3-----3|-3-3-----3|---------3|
E----------|----------|----------|----------|----------|

G----------|----------|---TWO----|------4---|----------|
D----------|----------|---BEAT---|-5-7----5-|----------|
A-3-3--2-2-|------5---|-MEASURE--|----------|-3--------|
E----------|-5-5------|----------|----------|----------|

G----------|----------|----------|-7--------|----------|
D-5/7------|----------|----------|---------5|-5----5-5-|
A----------|----------|-5--------|--5---5/7-|----------|
E----------|-5--------|----------|----------|----------|

G----------|----------|-2-2-\7---|---TWO----|------4-7\|
D-5\-------|------2-2-|--------5-|---BEAT---|-5-7------|
A----------|-3-3------|----------|-MEASURE--|----------|
E----------|----------|----------|----------|----------|

G----------|
D----------|  To "Carry That Weight"
A-3--------|
E----------|

15) Carry That Weight

Chorus:
This rhythm comes up a few times. It's 1  &  2 e &  3  &  4 e &
G|---5--------------5------------|-----------------------------------------|
D|-------------5-------------5---|--5-------------5------------------------|
A|------3--5s7---------3--5s7----|----------2-5-----------2-5--------------|
E|-------------------------------|-----3--3----------3--3------------------|

G|------------------------------|-------------------------------|
D|----------2-5----------2-5----|----------2-5----------2-5-----|
A|--3--3--3------3--3--3--------|--3--3--3------3--3--3---------|
E|------------------------------|-------------------------------|

        Now repeat first the two measures WITHOUT the last measure

0:24
G|------------------|-------|----------------------|------|
D|--Quarter notes---|-5s7---|--5h7----------2--3--4|-5----|
A|---3---3---2---2--|-------|---------5------------|------|
E|------------------|-------|----------------------|------|
Guitar solo-->
G|----------------------5-|---------|-------------------------|-------|
D|--------------5---5-7---|---------|-----------------4--5--6-|-7-----|
A|-3---5-5s7--------------|-8-----8-|--------5--6--7----------|-------|
E|------------------------|---------|--7--8-------------------|----5\-|
  "I never..."
G|---------|-----------------|----------|-------------------5------|
D|-/7------|-5h7-----------7-|-5--------|------------5--5h7--------|
A|---------|------5--5-5h8---|----------|-3---5--7-----------------|
E|---------|-----------------|----------|--------------------------|
 "And in the ..."
G|----------|-----------------------|---------|--------------------------|
D|----------|----------------4--5--6|-7-------|-----5--------5-5-5-3-3---|
A|-8-----8--|-------5--6--7---------|---------|--------------------------|
E|----------|-7--8------------------|-------5-|--------------------------|

Now play the chorus

G|-----------|---------------|-------------|-----------------------------|
D|-----------|---------------|-------------|--7------7-------------------|
A|-3---2---2-|-0----0/12--12\|--3----2----2|-----------------------------|
E|-----------|---------------|-------------|-----------------------------|

16) The End

G--------------|-------------------------|       |
D--------------|-------------------------|-Drums-|
A---5-----7----|------4-5-6-7-9----7-5---|       |
E-5-----5------|-5---7-----------------5-|       |

G--------------|-------------------------|       |
D--------------|-------------------------|-Drums-|
A---5-----7----|------4-5-6-7-9----7-5---|       |
E-5-----5------|-5---7-----------------5-|       |

After Second Drum Solo Play (x14)
G-----------------|-----------------|
D-----------------|-----------------| End on A-note
A-----------3---3-|-5-5-5-5---5-5-3-|
E-5-5-5-5-5---5---|-----------------|

17) Her Majesty

NO BASS

| /  slide up
| \  slide down
| h  hammer-on
| p  pull-off
| ~  vibrato
| +  harmonic
| x  Mute note

Cheers.
comments
We did not receive enough feedback on this tab! Please rate:
print report bad tab
1 2 3 4 5
I want to post or [tab]
guest
You may want to rate the tab now too:
select rating
Please do not post tabs as comments. Select "correction" instead!