Oops, an error
Loading. Please wait.

Abbey Road Tab

ver2
ver2

Album

More versions @911Tabs.com
57,395 views 30 this week
5 commentsread comments
1 2 3 4 5
accurate
x 3
add to favorites launch autoscroll
font size
0
reset
Autoscroll
+/-
esc
set tempo
stop
Contributor
Difficulty
intermediate
WARNING: You are trying to view
                                    content from Ultimate-Guitar.com
                                    in an unauthorized application,
                                    which is prohibited.

                                    Please use an official Ultimate
                                    Guitar Tabs application for iPhone,
                                    iPad or Android to access legitimate
                                    chords, guitar, bass, and drum tabs
                                    from Ultimate-Guitar.com database.

                                    Type "ultimate guitar tabs" in Apple
                                    App Store's or Android Market's
                                    search to find the application.
i didn't tab any of this. i just took the best of these songs

1.Come Together (PJVILL)
2.Something (PJVILL)
3.Maxwell's Silver Hammer (PJVILL)
4.Oh! Darling (PJVILL)
5.Octopus' Garden (PJVILL)
6.I Want You (She's So Heavy) (PJVILL)
7.Here Comes the Sun (Unregistered)
8.Because (Unregistered)
9.You Never Give Me Your Money (PJVILL)
10.Sun King (PJVILL)
11.Mean Mr. Mustard (PJVILL)
12.Polythene Pam (PJVILL)
13.She Came in Through the Bathroom Window (PJVILL)
14.Golden Slumbers (Unregistered)
15.Carry That Weight (theblackvegtab)/(Unregistered)
16.The End (yucrying)
17.Her Majesty (Unregistered)

-------------------------------------------------------------------

    THE BEATLES - COME TOGETHER (Lennon/McCartney). From ABBEY ROAD
                  album. Released on 26th September 1969.

-------------------------------------------------------------------

    Tabbed by:PJVillanueva

e|------- ------- ------- -------|------- ------- ------- -------|
B|-------------------------------|-------------------------------|
G|------------5------------------|----------------5--------------|
D|--------5H7--------------------|--------5H7--------------------|
A|5---5--------------------------|5---5--------------------------|
E|-------------------------------|-------------------------------|
  Shoot me                        Shoot me


e|------- ------- ------- -------|------- ------- ------- -------|
B|-------------------------------|-------------------------------|
G|------------5------------------|----------------5--------------|
D|--------5H7--------------------|--------5H7--------------------|
A|5---5--------------------------|5---5--------------------------|
E|-------------------------------|-------------------------------|
  Shoot me                        Shoot me


e|------- ------- ------- -------|------- ------- ------- -------|
B|-------------------------------|-------------------------------|
G|-------------------------------|-------------------------------|
D|7---7---9---9---7---7---9---9--|7---7---9---9---7---7---9---9--|
A|5---5---5---5---5---5---5---5--|5---5---5---5---5---5---5---5--|
E|-------------------------------|-------------------------------|
    Here come old flattop he come    grooving up  slowly  He  got


e|------- ------- ------- -------|------- ------- ------- -------|
B|-------------------------------|-------------------------------|
G|-------------------------------|-------------------------------|
D|7---7---9---9---7---7---9---9--|7---7---9---9---7---7---9---9--|
A|5---5---5---5---5---5---5---5--|5---5---5---5---5---5---5---5--|
E|-------------------------------|-------------------------------|
      joo  -  joo eyeball he  one     holly       roller  He  got


e|------- ------- ------- -------|------- ------- ------- -------|
B|-------------------------------|-------------------------------|
G|-------------------------------|-------------------------------|
D|-------------------------------|-------------------------------|
A|7---7---9---9---7---7---9---9--|7---7---9---9---7---7---7---7-\|
E|5---5---5---5---5---5---5---5--|5---5---5---5---5---5---5---5-\|
      hair        down            to      his knee


  X     X X       X     X X       X     X X       X     X X

e|------- ------- ------- -------|------- ------- ------- -------|
B|-------------------------------|-------------------------------|
G|-------------------------------|-------------------------------|
D|-------------------------------|-------------------------------|
A|5------------------------------|-------------------------------|
E|3------------------------------|-------------------------------|
  Got to  be  a   joker   he just do what he  please


e|------- ------- ------- -------|------- ------- ------- -------|
B|-------------------------------|-------------------------------|
G|------------5------------------|----------------5--------------|
D|--------5H7--------------------|--------5H7--------------------|
A|5---5--------------------------|5---5--------------------------|
E|-------------------------------|-------------------------------|
  Shoot me                        Shoot me


e|------- ------- ------- -------|------- ------- ------- -------|
B|-------------------------------|-------------------------------|
G|------------5------------------|----------------5--------------|
D|--------5H7--------------------|--------5H7--------------------|
A|5---5--------------------------|5---5--------------------------|
E|-------------------------------|-------------------------------|
  Shoot me                        Shoot me


e|------- ------- ------- -------|------- ------- ------- -------|
B|-------------------------------|-------------------------------|
G|-------------------------------|-------------------------------|
D|7---7---9---9---7---7---9---9--|7---7---9---9---7---7---9---9--|
A|5---5---5---5---5---5---5---5--|5---5---5---5---5---5---5---5--|
E|-------------------------------|-------------------------------|
      He wear no shoeshine he got     toe  - jam football He got

e|------- ------- ------- -------|------- ------- ------- -------|
B|-------------------------------|-------------------------------|
G|-------------------------------|-------------------------------|
D|7---7---9---9---7---7---9---9--|7---7---9---9---7---7---9---7--|
A|5---5---5---5---5---5---5---5--|5---5---5---5---5---5---5---5--|
E|-------------------------------|-------------------------------|
      monkey      finger  he shoot    coca    -   cola    He say

e|------- ------- ------- -------|------- ------- ------- -------|
B|-------------------------------|-------------------------------|
G|-------------------------------|-------------------------------|
D|-------------------------------|-------------------------------|
A|7---7---9---9---7---7---9---9--|7---7---9---9---7---7---9---7--|
E|5---5---5---5---5---5---5---5--|5---5---5---5---5---5---5---5--|
     "I  know you,                you know    me"


  X     X X       X     X X       X     X X       X     X X

e|------- ------- ------- -------|------- ------- ------- -------|
B|-------------------------------|-------------------------------|
G|-------------------------------|-------------------------------|
D|-------------------------------|-------------------------------|
A|5------------------------------|-------------------------------|
E|3------------------------------|-------------------------------|
  One thing I can tell you is you got to  be free         Come together

e|------- ------- ------- -------|------- ------- ------- -------|
B|-------------------------------|-------------------------------|
G|-------------------------------|-------------------------------|
D|9---9---9---9---9---9----------|-------------------------------|
A|9---9---9---9---9---9---9---9--|5---5---5---5-/-7--------------|
E|7---7---7---7---7---7---5---5--|3---3---3---3-/-5--------------|
                          right   now                     over me


e|------- ------- ------- -------|------- ------- ------- -------|
B|-------------------------------|-------------------------------|
G|------------5------------------|----------------5--------------|
D|--------5H7--------------------|--------5H7--------------------|
A|5---5--------------------------|5---5--------------------------|
E|-------------------------------|-------------------------------|
  Shoot me                        Shoot me


e|------- ------- ------- -------|------- ------- ------- -------|
B|-------------------------------|-------------------------------|
G|------------5------------------|----------------5--------------|
D|--------5H7--------------------|--------5H7--------------------|
A|5---5--------------------------|5---5--------------------------|
E|-------------------------------|-------------------------------|
  Shoot me                        Shoot me


e|------- ------- ------- -------|------- ------- ------- -------|
B|-------------------------------|-------------------------------|
G|-------------------------------|-------------------------------|
D|7---7---9---9---7---7---9---9--|7---7---9---9---7---7---9---9--|
A|5---5---5---5---5---5---5---5--|5---5---5---5---5---5---5---5--|
E|-------------------------------|-------------------------------|
      He  bag production  he got      walrus      gumboot He got


e|------- ------- ------- -------|------- ------- ------- -------|
B|-------------------------------|-------------------------------|
G|-------------------------------|-------------------------------|
D|7---7---9---9---7---7---9---9--|7---7---9---9---7---7---9---7-\|
A|5---5---5---5---5---5---5---5--|5---5---5---5---5---5---5---5-\|
E|-------------------------------|-------------------------------|
      Ono        sideboard he one     spinal      cracker He got


e|------- ------- ------- -------|------- ------- ------- -------|
B|-------------------------------|-------------------------------|
G|-------------------------------|-------------------------------|
D|-------------------------------|-------------------------------|
A|7---7---9---9---7---7---9---9--|7---7---9---9---7---7---9---7-\|
E|5---5---5---5---5---5---5---5--|5---5---5---5---5---5---5---5-\|
      feet        down    below           his knee


  X     X X       X     X X       X     X X       X     X X

e|------- ------- ------- -------|------- ------- ------- -------|
B|-------------------------------|-------------------------------|
G|-------------------------------|-------------------------------|
D|-------------------------------|-------------------------------|
A|5------------------------------|-------------------------------|
E|3------------------------------|-------------------------------|
 Hold you in his armchair you can feel his disease        Come together


e|------- ------- ------- -------|------- ------- ------- -------|
B|-------------------------------|-------------------------------|
G|-------------------------------|-------------------------------|
D|9---9---9---9---9---9----------|-------------------------------|
A|9---9---9---9---9---9---9---9--|5---5---5---5-/-7--------------|
E|7---7---7---7---7---7---5---5--|3---3---3---3-/-5--------------|
                          right   now                     over me


                                              xxxxx x   x X X X X

e|------- ------- ------- -------|------- ------- ------- -------|
B|-------------------------------|-------------------------------|
G|------------5------------------|----------------5--------------|
D|--------5H7--------------------|--------5H7--------------------|
A|5---5--------------------------|5---5--------------------------|
E|-------------------------------|-------------------------------|
                                  Shoot me
e|------- ------- ------- -------|------- ------- ------- -------|
B|------------6------------------|----------------6--------------|
G|------------5------------------|----------------5--------------|
D|------------7------------------|----------------7--------------|
A|-------------------------------|-------------------------------|
E|-------------------------------|-------------------------------|

e|------- ------- ------- -------|------- ------- ------- -------|
B|-------------------------------|-------------------------------|
G|-------------------------------|-------------------------------|
D|7---7---9---9---7---7---9---9--|7---7---9---9---7---7---9---9--|
A|5---5---5---5---5---5---5---5--|5---5---5---5---5---5---5---5--|
E|-------------------------------|-------------------------------|

e|------- ------- ------- -------|------- ------- ------- -------|
B|----6-6-6-6-6-6-6--------------|----6-6-6-6-6-6-6--------------|
G|----5-5-5-5-5-5-5---7---5---7--|----5-5-5-5-5-5-5---7---5---7--|
D|--------------------7---5---7--|--------------------7---5---7--|
A|-------------------------------|-------------------------------|
E|-------------------------------|-------------------------------|

e|------- ------- ------- -------|------- ------- ------- -------|
B|-------------------------------|-------------------------------|
G|-------------------------------|-------------------------------|
D|7---7---9---9---7---7---9---9--|7---7---9---9---7---7---9---7-\|
A|5---5---5---5---5---5---5---5--|5---5---5---5---5---5---5---5-\|
E|-------------------------------|-------------------------------|
                                                      Come
e|------- ------- ------- -------|------- ------- ------- -------|
B|----6-6-6-6-6-6-6--------------|--6-6-6-6-6-6-6----------------|
G|----5-5-5-5-5-5-5---7---5---7--|--5-5-5-5-5-5-5-----7---5---7--|
D|--------------------7---5---7--|--------------------7---5---7--|
A|-------------------------------|-------------------------------|
E|-------------------------------|-------------------------------|

e|------- ------- ------- -------|------- ------- ------- -------|
B|-------------------------------|-------------------------------|
G|-------------------------------|-------------------------------|
D|-------------------------------|-------------------------------|
A|7---7---9---9---7---7---9---9--|7---7---9---9---7---7---9---9--|
E|5---5---5---5---5---5---5---5--|5---5---5---5---5---5---5---5--|
              Oh,                                 Come
e|------- ------- ------- -------|------- ------- ------- -------|
B|--------5----------------------|--------5----------------------|
G|--------6----------------------|--------6----------------------|
D|--------7----------------------|--------7----------------------|
A|7---7---7----------------------|7---7---7----------------------|
E|5---5---5----------------------|5---5---5----------------------|
   B                   B   B R P   B
e|------- ------- ------- -------|------- ------- ------- -------|
B|1517-~--------------1517151715131517-~-------------------------|
G|-------------------------------|-------------------------------|
D|-------------------------------|-------------------------------|
A|-------------------------------|-------------------------------|
E|-------------------------------|-------------------------------|
    B                   B   B R P   B
e|1517-~- ------- ----1517151715131517-~- ------- ------- -------|
B|-------------------------------|-------------------------------|
G|-------------------------------|-------------------------------|
D|-------------------------------|-------------------------------|
A|-------------------------------|-------------------------------|
E|-------------------------------|-------------------------------|

e|------- ------- ------- -------|------- ------- ------- -------|
B|-------------------------------|-------------------------------|
G|-------------------------------|-------------------------------|
D|-------------------------------|-------------------------------|
A|7---7---9---9---7---7---9---9--|7---7---9---9---7---7----------|
E|5---5---5---5---5---5---5---5--|5---5---5---5---5---5----------|
                  Come                            Come
e|------- ------- ------- -------|------- ------- ------- -------|
B|--------5----------------------|--------5----------------------|
G|--------6----------------------|--------6----------------------|
D|--------7----------------------|--------7----------------------|
A|7---7---7----------------------|7---7---7----------------------|
E|5---5---5----------------------|5---5---5----------------------|
   B                   B   B R P
e|------- ------- ------- -------|------- ------- ------- -------|
B|1517-~--------------151715171513-B-------------------B---B-R-P---|
G|-------------------------------|1214-~--------------121412141210-|
D|-------------------------------|---------------------------------|
A|-------------------------------|---------------------------------|
E|-------------------------------|---------------------------------|
    B                   B   B R P
e|1517-~- ------- ----151715171513--B---- ------- -----B- -B-R-P-|
B|-------------------------------|1517-~--------------151715171514-|
G|-------------------------------|---------------------------------|
D|-------------------------------|---------------------------------|
A|-------------------------------|---------------------------------|
E|-------------------------------|---------------------------------|


   B
e|------- ------- ------- -------|------- ------- ------- -------|
B|1315-~-------------------------|-------------------------------|
G|-------------------------------|-------------------------------|
D|-------------------------------|-------------------------------|
A|-------------------------------|-------------------------------|
E|-------------------------------|-------------------------------|
   B
e|1517-~- ------- ------- -------|------- ------- ------- -------|
B|-------------------------------|-------------------------------|
G|-------------------------------|-------------------------------|
D|-------------------------------|-------------------------------|
A|-------------------------------|-------------------------------|
E|-------------------------------|-------------------------------|

e|------- ------- ------- -------|------- ------- ------- -------|
B|-------------------------------|-------------------------------|
G|------------5------------------|----------------5--------------|
D|--------5H7--------------------|--------5H7--------------------|
A|5---5--------------------------|5---5--------------------------|
E|-------------------------------|-------------------------------|

e|------- ------- ------- -------|------- ------- ------- -------|
B|--------6---3-----------1------|----0--------------------------|
G|--------5---4-----------2------|----0-----------2--------------|
D|----0---------------0----------|0---------------3--------------|
A|-------------------------------|------------5------------------|
E|-------------------------------|-------------------------------|

e|------- ------- ------- -------|------- ------- ------- -------|
B|-------------------------------|-------------------------------|
G|----------------------------7--|----------------------------5--|
D|7---7---9---9---7---7---7/9----|7---7---9---9---7---7---5H7----|
A|5---5---5---5---5---5----------|5---5---5---5---5---5---5------|
E|-------------------------------|-------------------------------|
      He  roller-coaster  he got      early       warning He got

e|------- ------- ------- -------|------- ------- ------- -------|
B|----------------------------6--|-------------------------------|
G|----------------------------5--|7---7--------------------------|
D|7---7---9---9---7---7---5H7----|7---7---9---9---7---7---5H7-\--|
A|5---5---5---5---5---5---5------|5---5---5---5---5---5---5------|
E|-------------------------------|-------------------------------|
      muddy       water   he one      mojo        filter  He  say

e|------- ------- ------- -------|------- ------- ------- -------|
B|-------------------------------|-------------------------------|
G|-------------------------------|-------------------------------|
D|-------------------------------|-------------------------------|
A|7---7---9---9---7---7---5-\----|7---7---9---9---7---7---5H7-7-\|
E|5---5---5---5---5---5---5-\----|5---5---5---5---5---5---5---5-\|
      "One    and one     and one         is  three"


  X     X X       X     X X       X     X X       X     X X

e|------- ------- ------- -------|------- ------- ------- -------|
B|-------------------------------|-------------------------------|
G|-------------------------------|-------------------------------|
D|-------------------------------|-------------------------------|
A|5------------------------------|-------------------------------|
E|3------------------------------|-------------------------------|
  Got to be good-looking 'cause he's so hard to see       Come together

e|------- ------- ------- -------|------- ------- ------- -------|
B|-------------------------------|-------------------------------|
G|-------------------------------|-------------------------------|
D|9---9---9---9---9---9----------|-------------------------------|
A|9---9---9---9---9---9---9---5--|5---5---5---5-/-7--------------|
E|7---7---7---7---7---7---5---5--|3---3---3---3-/-5--------------|
                          right   now                     over me


e|------- ------- ------- -------|------- ------- ------- -------|
B|-------------------------------|-------------------------------|
G|------------5------------------|----------------5--------------|
D|--------5H7--------------------|--------5H7--------------------|
A|5---5--------------------------|5---5--------------------------|
E|-------------------------------|-------------------------------|
                                  Shoot me
e|------- ------- ------- -------|------- ------- ------- -------|
B|------------6------------------|----------------6--------------|
G|------------5------------------|----------------5--------------|
D|------------7------------------|----------------7--------------|
A|-------------------------------|-------------------------------|
E|-------------------------------|-------------------------------|

e|------- ------- ------- -------|------- ------- ------- -------|
B|-------------------------------|-------------------------------|
G|------------5------------------|----------------5--------------|
D|--------5H7--------------------|--------5H7--------------------|
A|5---5--------------------------|5---5--------------------------|
E|-------------------------------|-------------------------------|
  Shoot me                        Shoot me                    Oh!
e|------- ------- ------- -------|------- ------- ------- -------|
B|------------6------------------|----------------6--------------|
G|------------5------------------|----------------5--------------|
D|------------7------------------|----------------7--------------|
A|-------------------------------|-------------------------------|
E|-------------------------------|-------------------------------|

e|------- ------- ------- -------|------- ------- ------- -------|
B|-------------------------------|-------------------------------|
G|-------------------------------|-------------------------------|
D|------------------------12-----|-------------------------------|
A|-------------------------------|-------------------------------|
E|-------------------------------|-------------------------------|

e|------- ------- ------- -------|------- ------- ------- -------|
B|-------------------------------|----------------------------6--|
G|----------------------------5--|----------------------------5--|
D|7---7---9---9---7---7---5H7-7--|7---7---9---9---7---7---5H7-7--|
A|5---5---5---5---5---5---5------|5---5---5---5---5---5---5------|
E|-------------------------------|-------------------------------|

e|------- ------- ------- -------|------- ------- ------- -------|
B|--------6---3-----------1------|----0--------------------------|
G|--------5---4-----------2------|----0-----------2--------------|
D|----0---------------0----------|0---------------3--------------|
A|-------------------------------|------------5------------------|
E|-------------------------------|-------------------------------|
                                                       B   B R
e|------- ------- ------- -------|------- ------- ----1315131513-|
B|13B15-~------------------------|------------------------------15-|
G|-------------------------------|---------------------------------|
D|-------------------------------|---------------------------------|
A|-------------------------------|---------------------------------|
E|-------------------------------|---------------------------------|

e|------- ------- ------- -------|------- ------- ------- -------|
B|----------------------------6--|-------------------------------|
G|----------------------------5--|----------------------------5--|
D|7---7---9---9---7---7---5H7-7--|7---7---9---9---7---7---5H7-7--|
A|5---5---5---5---5---5---5------|5---5---5---5---5---5---5------|
E|-------------------------------|-------------------------------|
          Come together                   Yeah
e|------- ------- ------- -------|------- ------- ------- -------|
B|--------6---3-----------1------|----0--------------------------|
G|--------5---4-----------2------|----0-----------2--------------|
D|----0---------------0----------|0---------------3--------------|
A|-------------------------------|------------5------------------|
E|-------------------------------|-------------------------------|

e|------- ------- ------- -------|------- ------- ------- -------|
B|13B15-~------------------------|---------------------------------|
G|-------------------------------|--------------------10-B13R12P10-|
D|-------------------------------|---------------------------------|
A|-------------------------------|---------------------------------|
E|-------------------------------|---------------------------------|

e|------- ------- ------- -------|------- ------- ------- -------|
B|-------------------------------|-------------------------------|
G|--------------------------5----|--------------------------7----|
D|7---7---9---9---7---7-5H7---5H7|7---7---9---9---7---7-7/9---9\7|
A|5---5---5---5---5---5-5-----5--|5---5---5---5---5---5----------|
E|-------------------------------|-------------------------------|
          Come together           Yeah
e|------- ------- ------- -------|------- ------- ------- -------|
B|--------6---3-----------1------|----0--------------------------|
G|--------5---4-----------2------|----0-----------2--------------|
D|----0---------------0----------|0---------------3--------------|
A|-------------------------------|------------5------------------|
E|-------------------------------|-------------------------------|

                                                           B R
e|------- ------- ------- -------|------- ------- ------- 131513-|
B|13B15-~------------------------|--------------------15--------15-|
G|-------------------------------|---------------------------------|
D|-------------------------------|---------------------------------|
A|-------------------------------|---------------------------------|
E|-------------------------------|---------------------------------|

e|------- ------- ------- -------|------- ------- ------- -------|
B|-------------------------------|-------------------------------|
G|--------------------------7-7--|--------------------------7----|
D|7---7---9---9---7---7-7/9---9\7|7---7---9---9---7---7-7/9--9\7-|
A|5---5---5---5---5---5-5--------|5---5---5---5---5---5----------|
E|-------------------------------|-------------------------------|
          Come together           Yeah
e|------- ------- ------- -------|------- ------- ------- -------|
B|--------6---3-----------1------|----0--------------------------|
G|--------5---4-----------2------|----0-----------2-----------2--|
D|----0---------------0----------|0---------------3-----------3--|
A|-------------------------------|------------5---------------5--|
E|-------------------------------|-------------------------------|

e|------- ------- ------- -------|------- ------- ------- -------|
B|13B15-~------------------------|---------------------------------|
G|-------------------------------|-------------------14--B19R17P14-|
D|-------------------------------|---------------------------------|
A|-------------------------------|---------------------------------|
E|-------------------------------|---------------------------------|

e|------- ------- ------- -------|------- ------- ------- -------|
B|--------------------------8----|--------------------------6-6--|
G|--------------------------7-7--|--------------------------5-5--|
D|7---7---9---9---7---7-7/9---9\7|7---7---9---9---7---7-5H7---7--|
A|5---5---5---5---5---5----------|5---5---5---5---5---5-5--------|
E|-------------------------------|-------------------------------|
          Come together           Yeah
e|------- ------- ------- -------|------- ------- ------- -------|
B|--------6---3-----------1------|----0--------------------------|
G|--------5---4-----------2------|----0-----------2-----------2--|
D|----0---------------0----------|0---------------3-----------3--|
A|-------------------------------|------------5---------------5--|
E|-------------------------------|-------------------------------|
                                                       B   B R P
e|15B17-~ ------- ------- -------|------- ------- ----151715171513
B|-------------------------------|-------------------------------|
G|-------------------------------|-------------------------------|
D|-------------------------------|-------------------------------|
A|-------------------------------|-------------------------------|
E|-------------------------------|-------------------------------|

e|------- ------- ------- -------|------- ------- ------- -------|
B|-------------------------------|-------------------------------|
G|--------------------------5----|--------------------------5----|
D|7---7---9---9---7---7-5H7------|7---7---9---9---7---7-5H7---7--|
A|5---5---5---5---5---5-5--------|5---5---5---5---5---5-5-----5--|
E|-------------------------------|-------------------------------|
          Come together           Yeah
e|------- ------- ------- -------|------- ------- ------- -------|
B|--------6---3-----------1------|----0--------------------------|
G|--------5---4-----------2------|----0-----------2-----------2--|
D|----0---------------0----------|0---------------3-----------3--|
A|-------------------------------|------------5---------------5--|
E|-------------------------------|-------------------------------|
                                                           B R
e|15B17-~ ------- ------- -------|------- ------- ----17- 202220-|
B|-------------------------------|-------------------------------|
G|-------------------------------|-------------------------------|
D|-------------------------------|-------------------------------|
A|-------------------------------|-------------------------------|
E|-------------------------------|-------------------------------|

e|------- ------- ------- -------|------- ------- ------- -------|
B|-------------------------------|----------------------------6--|
G|--------------------------5----|--------------------------5-5--|
D|7---7---9---9---7---7-5H7-7-7--|7---7---9---9---7---7-5H7------|
A|5---5---5---5---5---5-5-----5--|5---5---5---5---5---5-5--------|
E|-------------------------------|-------------------------------|
          Come together        Yeah
e|------- ------- ------- -------|------- ------- ------- -------|
B|--------6---3-----------1------|----0--------------------------|
G|--------5---4-----------2------|----0-----------2--------------|
D|----0---------------0----------|0---------------3--------------|
A|-------------------------------|------------5------------------|
E|-------------------------------|-------------------------------|
                                                           B R P
e|20B22-~ ------- ------- -------|------- ------- ----17- 20222017
B|-------------------------------|-------------------------------|
G|-------------------------------|-------------------------------|
D|-------------------------------|-------------------------------|
A|-------------------------------|-------------------------------|
E|-------------------------------|-------------------------------|

e|------- ------- ------- -------|------- ------- ------- -------|
B|--------------------------6-6--|--------------------------6-6--|
G|--------------------------5-5--|--------------------------5-5--|
D|7---7---9---9---7---7-5H7------|7---7---9---9---7---7-5H7------|
A|5---5---5---5---5---5-5--------|5---5---5---5---5---5-5--------|
E|-------------------------------|-------------------------------|
          Come together        Yeah
e|------- ------- ------- -------|------- ------- ------- -------|
B|--------6---3-----------1------|----0--------------------------|
G|--------5---4-----------2------|----0-----------2--------------|
D|----0---------------0----------|0---------------3--------------|
A|-------------------------------|------------5------------------|
E|-------------------------------|-------------------------------|
                                                           B R P
e|20B22-~ ------- ------- -------|------- ------- ---13-- 15161513
B|-------------------------------|-------------------------------|
G|-------------------------------|-------------------------------|
D|-------------------------------|-------------------------------|
A|-------------------------------|-------------------------------|
E|-------------------------------|-------------------------------|

e|------- ------- ------- -------|------- ------- ------- -------|
B|--------------------------6-6--|-------------------------------|
G|--------------------------5-5--|-------------------------------|
D|7---7---9---9---7---7-5H7------|7---7---9---9---7---7-5H7-7-7--|
A|5---5---5---5---5---5-5--------|5---5---5---5---5---5-5-----5--|
E|-------------------------------|-------------------------------|
          Ah!
e|------- ------- ------- -------|------- ------- ------- -------|
B|--------6---3-----------1------|----0--------------------------|
G|--------5---4-----------2------|----0-----------2--------------|
D|----0---------------0----------|0---------------3--------------|
A|-------------------------------|------------5------------------|
E|-------------------------------|-------------------------------|

e|15B17-~ ------- ------- -------|------- ------- ------- -------|
B|-------------------------------|---------------------------------|
G|-------------------------------|--------------------10-B13R12P10-|
D|-------------------------------|---------------------------------|
A|-------------------------------|---------------------------------|
E|-------------------------------|---------------------------------|

e|------- ------- ------- -------|------- ------- ------- -------|
B|--------------------------8----|--------------------------8----|
G|--------------------------7-7--|--------------------------7-7--|
D|7---7---9---9---7---7-7/9---9\7|7---7---9---9---7---7-7/9---9\7|
A|5---5---5---5---5---5-5--------|5---5---5---5---5---5----------|
E|-------------------------------|-------------------------------|
          Come together        Yeah
e|------- ------- ------- -------|------- ------- ------- -------|
B|--------6---3-----------1------|----0--------------------------|
G|--------5---4-----------2------|----0-----------2--------------|
D|----0---------------0----------|0---------------3--------------|
A|-------------------------------|------------5------------------|
E|-------------------------------|-------------------------------|
                                                       B   B R
e|------- ------- ------- -------|------- ------- ------- -------|
B|13B15-~------------------------|--------------------1315131513-|
G|-------------------------------|-----------------------------15|
D|-------------------------------|-------------------------------|
A|-------------------------------|-------------------------------|
E|-------------------------------|-------------------------------|
  ..............................Fade.............................


e|------- ------- ------- -------|------- ------- ------- -------|
B|-------------------------------|-------------------------------|
G|--------------------------7-7--|-------------------------------|
D|7---7---9---9-------7-7/9---9--|7---7---9---9---7---7---9---9--|
A|5---5---5---5-------5----------|5---5---5---5---5---5---5---5--|
E|-------------------------------|-------------------------------|
          Come together        Yeah
e|------- ------- ------- -------|------- ------- ------- -------|
B|--------6---3-----------1------|----0--------------------------|
G|--------5---4-----------2------|----0-----------2--------------|
D|----0---------------0----------|0---------------3--------------|
A|-------------------------------|------------5------------------|
E|-------------------------------|-------------------------------|

e|------- ------- ------- -------|------- ------- ------- -------|
B|13B15-~------------------------|-------------------------------|
G|-------------------------------|-------------------------------|
D|-------------------------------|-------------------------------|
A|-------------------------------|-------------------------------|
E|-------------------------------|-------------------------------|


-----------------------------------------------------------------

  THE BEATLES - SOMETHING (Lennon/McCartney) From ABBEY ROAD album.
                Released 26th September 1969.

  -----------------------------------------------------------------

  Tabbed by:PJVillanueva
                            xxxxxx  x
                                    F               Eb      G
  e|------- ------- ------- -------|----5-- 5---5-- 3------ 3------|
  B|-------------------------------|----6---6---6---4-------3------|
  G|-------------------------------|----5---5---5---3-------4------|
  D|-------------------------------|3---3---3---3---5-------5------|
  A|-------------------------------|-------------------------------|
  E|-------------------------------|-------------------------------|

  e|------- ------- ------- -------|------- ------- ------- -------|
  B|-------------------------------|----10-B13R-10--11-~----12-~---|
  G|-------------------------------|-------------------------------|
  D|-------------------------------|-------------------------------|
  A|-------------------------------|-------------------------------|
  E|-------------------------------|-------------------------------|


    C                               Cmaj7
  e|0------ 0-----0 ----0-- 0------|0---0-- 0------ ------- 0------|
  B|1-------1-----1-----1---1------|0---0---0---------------0------|
  G|0-------0-----0-----0---0------|0---0---0---------------0------|
  D|2-------2-----2-----2---2------|2---2---2---------------2------|
  A|3-------3-----3-----3---3------|3---3---3---3---3---3-------3--|
  E|-------------------------------|-------------------------------|
    Something               she moves
         in  the way
  e|------- ------- ------- -------|------- ------- ------- -------|
  B|13-~---------------------------|-------------------------------|
  G|-------------------------------|-------------------------------|
  D|-------------------------------|-------------------------------|
  A|-------------------------------|-------------------------------|
  E|-------------------------------|-------------------------------|


    C7                              F
  e|0------ 0------ ----0-- 0-0-0--|1------ 1---1-- ------1 ----1--|
  B|1-------1-----------1---1-1-1--|1-------1---1---------1-----1--|
  G|3-------3-----------3---3-3-3--|2-------2---2---------2-----2--|
  D|2-------2-----------2---2-2-2--|3-------3---3---3-------2------|
  A|3-------3-----------3---3-3-3--|-------------------------------|
  E|-------------------------------|-------------------------------|
         Attracts like  no  other lover
              me


    D               D7              G
  e|2------ --2---- 2-----2 --2---2|3------ --3---- ------- -------|
  B|3---------3-----1-----1---1---1|0-----------1--/3--------------|
  G|2---------2-----2-----2---2---2|0-------2-----2/4--------------|
  D|0---------0-----0-----0---0---0|-------------------------------|
  A|-------------------------------|-------------------------------|
  E|-------------------------------|-------------------------------|
    Something               she woos    me                        I
          in  the way

    Am              Ammaj7          Am7             Am6
  e|0------ 0------ 0------ 0------|0------ 0------ 0------ 0------|
  B|1-------1-------1-------1------|1-------1-------1-------1------|
  G|2-------2-------1-------1------|0-------0-------2-------2------|
  D|2-------2-------2-------2------|2-------2-------4-------4------|
  A|0-------0-------0-------0------|0-------0-------0-------0------|
  E|-------------------------------|-------------------------------|
    don’t      her now          You know
      want                            I believe
       to leave                               and how
  e|12--12- 12--12- 12--12- 12--12-|12--12- 12--12- 12--12- 12--12-|
  B|13--13--13--13--13--13--13--13-|13--13--13--13--13--13--13--13-|
  G|14--14--14--14--13--13--13--13-|12--12--12--12--11--11--11--11-|
  D|-------------------------------|-------------------------------|
  A|-------------------------------|-------------------------------|
  E|-------------------------------|-------------------------------|

  e|------- ------- ------- -------|------- ------- ------- -------|
  B|-------------------------------|-------------------------------|
  G|--------------------7-7-7/9-~--|----------------------7/9-~----|
  D|-------------------------------|-------------------------------|
  A|-------------------------------|-------------------------------|
  E|-------------------------------|-------------------------------|


    F               Eb      G
  e|----5-- 5---5-- 3------ 3------|
  B|----6---6---6---4-------3------|
  G|----5---5---5---3-------4------|
  D|----3---3---3---5-------5------|
  A|-------------------------------|
  E|-------------------------------|

  e|------- ------- ------- -------|
  B|----10-B13R-10--11-~----12-~---|
  G|-------------------------------|
  D|-------------------------------|
  A|-------------------------------|
  E|-------------------------------|


    C                               Cmaj7
  e|0------ 0------ 0------ 0------|----0-- ----0-- 0------ 0------|
  B|1-------1-------1-------1------|----0-------0---0-------0------|
  G|0-------0-------0-------0------|----0-------0---0-------0------|
  D|2-------2-------2-------2------|----2-------2---2-------2------|
  A|3-------3-------3-------3------|----3-------3---3-------3------|
  E|-------------------------------|-------------------------------|
    Somewhere               she knows
         in   her smile
  e|------- ------- ------- -------|------- ------- ------- -------|
  B|13-~---------------------------|-------------------------------|
  G|-------------------------------|-------------------------------|
  D|-------------------------------|-------------------------------|
  A|-------------------------------|-------------------------------|
  E|-------------------------------|-------------------------------|


    C7                              F
  e|0------ 0------ 0------ -------|1------ 1---1-- 1------ 1------|
  B|1-------1-------1--------------|1-------1---1---1-------1------|
  G|3-------3-------3--------------|2-------2---2---2-------2------|
  D|2-------2-------2--------------|3-------3---3---3-------2------|
  A|3-------3-------3--------------|-------------------------------|
  E|-------------------------------|-------------------------------|
       That   don’t need    other lover
          I             no

                                                        x   XXXX
    D7                              G
  e|2------ 2------ ------- -------|3---3-3 ----3-3 ------- -------|
  B|1-------1----------------------|0---0-0H1---1-1/3--------------|
  G|2-------2----------------------|0---0-0H2---2-2/4--------------|
  D|0-------0----------------------|-------------------------------|
  A|-------------------------------|-------------------------------|
  E|-------------------------------|-------------------------------|
    Something           that   shows    me
         in  her style


    Am              Ammaj7          Am7             Am6
  e|0------ 0------ 0------ 0------|0------ 0------ 0------ 0------|
  B|1-------1-------1-------1------|1-------1-------1-------1------|
  G|2-------2-------1-------1------|0-------0-------2-------2------|
  D|2-------2-------2-------2------|2-------2-------4-------4------|
  A|0-------0-------0-------0------|0-------0-------0-------0------|
  E|-------------------------------|-------------------------------|
    Don’t      her now          You know
      want                            I believe
       to leave                               in  how
  e|12--12- 12--12- 12--12- 12--12-|12--12- 12--12- 12--12- 12--12-|
  B|13--13--13--13--13--13--13--13-|13--13--13--13--13--13--13--13-|
  G|14--14--14--14--13--13--13--13-|12--12--12--12--11--11--11--11-|
  D|-------------------------------|-------------------------------|
  A|-------------------------------|-------------------------------|
  E|-------------------------------|-------------------------------|

  e|------- ------- ------- -------|------- ------- ------- -------|
  B|-------------------------------|-------------------------------|
  G|-------------------------------|------------------------7/9-5-~|
  D|-------------------------------|-------------------------------|
  A|-------------------------------|-------------------------------|
  E|-------------------------------|-------------------------------|


    F               Eb      G       A
  e|----5-- 5---5-- 3------ 3------|5------ ------- ----5-- 5---5--|
  B|----6---6---6---4-------3------|5-------------------5---5---5--|
  G|----5---5---5---3-------4------|6-------------------6---6---6--|
  D|----3---3---3---5-------5------|7-------------------7---7---7--|
  A|-------------------------------|-------------------------------|
  E|-------------------------------|-------------------------------|

  e|------- ------- ------- -------|------- ------- ------- -------|
  B|----10-B13R-10--11-~----12-~-12/14-----------------------------|
  G|-------------------------------|-------------------------------|
  D|-------------------------------|-------------------------------|
  A|-------------------------------|-------------------------------|
  E|-------------------------------|-------------------------------|


                    Dbm                 F#m         E
  e|----5-- --5---- 4---4-- --4----|----2-- --2---2 0---0-- --0----|
  B|----5-----5-----5---5-----5----|----2-----2---2-0---0-----0----|
  G|----6-----6-----6---6-----6----|----2-----2---2-1---1-----1----|
  D|----7-----7-----6---6-----6----|----4-----4---4-2---2-----2----|
  A|----7-----7-----4---4-----4----|----4-----4---4-2---2-----2----|
  E|----5-----5--------------------|----2-----2---2-0---0-----0----|
          You’re        will  love                          I don't
            asking        my      grow                            know
                  me


    D               G               A
  e|2-----2 ----2-- 3------ -------|------- ------- ------- -------|
  B|3-----3-----3---3--------------|2-----------2-----------2------|
  G|2-----2-----2---0--------------|2-----------2-----------2------|
  D|0-----0-----0---0--------------|2-----------2-----------2------|
  A|-------------------------------|0------------------------------|
  E|----------------3--------------|------4-----3-----2-----1---0--|
                I             don't know

                    Dbm             F#m             E
  e|----5-- --5---- 4---4-- --4---4|----2-- --2---2 0---0-- --0----|
  B|----5-----5-----5---5-----5---5|----2-----2---2-0---0-----0----|
  G|----6-----6-----6---6-----6---6|----2-----2---2-1---1-----1----|
  D|----7-----7-----6---6-----6---6|----4-----4---4-2---2-----2----|
  A|----7-----7-----4---4-----4---4|----4-----4---4-2---2-----2----|
  E|----5-----5--------------------|----2-----2---2-0---0-----0----|
         You  around    now it    show                      I don't
            stick             may                                 know


    D               G               C                           G
  e|2---2-- --2---- 3---3-- ----3--|0-----0 ----0-- --0---- -------|
  B|3---3-----3-----3---3-------3--|1-----0-----1-----1------------|
  G|2---2-----2-----0---0-------0--|0-----0-----2-----0-----0---0--|
  D|0---0-----0-----0---0-------0--|2-----2-----2-----2-----2---0--|
  A|----------------2---2-------2--|3-----3-----3-----3-----3---2--|
  E|----------------3---3-------3--|----------------------------3--|
              I               don't know

    C                               Cmaj7
  e|0------ 0------ ------0 0------|0------ 0------ ------3 0------|
  B|1-------1-------------1-1------|0-------0-------------0-0------|
  G|0-------0-------------0-0------|0-------0-------------0-0------|
  D|2-------2-------------2-2------|2-------2-------------2-2------|
  A|3-------3-------------3-3------|3-------3-------------3-3------|
  E|-------------------------------|-------------------------------|
                                            B  B R
  e|------- ------- ------- -------|------- ------- ------- -------|
  B|------------8------------------|--------8108108----------------|
  G|--------7H9-----9-~------------|----7H9---------9-~------------|
  D|-------------------------------|-------------------------------|
  A|-------------------------------|-------------------------------|
  E|-------------------------------|-------------------------------|


    C7                              F
  e|0------ 0------ 0-----0 --0-0--|1------ 1------ 1-----1 1---1--|
  B|1-------1-------1-----1---1-1--|1-------1-------1-----1-1---1--|
  G|3-------3-------3-----3---3-3--|2-------2-------2-----2-2---2--|
  D|2-------2-------2-----2---2-2--|3-------3-------3-------2------|
  A|3-------3-------3-----3---3-3--|-------------------------------|
  E|-------------------------------|-------------------------------|
            H                 B R  B R
  e|------- ------- ------- -------|------- ------- --8-8\- -------|
  B|--------810-8---11--13--13-1513|171513---------/10--------8-8\-|
  G|----7B9------------------------|--------14-~-----------/9------|
  D|-------------------------------|-------------------------------|
  A|-------------------------------|-------------------------------|
  E|-------------------------------|-------------------------------|


    D7                              G
  e|2------ 2-----2 2-----2 -------|3---3-3 3-3-3-- 3------ -------|
  B|1-------1-----1-1-----1--------|0---0-0H1-1-1-/-2--------------|
  G|2-------2-----2-2-----2--------|0---0-0H2-2-2-/-4--------------|
  D|0-------0-----0-0-----0--------|-------------------------------|
  A|-------------------------------|-------------------------------|
  E|-------------------------------|-------------------------------|
                                   B R B R
  e|------- ------- ------- -------|------- ------- 9-8-7--/12-11-10-|
  B|-----------------------B12-R-10|121012108----8-------------------|
  G|------------------11-11--------|---------------------------------|
  D|7-~-------B9R7-/12-------------|---------------------------------|
  A|-------------------------------|---------------------------------|
  E|-------------------------------|---------------------------------|


    Am              Ammaj7          Am7             Am6
  e|------- ----0-- 0------ ----0--|0-----0 ----0-- 0-----0 ----0--|
  B|------------1---1-----------1--|1-----1-----1---1-----1-----1--|
  G|------------2---1-----------1--|0-----0-----0---2-----2-----2--|
  D|------------2---2-----------2--|2-----2-----2---4-----4-----4--|
  A|------------0---0-----------0--|0-----0-----0---0-----0-----0--|
  E|-------------------------------|-------------------------------|

  e|12--12- 12--12- 12--12- 12--12-|12--12- 12--12- 12--12- 12--12-|
  B|13--13--13--13--13--13--13--13-|13--13--13--13--13--13--13--13-|
  G|14--14--14--14--13--13--13--13-|12--12--12--12--11--11--11--11-|
  D|-------------------------------|-------------------------------|
  A|-------------------------------|-------------------------------|
  E|-------------------------------|-------------------------------|
           (3B)            (4B)
  e|------- ------- ------- -------|------- ------- 12-10-8H10--8--|
  B|-------------------------------|--------------8----------------|
  G|---B9R7B9R7B9R75---B9R7B9R7B9R75---B9R7B9R75/9-----------------|
  D|-------------------------------|-------------------------------|
  A|-------------------------------|-------------------------------|
  E|-------------------------------|-------------------------------|


    F               Eb      G
  e|5------ 5---5-- 3------ 3------|
  B|6-------6---6---4-------3------|
  G|5-------5---5---3-------4------|
  D|3-------3---3---5-------5------|
  A|-------------------------------|
  E|-------------------------------|

  e|------- ------- ------- -------|
  B|10------13\10---11-~----12-~---|
  G|-------------------------------|
  D|-------------------------------|
  A|-------------------------------|
  E|-------------------------------|


    C                               Cmaj7
  e|0------ 0------ ------- 0------|0------ 0-----0 0---0-- 0-0-0--|
  B|1-------1---------------1------|0-------0-----0-0---0---0-0-0--|
  G|0-------0---------------0------|0-------0-----0-0---0---0-0-0--|
  D|2-------2---------------2------|2-------2-----2-2---2---2-2-2--|
  A|3-------3---------------3------|3-------3-----3-3---3---3-3-3--|
  E|-------------------------------|-------------------------------|
    Something               she knows
         in  the way
  e|------- ------- ------- -------|------- ------- ------- -------|
  B|13-~---------------------------|-------------------------------|
  G|-------------------------------|-------------------------------|
  D|-------------------------------|-------------------------------|
  A|-------------------------------|-------------------------------|
  E|-------------------------------|-------------------------------|


    C7                              F
  e|0------ 0-----0 --0-0-- 0---0--|1------ ------- ------1 -------|
  B|1-------1-----1---1-1---1---1--|1---------------------1-1------|
  G|3-------3-----3---3-3---3---3--|2---------------------2-2------|
  D|2-------2-----2---2-2---2---2--|3---------------3-------2------|
  A|3-------3-----3---3-3---3---3--|-------------------------------|
  E|-------------------------------|-------------------------------|
      And all I have    to      is  think her
                          do            of


    D               D               G
  e|2------ 2------ 2------ -------|3---3-3 --3-3-3 --3-3-- 3------|
  B|3-------3-------1--------------|0---0-0H1-1-1-1/3-3-3---3------|
  G|2-------2-------2--------------|0---0-0H2-2-2-2/4-4-4---4------|
  D|0-------0-------0--------------|-------------------------------|
  A|-------------------------------|-------------------------------|
  E|-------------------------------|-------------------------------|
    Something           she     shows   me                        I
         in   the things

    Am              Ammaj7          Am7             Am6
  e|0------ 0------ ------- 0------|0------ 0------ ------- 0------|
  B|1-------1---------------1------|1-------1---------------1------|
  G|2-------2---------------1------|0-------0---------------2------|
  D|2-------2---------------2------|2-------2---------------4------|
  A|0-------0---------------0------|0-------0---------------0------|
  E|-------------------------------|-------------------------------|
    don’t      her now          You know
      want                            I believe
       to leave                               and how
  e|12--12- 12--12- 12--12- 12--12-|12--12- 12--12- 12--12- 12--12-|
  B|13--13--13--13--13--13--13--13-|13--13--13--13--13--13--13--13-|
  G|14--14--14--14--13--13--13--13-|12--12--12--12--11--11--11--11-|
  D|-------------------------------|-------------------------------|
  A|-------------------------------|-------------------------------|
  E|-------------------------------|-------------------------------|

  e|------- ------- ------- -------|------- ------- ------- -------|
  B|-------------------------------|----------------------------8--|
  G|-------------------------------|----------------------7/9------|
  D|-------------------------------|-------------------------------|
  A|-------------------------------|-------------------------------|
  E|-------------------------------|-------------------------------|


    F               Eb      G       A
  e|5---5-- 5---5-- 3------ 3------|5------ ------- --5-5-5 5-5-5--|
  B|6---6---6---6---4-------3------|5-----------------5-5-5-5-5-5--|
  G|5---5---5---5---3-------4------|6-----------------6-6-6-6-6-6--|
  D|3---3---3---3---5-------5------|7-----------------7-7-7-7-7-7--|
  A|-------------------------------|-------------------------------|
  E|-------------------------------|-------------------------------|

  e10/12--- ------- ------- -------|------- ------- ----16-15-14---|
  B|----10-B13R-10--11-~----12-~-12|14-~------------14--14---------|
  G|-------------------------------|-------------------------------|
  D|-------------------------------|-------------------------------|
  A|-------------------------------|-------------------------------|
  E|-------------------------------|-------------------------------|

                                   (.
    F               Eb      G       C
  e|5---5-- 5---5-- 3------ 3------|3------ ------- ------- -------|
  B|6---6---6---6---4-------3------|5------------------------------|
  G|5---5---5---5---3-------4------|5------------------------------|
  D|3---3---3---3---5-------5------|5------------------------------|
  A|-------------------------------|-------------------------------|
  E|-------------------------------|-------------------------------|

  e|------- ------- ------- -----7/|8------ ------- ------- -------|
  B|-----------------------------7/|8------------------------------|
  G|-----------------------------8/|9------------------------------|
  D|-----------------------------9/10------------------------------|
  A|-------------------------------|-------------------------------|
  E|-------------------------------|-------------------------------|

  e|------- ------- ------- -------|------- ------- ------- -------|
  B|----10-B13R-10--11-~----12-~-12|13--~--------------------------|
  G|-------------------------------|-------------------------------|
  D|-------------------------------|-------------------------------|
  A|-------------------------------|-------------------------------|
  E|-------------------------------|-------------------------------|


------------------------------------------------------------------

     THE BEATLES - MAXWELL'S SILVER HAMMER (Lennon/McCartney) From
                   ABBEY ROAD album. Released on 26th September
                   1969.

------------------------------------------------------------------

     Tabbed by:PJVillanueva

D                               B7
e|2------ 2------ 2------ 2------|2------ 2------ 2------ 2------|
B|3-------3-------3-------3------|4-------4-------4-------4------|
G|2-------2-------2-------2------|2-------2-------2-------2------|
D|0------------------------------|4-------4-------4-------4------|
A|----------------4--------------|2-----------------------2------|
E|-------------------------------|----------------2--------------|
  Joan    was    quizzical;       studied pataphysical

  Em
e|3------ 3------ 3------ 3------|3------ 3------ 3------ 3------|
B|5-------5-------5-------5------|5-------5-------5-------5------|
G|4-------4-------4-------4------|4-------4-------4-------4------|
D|2------------------------------|2-------0----------------------|
A|----------------2------------2-|----------------4-------2------|
E|-------------------------------|-------------------------------|
  Science         in      the home.

  A
e|0------ 0------ 0------ 0------|0------ 0------ 0------ 0------|
B|2-------2-------2-------2------|2-------2-------2-------2------|
G|2-------2-------2-------2------|2-------2-------2-------2------|
D|-------------------------------|2--------------------2---------|
A|0---------------4--------------|-------------0--4-------4------|
E|-------------------------------|-------------------------------|
  Late    nights  all     alone      with a   test    tube.

  D                               A
e|2------ 2------ 2------ 2------|0------ 0------ 0------ 0------|
B|3-------3-------3-------3------|2-------2-------2-------2------|
G|2-------2-------2-------2------|2-------2-------2-------2------|
D|0------------------------------|-------------------------------|
A|----------------4-------2------|0---------------2-------4------|
E|-------------------------------|-------------------------------|
  Oh,             oh, oh,     oh.

  D                               B7
e|2------ 2------ 2------ 2------|2------ 2------ 2------ 2------|
B|3-------3-------3-------3------|4-------4-------4-------4------|
G|2-------2-------2-------2------|2-------2-------2-------2------|
D|0------------------------------|4-------4-------4-------4------|
A|----------------4--------------|2-----------------------2------|
E|-------------------------------|----------------2--------------|
  Maxwell         Edison,         majoring    in  medicine,

  Em
e|3------ 3------ 3------ 3------|3------ 3------ 3------ 3------|
B|5-------5-------5-------5------|5-------5-------5-------5------|
G|4-------4-------4-------4------|4-------4-------4-------4------|
D|2------------------------------|2-------0----------------------|
A|----------------2------------2-|----------------4-------2------|
E|-------------------------------|-------------------------------|
  Calls   her     on      the phone.

  A
e|0------ 0------ 0------ 0------|0------ 0------ 0------ 0------|
B|2-------2-------2-------2------|2-------2-------2-------2------|
G|2-------2-------2-------2------|2-------2-------2-------2------|
D|-------------------------------|2-----------------------2------|
A|0---------------4--------------|-------------0--4--------------|
E|-------------------------------|-------------------------------|
  "Can I          take    you out     to  the pictures,

  D                               A
e|2------ 2------ 2------ 2------|0------ 0------ 0------ 0------|
B|3-------3-------3-------3------|2-------2-------2-------2------|
G|2-------2-------2-------2------|2-------2-------2-------2------|
D|0------------------------------|------------------------2------|
A|----------------4-------2------|0---------------0-----4------4-|
E|-------------------------------|-------------------------------|
  Joa,            oa, oa,     oan?"                            But


  X       x               x               x               x
  E
e|0------ ------- ------- -------|------- ------- ------- -------|
B|0------------------------------|-------------------------------|
G|1------------------------------|-------------------------------|
D|2------------------------------|-------------------------------|
A|-------------------------------|-------------------------------|
E|-------------------------------|-------------------------------|
  as      she's   getting     ready       to  go,              a


  X       x               x
  A
e|------- ------- ------- -------|------- ------- ------- -------|
B|-------------------------------|-------------------------------|
G|2------------------------------|-----2--2--------4------6------|
D|2------------------------------|-------------------------------|
A|0------------------------------|-----0--0--------2------4------|
E|-------------------------------|-------------------------------|
  knock   comes   on      the door.

  D
e|2------ 2------ 2------ 2------|2------ 2------ 2------ 2------|
B|3-------3-------3-------3------|3-------3-------3-------3------|
G|2-------2-------2-------2------|2-------2-------2-------2------|
D|0------------------------------|0---------------0-------1------|
A|----------------0--------------|-------------4-----------------|
E|-------------------------------|-------------------------------|
  Bang!   Bang!   Maxwell's       silver      hammer      came
e|------- ------- ------- 5------|------- 2P0---- ------- -------|
B|3-----------------------7------|--------3P0-----3--------------|
G|2-------2----------------------|----------------2-------2----/-|
D|--------4----------------------|------------------------4----/-|
A|-------------------------------|-------------------------------|
E|-------------------------------|-------------------------------|

e|------- ------- ------- -------|------- ------- ------- -------|
B|------------------------3------|--------3P0--------------------|
G|--------2---------------2------|--------2-------2--------------|
D|4-------4----------------------|----------------4-------4----/-|
A|5------------------------------|------------------------5----/-|
E|-------------------------------|-------------------------------|


  E
e|4------ 4------ 4------ 4------|4------ 4------ 4------ 4------|
B|5-------5-------5-------5------|5-------5-------3-------3------|
G|4-------4-------4-------4------|4-------4-------4-------4------|
D|2------------------------------|2------------------------------|
A|----------------2--------------|----------------2--------------|
E|-------------------------------|-------------------------------|
  down        upon    her     head.
e|------- ------- ------- 7------|------- ------- ------- -------|
B|5-------7---------------9------|--------9P7--------------------|
G|4-------4----------------------|--------9-------9--------------|
D|-------------------------------|----------------9--------------|
A|-------------------------------|-------------------------------|
E|-------------------------------|-------------------------------|

e|------- ------- ------- -------|------- ------- ------- -------|
B|-------------------------------|-------------------------------|
G|--------4---------------9------|--------9P6-----4-----H-7------|
D|6-------6---------------9------|--------6-------6--------------|
A|7------------------------------|-------------------------------|
E|-------------------------------|-------------------------------|


  A
e|0------ 0------ 0------ 0------|0------ 0------ ------- -------|
B|2-------2-------2-------2------|2-------2-------2-------2------|
G|2-------2-------2-------2------|2-------2-------2-------2------|
D|----------------2------------2-|-------------2--2-------2------|
A|0------------------------------|0---------------0----4---------|
E|-------------------------------|-------------------------------|
  Bang!   Bang!   Maxwell's       silver      hammer      made
e|------- ------- ------- 12-----|------- 10----- -9----- -------|
B|10------12--------------10-----|--------10------10------10---8-|
G|-9-------9---------------------|-------------------------9---7-|
D|-------------------------------|-------------------------------|
A|-------------------------------|-------------------------------|
E|-------------------------------|-------------------------------|

e|------- ------- ------- -------|------- ------- ------- -------|
B|10----------------------10-----|----------------10-------------|
G|-9-------9---------------9-----|---------9-------9-------9-----|
D|--------11---------------------|--------11--------------11-----|
A|-------------------------------|-------------------------------|
E|-------------------------------|-------------------------------|


  Em                              D       A       D
e|3------ 3------ 0------ 0------|2------ 0------ 2------ -------|
B|5-------5-------2-------2------|3-------2-------3--------------|
G|4-------4-------2-------2------|2-------2-------2--------------|
D|2------------------------------|0---------------0--------------|
A|--------2-------0-------2------|--------0----------------------|
E|-------------------------------|-------------------------------|
  sure    that    she was     dead.
e|------- ------- ------- -------|------- ------- 10-\--- -------|
B|8-------8--------8------8------|7--/------------10-\-----------|
G|7H9-----7------B10R9----7H9----|7--/---------------------------|
D|-------------------------------|-------------------------------|
A|-------------------------------|-------------------------------|
E|-------------------------------|-------------------------------|

e|------- ------- ------- -------|------- ------- ------- -------|
B|8-------8--------8------8------|7--/------------10-\-----------|
G|7-------7--------7------7------|7--/------------11-\-----------|
D|-------------------------------|-------------------------------|
A|-------------------------------|-------------------------------|
E|-------------------------------|-------------------------------|


  D               F#              Bm              D7
e|2------ ------- 2------ -------|2------ ------- 2------ -------|
B|3---------------2--------------|3---------------1--------------|
G|2---------------3--------------|4---------------2--------------|
D|0---------------4--------------|4---------------0--------------|
A|----------------4--------------|2------------------------------|
E|----------------2--------------|-------------------------------|

e|------- ------- ------- -------|------- ------- ------- -------|
B|-------------------------------|3---------------1--------------|
G|----------------3--------------|-------------------------------|
D|4------------------------------|-------------------------------|
A|-------------------------------|-------------------------------|
E|-------------------------------|-------------------------------|

e|------- ------- ------- -------|------- ------- ------- -------|
B|-------------------------------|-------------------------------|
G|-------------------------------|4---------------2--------------|
D|4---------------4--------------|-------------------------------|
A|-------------------------------|-------------------------------|
E|-------------------------------|-------------------------------|


  G
e|3------ ------- ------- -------|------- ------- ------- -------|
B|3------------------------------|-------------------------------|
G|0------------------------------|-------------------------------|
D|0------------------------------|-------------------------------|
A|--------0-------2-------4------|5----7--4-------5-------0------|
E|3------------------------------|-------------------------------|

e|------- ------- 3------ 0------|2---3P2 0------ 2------ -------|
B|0-------3----------------------|------------------------3------|
G|-------------------------------|-------------------------------|
D|-------------------------------|-------------------------------|
A|-------------------------------|-------------------------------|
E|-------------------------------|-------------------------------|

e|------- ------- ------- -------|------- ------- ------- -------|
B|----------------0-------2------|3---5P3P2-------3--------------|
G|0-------2----------------------|------------------------2------|
D|-------------------------------|-------------------------------|
A|-------------------------------|-------------------------------|
E|-------------------------------|-------------------------------|


  D                               B7
e|2------ 2------ 2------ 2------|2------ 2------ 2------ 2------|
B|3-------3-------3-------3------|4-------4-------4-------4------|
G|2-------2-------2-------2------|2-------2-------2-------2------|
D|0------------------------------|4-------4-------4-------4------|
A|----------------4--------------|2-----------------------2------|
E|-------------------------------|----------------2--------------|
  Back    in      school again    Maxwell plays   fool again.
                                              the
e|------- ------- 5------ -------|7------ ------- 14----- -------|
B|-------------------------------|-------------------------------|
G|2------------------------------|-------------------------------|
D|-------------------------------|-------------------------------|
A|-------------------------------|-------------------------------|
E|-------------------------------|-------------------------------|

e|------- ------- ------- -------|------- ------- ------- -------|
B|-------------------------------|-------------------------------|
G|-------------------------------|-------------------------------|
D|0------------------------------|-------------------------------|
A|-------------------------------|-------------------------------|
E|-------------------------------|-------------------------------|


  Em
e|3------ 3------ 3------ 3------|3------ 3------ 3------ 3------|
B|5-------5-------5-------5------|5-------5-------5-------5------|
G|4-------4-------4-------4------|4-------4-------4-------4------|
D|2------------------------------|2-------0----------------------|
A|----------------2------------2-|----------------4-------2------|
E|-------------------------------|-------------------------------|
  Teacher         gets    annoyed.
e|12----- ------- ------- -------|12----- 14----- 15----- 12-----|
B|----------------12-------------|-------------------------------|
G|-------------------------------|-------------------------------|
D|-------------------------------|-------------------------------|
A|-------------------------------|-------------------------------|
E|-------------------------------|-------------------------------|


  A
e|0------ 0------ 0------ 0------|0------ 0------ 0------ 0------|
B|2-------2-------2-------2------|2-------2-------2-------2------|
G|2-------2-------2-------2------|2-------2-------2-------2------|
D|-------------------------------|2--------------------2---------|
A|0---------------4--------------|-------------0--4-------4------|
E|-------------------------------|-------------------------------|
  Wishing         to      avoid       an  unpleasant
e|------- ------- ------- -------|12----- ------- ------- -------|
B|14----------------------15-----|-------------------------------|
G|-------------------------------|----------------14-------------|
D|-------------------------------|-------------------------------|
A|-------------------------------|-------------------------------|
E|-------------------------------|-------------------------------|


  D                               A
e|2------ 2------ 2------ 2------|0------ 0------ 0------ 0------|
B|3-------3-------3-------3------|2-------2-------2-------2------|
G|2-------2-------2-------2------|2-------2-------2-------2------|
D|0------------------------------|-------------------------------|
A|----------------4-------2------|0---------------2-------4------|
E|-------------------------------|-------------------------------|
  Sce,            e,  e,      ene,
e|------- ------- 14----- -------|------- ------- ------- -------|
B|15----------------------15-----|-------------------------------|
G|-------------------------------|14-----------------------------|
D|-------------------------------|-------------------------------|
A|-------------------------------|-------------------------------|
E|-------------------------------|-------------------------------|

e|------- ------- ------- -------/5------ 5------ 5------ 3------|
B|-------------------------------/5-------5H7-----5-------3------|
G|-------------------------------|-------------------------------|
D|-------------------------------|-------------------------------|
A|-------------------------------|-------------------------------|
E|-------------------------------|-------------------------------|


  D                               B7
e|2------ 2------ 2------ 2------|2------ 2------ 2------ 2------|
B|3-------3-------3-------3------|4-------4-------4-------4------|
G|2-------2-------2-------2------|2-------2-------2-------2------|
D|0------------------------------|4-------4-------4-------4------|
A|----------------4--------------|2-----------------------2------|
E|-------------------------------|----------------2--------------|
  She     tells   Max to  stay    when the class  gone away,
                                              has
e|------- ------- ------- -------|------- ------- 14----- -------|
B|-------------------------------|12-----------------------------|
G|----------------14-------------|-------------------------------|
D|12-----------------------------|-------------------------------|
A|-------------------------------|-------------------------------|
E|-------------------------------|-------------------------------|

e|2------ ------- ------- -------|------- ------- ------- -------|
B|3------------------------------|-------------------------------|
G|-------------------------------|-------------------------------|
D|-------------------------------|-------------------------------|
A|-------------------------------|-------------------------------|
E|-------------------------------|-------------------------------|


  Em
e|3------ 3------ 3------ 3------|3------ 3------ 3------ 3------|
B|5-------5-------5-------5------|5-------5-------5-------5------|
G|4-------4-------4-------4------|4-------4-------4-------4------|
D|2------------------------------|2-------0----------------------|
A|----------------2------------2-|----------------4-------2------|
E|-------------------------------|-------------------------------|
  So      he      waits   behind
e|12----- ------- ------- -------|12----- 14----- 15----- 12-----|
B|----------------12-------------|-------------------------------|
G|-------------------------------|-------------------------------|
D|-------------------------------|-------------------------------|
A|-------------------------------|-------------------------------|
E|-------------------------------|-------------------------------|


  A
e|0------ 0------ 0------ 0------|0------ 0------ 0------ 0------|
B|2-------2-------2-------2------|2-------2-------2-------2------|
G|2-------2-------2-------2------|2-------2-------2-------2------|
D|-------------------------------|2-----------------------2------|
A|0---------------4--------------|-------------0--4--------------|
E|-------------------------------|-------------------------------|
  Writing         fifty       times  "I   must not     be
e|------- ------- ------- -------|12----- ------- ------- -------|
B|14----------------------15-----|-------------------------------|
G|-------------------------------|----------------14-------------|
D|-------------------------------|-------------------------------|
A|-------------------------------|-------------------------------|
E|-------------------------------|-------------------------------|


  D                               A
e|2------ 2------ 2------ 2------|0------ 0------ 0------ 0------|
B|3-------3-------3-------3------|2-------2-------2-------2------|
G|2-------2-------2-------2------|2-------2-------2-------2------|
D|0------------------------------|------------------------2------|
A|----------------4-------2------|0---------------0-----4------4-|
E|-------------------------------|-------------------------------|
  So,             o,  o,      o.."                             But
e|------- ------- 14----- -------|------- ------- ------- -------|
B|15------------------15---------|-------------------------------|
G|----------------------------14-|-------------------------------|
D|-------------------------------|-------------------------------|
A|-------------------------------|-------------------------------|
E|-------------------------------|-------------------------------|

  X       x               x               x               x
  E
e|0------ ------- ------- -------|------- ------- ------- -------|
B|0------------------------------|-------------------------------|
G|1------------------------------|-------------------------------|
D|2------------------------------|-------------------------------|
A|-------------------------------|-------------------------------|
E|-------------------------------|-------------------------------|
  when    she turns  her      back    on  the boy,             he


  X       x               x
  A5
e|------- ------- ------- -------|------- ------- ------- -------|
B|-------------------------------|-------------------------------|
G|2------------------------------|-----2--2--------4------6------|
D|2------------------------------|-------------------------------|
A|0------------------------------|-----0--0--------2------4------|
E|-------------------------------|-------------------------------|
  creeps  up      from    behind.
e|------- ------- ------- -------|------- ------- ------- -----2-|
B|-------------------------------|-----------------------------3-|
G|-------------------------------|-----------------------------2-|
D|-------------------------------|-----------------------------0-|
A|-------------------------------|-------------------------------|
E|-------------------------------|-------------------------------|


  D
e|2------ 2------ 2------ 2------|2------ 2------ 2------ 2------|
B|3-------3-------3-------3------|3-------3-------3-------3------|
G|2-------2-------2-------2------|2-------2-------2-------2------|
D|0------------------------------|0---------------0-------1------|
A|----------------0--------------|-------------4-----------------|
E|-------------------------------|-------------------------------|
  Bang!   Bang!   Maxwell's       silver      hammer      came
e|------- ------- ------- 5------|------- 2P0---- ------- -------|
B|3-----------------------7------|--------3P0-----3--------------|
G|2-------2----------------------|----------------2-------2----/-|
D|--------4----------------------|------------------------4----/-|
A|-------------------------------|-------------------------------|
E|-------------------------------|-------------------------------|

e|------- ------- ------- -------|------- ------- ------- -------|
B|------------------------3------|--------3P0--------------------|
G|--------2---------------2------|--------2-------2--------------|
D|4-------4----------------------|----------------4-------4----/-|
A|5------------------------------|------------------------5----/-|
E|-------------------------------|-------------------------------|

e|2------ 2------ 2------ 2------|2------ 2----2- 2----2- 2----0-|
B|3-------3-------3-------3------|3-------3----3--3----3--3----0-|
G|2-------2-------2-------2------|2-------2----2--2----2--2----1-|
D|0-------0-------0-------0------|0-------0----0--0----0--0----2-|
A|-------------------------------|-----------------------------2-|
E|-------------------------------|-----------------------------0-|


  E
e|4------ 4------ 4------ 4------|4------ 4------ 4------ 4------|
B|5-------5-------5-------5------|5-------5-------5-------5------|
G|4-------4-------4-------4------|4-------4-------4-------4------|
D|2------------------------------|2------------------------------|
A|----------------2--------------|----------------2--------------|
E|-------------------------------|-------------------------------|
  down        upon    her     head.
                                       (Dodo    dodooooooodo)
e|------- ------- ------- 7------|------- ------- ------- -------|
B|5-------7---------------9------|--------9P7--------------------|
G|4-------4----------------------|--------9-------9--------------|
D|-------------------------------|----------------9--------------|
A|-------------------------------|-------------------------------|
E|-------------------------------|-------------------------------|

e|------- ------- ------- -------|------- ------- ------- -------|
B|-------------------------------|-------------------------------|
G|--------4---------------9------|--------9P6-----4-----H-7------|
D|6-------6---------------9------|--------6-------6--------------|
A|7------------------------------|-------------------------------|
E|-------------------------------|-------------------------------|

e|0------ 0------ 0------ 0------|0------ 0------ 0------ 0------|
B|0-------0-------0-------0------|0-------0-------0-------0------|
G|1-------1-------1-------1------|1-------1-------1-------1------|
D|2-------2-------2-------2------|2-------2-------2-------2------|
A|2-------2-------2-------2------|2-------2-------2-------2------|
E|0-------0-------0-------0------|0-------0-------0-------0------|


  A
e|0------ 0------ 0------ 0------|0------ 0------ ------- -------|
B|2-------2-------2-------2------|2-------2-------2-------2------|
G|2-------2-------2-------2------|2-------2-------2-------2------|
D|----------------2------------2-|-------------2--2-------2------|
A|0------------------------------|0---------------0----4---------|
E|-------------------------------|-------------------------------|
  Bang!   Bang!   Maxwell's       silver      hammer      made
e|------- ------- ------- 12-----|------- 10----- -9----- -------|
B|10------12--------------10-----|--------10------10------10---8-|
G|-9-------9---------------------|-------------------------9---7-|
D|-------------------------------|-------------------------------|
A|-------------------------------|-------------------------------|
E|-------------------------------|-------------------------------|

e|------- ------- ------- -------|------- ------- ------- -------|
B|10----------------------10-----|----------------10-------------|
G|-9-------9---------------9-----|---------9-------9-------9-----|
D|--------11---------------------|--------11--------------11-----|
A|-------------------------------|-------------------------------|
E|-------------------------------|-------------------------------|

e|0------ 0------ 0------ 0------|0------ 0------ 0----0- 0----0-|
B|2-------2-------2-------2------|2-------2-------2----2--2----2-|
G|2-------2-------2-------2------|2-------2-------2----2--2----2-|
D|2-------2-------2-------2------|2-------2-------2----2--2----2-|
A|0-------0-------0-------0------|0-------0-------0----0--0----0-|
E|-------------------------------|-------------------------------|


  Em                              A
e|3------ 3------ 3------ 3------|------- ------- ------- -------|
B|5-------5-------5-------5------|-------------------------------|
G|4-------4-------4-------4------|2-------2-------2-------2------|
D|2------------------------------|2-------2-------2-------2------|
A|----------------2--------------|0-------0-------2-------4------|
E|-------------------------------|-------------------------------|
  sure    that    she was     dead.
e|------- ------- ------- -------|------- ------- ------- -------|
B|8-------8--------8------8------|10-/---------------------------|
G|7H9-----7------B10R9----7H9----|-9-/---------------------------|
D|-------------------------------|-------------------------------|
A|-------------------------------|-------------------------------|
E|-------------------------------|-------------------------------|

e|------- ------- ------- -------|------- ------- ------- -------|
B|8-------8--------8------8------|10-/---------------------------|
G|9-------7--------9------9------|-9-/---------------------------|
D|-------------------------------|-------------------------------|
A|-------------------------------|-------------------------------|
E|-------------------------------|-------------------------------|

e|0------ 0----0- 0------ 0------|0------ 0------ 0------ 0----0-|
B|0-------0----0--0-------0------|2-------2-------2-------2----2-|
G|1-------1----1--1-------1------|2-------2-------2-------2----2-|
D|2-------2----2--2-------2------|2-------2-------2-------2----2-|
A|2-------2----2--2-------2------|0-------0-------0-------0----0-|
E|0-------0----0--0-------0------|-------------------------------|


  D
e|2------ 2------ 2------ 2------|2------ 2------ 2------ 2------|
B|3-------3-------3-------3------|3-------3-------3-------3------|
G|2-------2-------2-------2------|2-------2-------2-------2------|
D|0------------------------------|0---------------0-------1------|
A|----------------0--------------|-------------4-----------------|
E|-------------------------------|-------------------------------|

e|------- ------- ------- 5------|------- 2P0---- ------- -------|
B|3-----------------------7------|--------3P0-----3--------------|
G|2-------2----------------------|----------------2-------2----/-|
D|--------4----------------------|------------------------4----/-|
A|-------------------------------|-------------------------------|
E|-------------------------------|-------------------------------|

e|------- ------- ------- -------|------- ------- ------- -------|
B|------------------------3------|--------3P0--------------------|
G|--------2---------------2------|--------2-------2--------------|
D|4-------4----------------------|----------------4-------4----/-|
A|5------------------------------|------------------------5----/-|
E|-------------------------------|-------------------------------|

e|2------ 2------ 2----2- 2------|2------ 2----2- 2----2- 2----0-|
B|3-------3-------3----3--3------|3-------3----3--3----3--3----0-|
G|2-------2-------2----2--2------|2-------2----2--2----2--2----1-|
D|0-------0-------0----0--0------|0-------0----0--0----0--0----2-|
A|-------------------------------|-----------------------------2-|
E|-------------------------------|-----------------------------0-|


  E
e|4------ 4------ 4------ 4------|4------ 4------ 4------ 4------|
B|5-------5-------5-------5------|5-------5-------3-------3------|
G|4-------4-------4-------4------|4-------4-------4-------4------|
D|2------------------------------|2------------------------------|
A|----------------2--------------|----------------2--------------|
E|-------------------------------|-------------------------------|
                                       (Dodo    dodooooooodo)
e|------- ------- ------- 7------|------- ------- ------- -------|
B|5-------7---------------9------|--------9P7--------------------|
G|4-------4----------------------|--------9-------9--------------|
D|-------------------------------|----------------9--------------|
A|-------------------------------|-------------------------------|
E|-------------------------------|-------------------------------|

e|------- ------- ------- -------|------- ------- ------- -------|
B|-------------------------------|-------------------------------|
G|--------4---------------9------|--------9P6-----4-----H-7------|
D|6-------6---------------9------|--------6-------6--------------|
A|7------------------------------|-------------------------------|
E|-------------------------------|-------------------------------|

e|0------ 0------ -----0- 0------|0----0- 0----0- 0------ 0------|
B|0-------0------------0--0------|0----0--0----0--0-------0------|
G|1-------1------------1--1------|1----1--1----1--1-------1------|
D|2-------2------------2--2------|2----2--2----2--2-------2------|
A|2-------2------------2--2------|2----2--2----2--2-------2------|
E|0-------0------------0--0------|0----0--0----0--0-------0------|


  A
e|0------ 0------ 0------ 0------|0------ 0------ 0------ -------|
B|2-------2-------2-------2------|2-------2-------2-------2------|
G|2-------2-------2-------2------|2-------2-------2-------2------|
D|----------------2------------2-|-------------2----------2------|
A|0------------------------------|0---------------0----4---------|
E|-------------------------------|-------------------------------|

e|------- ------- ------- 12-----|------- 10----- -9----- -------|
B|10------12--------------10-----|--------10------10------10---8-|
G|-9-------9---------------------|-------------------------9---7-|
D|-------------------------------|-------------------------------|
A|-------------------------------|-------------------------------|
E|-------------------------------|-------------------------------|

e|------- ------- ------- -------|------- ------- ------- -------|
B|10----------------------10-----|----------------10-------------|
G|-9-------9---------------9-----|---------9-------9-------9-----|
D|--------11---------------------|--------11--------------11-----|
A|-------------------------------|-------------------------------|
E|-------------------------------|-------------------------------|

e|0------ 0------ 0----0- 0------|0------ 0------ 0----0- 0----0-|
B|2-------2-------2----2--2------|2-------2-------2----2--2----0-|
G|2-------2-------2----2--2------|2-------2-------2----2--2----0-|
D|2-------2-------2----2--2------|2-------2-------2----2--2----2-|
A|0-------0-------0----0--0------|0-------0-------0----0--0----2-|
E|-------------------------------|-----------------------------0-|


  Em              A               D       A       D
e|3------ 3------ 0------ 0------|2------ 0------ 2------ -------|
B|5-------5-------2-------2------|3-------2-------3--------------|
G|4-------4-------2-------2------|2-------2-------2--------------|
D|2------------------------------|0---------------0--------------|
A|--------2-------0-------2------|--------0----------------------|
E|-------------------------------|-------------------------------|

e|------- ------- ------- -------|------- ------- 10-\--- -------|
B|8-------8--------8------8------|7--/------------10-\-----------|
G|7H9-----7------B10R9----7H9----|7--/---------------------------|
D|-------------------------------|-------------------------------|
A|-------------------------------|-------------------------------|
E|-------------------------------|-------------------------------|

e|------- ------- ------- -------|------- ------- ------- -------|
B|8-------8--------8------8------|7--/------------10-\-----------|
G|7-------7--------7------7------|7--/------------11-\-----------|
D|-------------------------------|-------------------------------|
A|-------------------------------|-------------------------------|
E|-------------------------------|-------------------------------|

e|0------ 0----0- 0------ 0----0-|2------ ------- 2------ -------|
B|0-------0----0--2-------2----2-|3---------------3--------------|
G|0-------0----0--2-------2----2-|2---------------2--------------|
D|2-------2----2--2-------2----2-|0---------------0--------------|
A|2-------2----2--0-------0----0-|-------------------------------|
E|0-------0----0-----------------|-------------------------------|


  D               F#              Bm              D7
e|------- ------5 ------- ---2--6|------- ------7 ------- ------8|
B|-----------7------------2------|-----------7---------------7---|
G|--------7-------------3--------|--------7---------------7------|
D|---4--7------------4-----------|------9------------4--7--------|
A|5---------------4--------------|---9---------------------------|
E|-------------------------------|7---------------5--------------|

e|2------ ------- 2------ -------|2------ ------- 2------ -------|
B|3---------------2--------------|3---------------1--------------|
G|2---------------3--------------|4---------------2--------------|
D|0---------------4--------------|4---------------0--------------|
A|----------------4--------------|2------------------------------|
E|----------------2--------------|-------------------------------|


  G
e|7------ ------- ------- -------|------- ------- ------- -------|
B|8------------------------------|-------------------------------|
G|7------------------------------|-------------------------------|
D|-------------------------------|-------------------------------|
A|-------------------------------|-------------------------------|
E|-------------------------------|-------------------------------|

e|3------ ------- ------- -------|------- ------- ------- -------|
B|3------------------------------|-------------------------------|
G|0------------------------------|-------------------------------|
D|0------------------------------|-------------------------------|
A|--------0-------2-------4------|5----7--4-------5-------0------|
E|3------------------------------|-------------------------------|


  D                               B7
e|2------ 2------ 2------ 2------|2------ 2------ 2------ 2------|
B|3-------3-------3-------3------|4-------4-------4-------4------|
G|2-------2-------2-------2------|2-------2-------2-------2------|
D|0------------------------------|4-------4-------4-------4------|
A|----------------4--------------|2-----------------------2------|
E|-------------------------------|----------------2--------------|
  P.      C.      Thirty -one    said,"We caught a dirty  one."
e|------- ------- ------- -------|------- ------- ------- -------|
B|-------------------------------|--------4-------5-------7------|
G|------------------------7------|4------------------------------|
D|--------4-------7--------------|-------------------------------|
A|5------------------------------|-------------------------------|
E|-------------------------------|-------------------------------|


  Em
e|3------ 3------ 3------ 3------|3------ 3------ 3------ 3------|
B|5-------5-------5-------5------|5-------5-------5-------5------|
G|4-------4-------4-------4------|4-------4-------4-------4------|
D|2------------------------------|2-------0----------------------|
A|----------------2------------2-|----------------4-------2------|
E|-------------------------------|-------------------------------|
  Maxwell         stands  alone
e|3------ ------- ------- -------|------- ------- ------- -------|
B|--------5----------------------|-------------------------------|
G|----------------4--------------|-------------------------------|
D|------------------------5------|--------4-------5--------------|
A|-------------------------------|7-----------------------7------|
E|-------------------------------|-------------------------------|


  A
e|0------ 0------ 0------ 0------|0------ 0------ 0------ 0------|
B|2-------2-------2-------2------|2-------2-------2-------2------|
G|2-------2-------2-------2------|2-------2-------2-------2------|
D|-------------------------------|2--------------------2---------|
A|0---------------4--------------|-------------0--4-------4------|
E|-------------------------------|-------------------------------|
  Painting        testimonial                     pictures.
e|------- ------- ------- -------|------- ------- ------- -------|
B|-------------------------------|-------------------------------|
G|-------------------------------|-------------------------------|
D|------------------------7------|5-------4----------------------|
A|--------4-------7--------------|----------------7-------4------|
E|5------------------------------|-------------------------------|


  D                               A
e|2------ 2------ 2------ 2------|0------ 0------ 0------ 0------|
B|3-------3-------3-------3------|2-------2-------2-------2------|
G|2-------2-------2-------2------|2-------2-------2-------2------|
D|0------------------------------|-------------------------------|
A|----------------4-------2------|0---------------2-------4------|
E|-------------------------------|-------------------------------|
  Oh,             oh, oh,     oh.
e|------- ------- ------- -------|------- ------- ------- -------|
B|-------------------------------|-------------------------------|
G|-------------------------------|-------------------------------|
D|--------4----------------------|-------------------------------|
A|5---------------4--------------|-------------------------------|
E|------------------------7------|5------------------------------|

e|------- ------- ------- -------|------- 5------ 5------ 3------|
B|-------------------------------|--------5H7-----5-------3------|
G|-------------------------------|-------------------------------|
D|-------------------------------|-------------------------------|
A|-------------------------------|-------------------------------|
E|-------------------------------|-------------------------------|


  D                               B7
e|2------ 2------ 2------ 2------|2------ 2------ 2------ 2------|
B|3-------3-------3-------3------|4-------4-------4-------4------|
G|2-------2-------2-------2------|2-------2-------2-------2------|
D|0------------------------------|4-------4-------4-------4------|
A|----------------4--------------|2-----------------------2------|
E|-------------------------------|----------------2--------------|
  Rose    and     Valerie,      screaming from the gallery
e|------- ------- ------- -------|------- ------- ------- -------|
B|-------------------------------|--------4-------5-------7------|
G|------------------------7------|4------------------------------|
D|--------4-------7--------------|-------------------------------|
A|5------------------------------|-------------------------------|
E|-------------------------------|-------------------------------|

e|2------ ------- ------- -------|------- ------- ------- -------|
B|3------------------------------|-------------------------------|
G|-------------------------------|-------------------------------|
D|-------------------------------|-------------------------------|
A|-------------------------------|-------------------------------|
E|-------------------------------|-------------------------------|


  Em
e|3------ 3------ 3------ 3------|3------ 3------ 3------ 3------|
B|5-------5-------5-------5------|5-------5-------5-------5------|
G|4-------4-------4-------4------|4-------4-------4-------4------|
D|2------------------------------|2-------0----------------------|
A|----------------2------------2-|----------------4-------2------|
E|-------------------------------|-------------------------------|
  Say     he      must    go      free                         The
                                 (Maxwell         must    go
e|3------ ------- ------- -------|------- ------- ------- -------|
B|--------5----------------------|-------------------------------|
G|----------------4--------------|-------------------------------|
D|------------------------5------|-------------------------------|
A|-------------------------------|7------------------------------|
E|-------------------------------|-------------------------------|

  A
e|0------ 0------ 0------ 0------|0------ 0------ 0------ 0------|
B|2-------2-------2-------2------|2-------2-------2-------2------|
G|2-------2-------2-------2------|2-------2-------2-------2------|
D|-------------------------------|2-----------------------2------|
A|0---------------4--------------|-------------0--4--------------|
E|-------------------------------|-------------------------------|
  judge   does    not     agree       and he  tells       them
  free)
e|------- ------- ------- -------|------- ------- ------- -------|
B|-------------------------------|-------------------------------|
G|-------------------------------|-------------------------------|
D|------------------------7------|5-------4----------------------|
A|--------4-------7--------------|----------------7-------4------|
E|5------------------------------|-------------------------------|


  D                               A
e|2------ 2------ 2------ 2------|0------ 0------ 0------ 0------|
B|3-------3-------3-------3------|2-------2-------2-------2------|
G|2-------2-------2-------2------|2-------2-------2-------2------|
D|0------------------------------|------------------------2------|
A|----------------4-------2------|0---------------0-----4------4-|
E|-------------------------------|-------------------------------|
  so              o   o       o.                               But
e|------- ------- ------- -------|------- ------- ------- -------|
B|-------------------------------|-------------------------------|
G|-------------------------------|-------------------------------|
D|--------4----------------------|-------------------------------|
A|5---------------4--------------|-------------------------------|
E|------------------------7------|5------------------------------|

  X       x               x               x               x
  E
e|0------ ------- ------- -------|------- ------- ------- -------|
B|0------------------------------|-------------------------------|
G|1------------------------------|-------------------------------|
D|2------------------------------|-------------------------------|
A|-------------------------------|-------------------------------|
E|-------------------------------|-------------------------------|
  as      the words       are leaving     his lips,            a


  X       x               x
  A
e|------- ------- ------- -------|------- ------- ------- -------|
B|-------------------------------|-------------------------------|
G|2------------------------------|-----2--2--------4------6------|
D|2------------------------------|-------------------------------|
A|0------------------------------|-----0--0--------2------4------|
E|-------------------------------|-------------------------------|
  noise   comes   from    behind.
e|------- ------- ------- -------|------- ------- ------- -----2-|
B|-------------------------------|-----------------------------3-|
G|-------------------------------|-----------------------------2-|
D|-------------------------------|-----------------------------0-|
A|-------------------------------|-------------------------------|
E|-------------------------------|-------------------------------|


  D
e|2------ 2------ 2------ 2------|2------ 2------ 2------ 2------|
B|3-------3-------3-------3------|3-------3-------3-------3------|
G|2-------2-------2-------2------|2-------2-------2-------2------|
D|0------------------------------|0---------------0-------1------|
A|----------------0--------------|-------------4-----------------|
E|-------------------------------|-------------------------------|
  Bang!   Bang!   Maxwell's       silver      hammer      came
e|------- ------- ------- 5------|------- 2P0---- ------- -------|
B|3-----------------------7------|--------3P0-----3--------------|
G|2-------2----------------------|----------------2-------2----/-|
D|--------4----------------------|------------------------4----/-|
A|-------------------------------|-------------------------------|
E|-------------------------------|-------------------------------|

e|------- ------- ------- -------|------- ------- ------- -------|
B|------------------------3------|--------3P0--------------------|
G|--------2---------------2------|--------2-------2--------------|
D|4-------4----------------------|----------------4-------4----/-|
A|5------------------------------|------------------------5----/-|
E|-------------------------------|-------------------------------|

e|2------ 2------ 2------ 2------|2------ 2------ 2----2- 2----0-|
B|3-------3-------3-------3------|3-------3-------3----3--3----0-|
G|2-------2-------2-------2------|2-------2-------2----2--2----1-|
D|0-------0-------0-------0------|0-------0-------0----0--0----2-|
A|-------------------------------|-----------------------------2-|
E|-------------------------------|-----------------------------0-|


  E
e|4------ 4------ 4------ 4------|4------ 4------ 4------ 4------|
B|5-------5-------5-------5------|5-------5-------5-------5------|
G|4-------4-------4-------4------|4-------4-------4-------4------|
D|2------------------------------|2------------------------------|
A|----------------2--------------|----------------2--------------|
E|-------------------------------|-------------------------------|
  down        upon    her     head.
                                       (Dodo    dodooooooodo)
e|------- ------- ------- 7------|------- ------- ------- -------|
B|5-------7---------------9------|--------9P7--------------------|
G|4-------4----------------------|--------9-------9--------------|
D|-------------------------------|----------------9--------------|
A|-------------------------------|-------------------------------|
E|-------------------------------|-------------------------------|

e|------- ------- ------- -------|------- ------- ------- -------|
B|-------------------------------|-------------------------------|
G|--------4---------------9------|--------9P6-----4-----H-7------|
D|6-------6---------------9------|--------6-------6--------------|
A|7------------------------------|-------------------------------|
E|-------------------------------|-------------------------------|

e|0------ 0------ -----0- 0------|0----0- 0------ 0------ 0------|
B|0-------0------------0--0------|0----0--0-------0-------0------|
G|1-------1------------1--1------|1----1--1-------1-------1------|
D|2-------2------------2--2------|2----2--2-------2-------2------|
A|2-------2------------2--2------|2----2--2-------2-------2------|
E|0-------0------------0--0------|0----0--0-------0-------0------|


  A
e|0------ 0------ 0------ 0------|0------ 0------ 0------ -------|
B|2-------2-------2-------2------|2-------2-------2-------2------|
G|2-------2-------2-------2------|2-------2-------2-------2------|
D|----------------2------------2-|-------------2----------2------|
A|0------------------------------|0---------------0----4---------|
E|-------------------------------|-------------------------------|
  Bang!   Bang!   Maxwell's       silver      hammer      made
e|------- ------- ------- 12-----|------- 10----- -9----- -------|
B|10------12--------------10-----|--------10------10------10---8-|
G|-9-------9---------------------|-------------------------9---7-|
D|-------------------------------|-------------------------------|
A|-------------------------------|-------------------------------|
E|-------------------------------|-------------------------------|

e|------- ------- ------- -------|------- ------- ------- -------|
B|10----------------------10-----|----------------10-------------|
G|-9-------9---------------9-----|---------9-------9-------9-----|
D|--------11---------------------|--------11--------------11-----|
A|-------------------------------|-------------------------------|
E|-------------------------------|-------------------------------|

e|0------ 0------ 0------ 0------|0------ 0------ 0----0- 0----0-|
B|2-------2-------2-------2------|2-------2-------2----2--2----2-|
G|2-------2-------2-------2------|2-------2-------2----2--2----2-|
D|2-------2-------2-------2------|2-------2-------2----2--2----2-|
A|0-------0-------0-------0------|0-------0-------0----0--0----0-|
E|-------------------------------|-------------------------------|


  Em                              A5
e|3------ 3------ 3------ 3------|------- ------- ------- -------|
B|5-------5-------5-------5------|-------------------------------|
G|4-------4-------4-------4------|2-------2-------2-------2------|
D|2------------------------------|2-------2-------2-------2------|
A|----------------2------------0-|0----0--0----0--0-------0------|
E|-------------------------------|-------------------------------|
  sure    that    she was     dead.       Whoa,   oh,     oh,
e|------- ------- ------- -------|------- ------- ------- -------|
B|8-------8--------8------8------|10-----------------------------|
G|7H9-----7------B10R9----7H9----|-9-----------------------------|
D|-------------------------------|-------------------------------|
A|-------------------------------|-------------------------------|
E|-------------------------------|-------------------------------|

e|------- ------- ------- -------|------- ------- ------- -------|
B|8-------8--------8------8------|10-----------------------------|
G|9-------7--------9------9------|-9-----------------------------|
D|-------------------------------|-------------------------------|
A|-------------------------------|-------------------------------|
E|-------------------------------|-------------------------------|

e|0------ 0------ 0----0- 0------|0------ 0------ 0--0--0 0----0-|
B|0-------0-------0----0--0------|2-------2-------2--2--2-2----2-|
G|1-------1-------1----1--1------|2-------2-------2--2--2-2----2-|
D|2-------2-------2----2--2------|2-------2-------2--2--2-2----2-|
A|2-------2-------2----2--2------|0-------0-------0--0--0-0----0-|
E|0-------0-------0----0--0------|-------------------------------|


  D
e|2------ 2------ 2------ 2------|2------ 2------ 2------ 2------|
B|3-------3-------3-------3------|3-------3-------3-------3------|
G|2-------2-------2-------2------|2-------2-------2-------2------|
D|0------------------------------|0---------------0-------1------|
A|----------------0--------------|-------------4-----------------|
E|-------------------------------|-------------------------------|

e|------- ------- ------- 5------|------- 2P0---- ------- -------|
B|3-----------------------7------|--------3P0-----3--------------|
G|2-------2----------------------|----------------2-------2----/-|
D|--------4----------------------|------------------------4----/-|
A|-------------------------------|-------------------------------|
E|-------------------------------|-------------------------------|

e|------- ------- ------- -------|------- ------- ------- -------|
B|------------------------3------|--------3P0--------------------|
G|--------2---------------2------|--------2-------2--------------|
D|4-------4----------------------|----------------4-------4----/-|
A|5------------------------------|------------------------5----/-|
E|-------------------------------|-------------------------------|

e|2------ 2------ 2----2- 2----2-|2------ 2------ 2----2- 2----0-|
B|3-------3-------3----3--3----3-|3-------3-------3----3--3----0-|
G|2-------2-------2----2--2----2-|2-------2-------2----2--2----1-|
D|0-------0-------0----0--0----0-|0-------0-------0----0--0----2-|
A|-------------------------------|-----------------------------2-|
E|-------------------------------|-----------------------------0-|

e|-----5-/10----- -----9- 7\5----|7/9\7-- ------- ------- 5------|
B|-------------------------------|-------------------------------|
G|-------------------------------|-------------------------------|
D|-------------------------------|-------------------------------|
A|-------------------------------|-------------------------------|
E|-------------------------------|-------------------------------|


  E
e|4------ 4------ 4------ 4------|4------ 4------ 4------ 4------|
B|5-------5-------5-------5------|5-------5-------5-------5------|
G|4-------4-------4-------4------|4-------4-------4-------4------|
D|2------------------------------|2------------------------------|
A|----------------2--------------|----------------2--------------|
E|-------------------------------|-------------------------------|
                                       (Dodo    dodooooooodo)
e|------- ------- ------- 7------|------- ------- ------- -------|
B|5-------7---------------9------|--------9P7--------------------|
G|4-------4----------------------|--------9-------9--------------|
D|-------------------------------|----------------9--------------|
A|-------------------------------|-------------------------------|
E|-------------------------------|-------------------------------|

e|------- ------- ------- -------|------- ------- ------- -------|
B|-------------------------------|-------------------------------|
G|--------4---------------9------|--------9P6-----4-----H-7------|
D|6-------6---------------9------|--------6-------6--------------|
A|7------------------------------|-------------------------------|
E|-------------------------------|-------------------------------|

e|0------ 0------ -----0- 0------|0----0- 0------ -----0- 0--0--0|
B|0-------0------------0--0------|0----0--0------------0--0--0--0|
G|1-------1------------1--1------|1----1--1------------1--1--1--1|
D|2-------2------------2--2------|2----2--2------------2--2--2--2|
A|2-------2------------2--2------|2----2--2------------2--2--2--2|
E|0-------0------------0--0------|0----0--0------------0--0--0--0|

e|-----5-/12----- -----9- 7\5----|7/9\7-- ------- ------- 5------|
B|-------------------------------|-------------------------------|
G|-------------------------------|-------------------------------|
D|-------------------------------|-------------------------------|
A|-------------------------------|-------------------------------|
E|-------------------------------|-------------------------------|


  A
e|0------ 0------ 0------ 0------|0------ 0------ 0------ -------|
B|2-------2-------2-------2------|2-------2-------2-------2------|
G|2-------2-------2-------2------|2-------2-------2-------2------|
D|----------------2------------2-|-------------2----------2------|
A|0------------------------------|0---------------0----4---------|
E|-------------------------------|-------------------------------|

e|------- ------- ------- 12-----|------- 10----- -9----- -------|
B|10------12--------------10-----|--------10------10------10---8-|
G|-9-------9---------------------|-------------------------9---7-|
D|-------------------------------|-------------------------------|
A|-------------------------------|-------------------------------|
E|-------------------------------|-------------------------------|

e|------- ------- ------- -------|------- ------- ------- -------|
B|10----------------------10-----|----------------10-------------|
G|-9-------9---------------9-----|---------9-------9-------9-----|
D|--------11---------------------|--------11--------------11-----|
A|-------------------------------|-------------------------------|
E|-------------------------------|-------------------------------|

e|0------ 0------ 0----0- 0------|0------ 0------ 0----0- 0----0-|
B|2-------2-------2----2--2------|2-------2-------2----2--2----2-|
G|2-------2-------2----2--2------|2-------2-------2----2--2----2-|
D|2-------2-------2----2--2------|2-------2-------2----2--2----2-|
A|0-------0-------0----0--0------|0-------0-------0----0--0----0-|
E|-------------------------------|-------------------------------|

e|-----5-/15----- -----9-\5------|7/9\7-- ------- ------- -------|
B|-------------------------------|------------------------10--10-|
G|-------------------------------|-------------------------------|
D|-------------------------------|-------------------------------|
A|-------------------------------|-------------------------------|
E|-------------------------------|-------------------------------|


  Em              A               D       A       D
e|3------ 3------ 0------ 0------|2------ ------- 2------ -------|
B|5-------5-------2-------2------|3-------2-------3--------------|
G|4-------4-------2-------2------|2-------2-------2--------------|
D|2------------------------------|0-------2-------0--------------|
A|----------------0--------------|--------0----------------------|
E|-------------------------------|-------------------------------|

e|------- ------- ------- -------|------- ------- 10-\--- -------|
B|8-------8--------8------8------|7--/------------10-\-----------|
G|7H9-----7------B10R9----7H9----|7--/---------------------------|
D|-------------------------------|-------------------------------|
A|-------------------------------|-------------------------------|
E|-------------------------------|-------------------------------|

e|------- ------- ------- -------|------- ------- ------- -------|
B|8-------8--------8------8------|7--/------------10-\-----------|
G|7-------7--------7------7------|7--/------------11-\-----------|
D|-------------------------------|-------------------------------|
A|-------------------------------|-------------------------------|
E|-------------------------------|-------------------------------|

e|0------ 0----0- 0------ 0----0-|2------ ------- 2------ -------|
B|0-------0----0--2-------2----2-|3---------------3--------------|
G|0-------0----0--2-------2----2-|2---------------2--------------|
D|2-------2----2--2-------2----2-|0---------------0--------------|
A|2-------2----2--0-------0----0-|-------------------------------|
E|0-------0----0-----------------|-------------------------------|

e|10\9--- 7\5---- 7\5---- -------|------- ------- ------- -------|
B|------------------------7\5----|2-------2----------------------|
G|-------------------------------|-------------------------------|
D|-------------------------------|-------------------------------|
A|-------------------------------|-------------------------------|
E|-------------------------------|-------------------------------|


  D               F#              Bm              D7
e|2------ ------- 2------ -------|2------ ------- 2------ -------|
B|3---------------2--------------|3---------------1--------------|
G|2---------------3--------------|4---------------2--------------|
D|0---------------4--------------|4---------------0--------------|
A|----------------4--------------|2------------------------------|
E|----------------2--------------|-------------------------------|
  Silver                          hammer
e|------- ------- ------- -------|------- ------- ------- -------|
B|-------------------------------|-----------------------------7H|
G|-------------------------------|-----------------------------7H|
D|-------------------------------|-------------------------------|
A|-------------------------------|-------------------------------|
E|-------------------------------|-------------------------------|

e|------- ------- ------- -------|------- ------- ------- -------|
B|-------------------------------|-----------------------------7H|
G|-------------------------------|-----------------------------7-|
D|-------------------------------|-------------------------------|
A|-------------------------------|-------------------------------|
E|-------------------------------|-------------------------------|

e|------- ------- ------- -------|------- ------- ------- -----17/
B|-------------------------------|-------------------------------|
G|-------------------------------|-------------------------------|
D|-------------------------------|-------------------------------|
A|-------------------------------|-------------------------------|
E|-------------------------------|-------------------------------|

                                          x       x
  G                                       A       D
e|3------ ------- ------- -------|------- ------- 2------ -------|
B|3------------------------------|--------2-------3--------------|
G|0------------------------------|--------2-------2--------------|
D|0------------------------------|0----2--2-------0--------------|
A|--------0-------2-------4------|--------4----------------------|
E|3------------------------------|-------------------------------|
  man
e|------- ------- ------- -------|------- ------- 10-\--- -------|
B|8-------8--------8------8------|7--/------------10-\-----------|
G|7H9-----7------B10R9----7H9----|7--/---------------------------|
D|-------------------------------|-------------------------------|
A|-------------------------------|-------------------------------|
E|-------------------------------|-------------------------------|

e|------- ------- ------- -------|------- ------- ------- -------|
B|8-------8--------8------8------|7--/------------10-\-----------|
G|7-------7--------7------7------|7--/------------11-\-----------|
D|-------------------------------|-------------------------------|
A|-------------------------------|-------------------------------|
E|-------------------------------|-------------------------------|

e|22----- 19\17-- ------- -------|------- ------- ------- -------|
B|----------------18\17---15/17--|15-----------------------------|
G|-------------------------------|-------------------------------|
D|-------------------------------|-------------------------------|
A|-------------------------------|-------------------------------|
E|-------------------------------|-------------------------------|

------------------------------------------------------------------

      THE BEATLES - OH! DARLING (Lennon/McCartney) From ABBEY ROAD
                    album. Released 26th September 1969.

------------------------------------------------------------------

      Tabbed by:PJVillanueva
e|------ ------ ------ ------|------ ------ 8----- ------|
B|---------------------------|--------------9------------|
G|---------------------------|--------------9------------|
D|---------------------------|-------------10------------|
A|---------------------------|---------------------------|
E|---------------------------|--------------0------------|
                                                   Oh!


e|5-5-5- 5-5-5- 5-5-5- 5-5-5-|4-4-4- 4-4-4- 4-4-4- 4-4-4-|
B|5-5-5--5-5-5--5-5-5--5-5-5-|5-5-5--5-5-5--5-5-5--5-5-5-|
G|6-6-6--6-6-6--6-6-6--6-6-6-|4-4-4--4-4-4--4-4-4--4-4-4-|
D|---------------------------|---------------------------|
A|---------------------------|---------------------------|
E|---------------------------|---------------------------|

e|------ 9--\-- ------ 9-----|------ 7-\--- ------ 7-----|
B|-------10-\----------10----|-------9-\-----------9-----|
G|-------9--\----------9-----|-------9-\-----------9-----|
D|---------------------------|---------------------------|
A|---------------------------|---------------------------|
E|---------------------------|---------------------------|
  Darling,             please
                           believe me


e|5-5-5- 5-5-5- 5-5-5- 5-5-5-|5-5-5- 5-5-5- 5-5-5- 5-5-5-|
B|7-7-7--7-7-7--7-7-7--7-7-7-|7-7-7--7-7-7--7-7-7--7-7-7-|
G|6-6-6--6-6-6--6-6-6--6-6-6-|7-7-7--7-7-7--7-7-7--7-7-7-|
D|---------------------------|---------------------------|
A|---------------------------|---------------------------|
E|---------------------------|---------------------------|

e|------ 5----- ------ 5-----|------ 5----- ------ 5-\---|
B|-------7-------------7-----|-------7-------------7-\---|
G|-------6-------------6-----|-------7-------------7-\---|
D|---------------------------|---------------------------|
A|---------------------------|---------------------------|
E|---------------------------|---------------------------|
  I'll   never  do  you    no harm                     Believe
                              Aaaaaaaaaaaaaaaaaaaaaaaaahh


e|2-2-2- 2-2-2- 2-2-2- 2-2-2-|2-2-2- 2-2-2- 2-2-2- 2-2-2-|
B|3-3-3--3-3-3--3-3-3--3-3-3-|3-3-3--3-3-3--3-3-3--3-3-3-|
G|2-2-2--2-2-2--1-1-1--1-1-1-|2-2-2--2-2-2--1-1-1--1-1-1-|
D|---------------------------|---------------------------|
A|---------------------------|---------------------------|
E|---------------------------|---------------------------|

e|------ 7----- ------ 7-----|------ 7----- ------ 7-----|
B|-------7-------------9-----|-------7-------------9-----|
G|-------7-------------9-----|-------7-------------9-----|
D|---------------------------|---------------------------|
A|---------------------------|---------------------------|
E|---------------------------|---------------------------|
      me when     you         I'll   never  do  you    no
           I tell
  Aaaaaaaaaaaaaaaahhhh        Aaaaaaaaaaaaaaaaaahhhh

                                            (.

e|0-0-0- 0-0-0- 2-2-2- 2-2-2-|0-0-0- 0-0-0- 0----- ------|
B|2-2-2--2-2-2--3-3-3--3-3-3-|2-2-2--2-2-2--0------------|
G|2-2-2--2-2-2--2-2-2--2-2-2-|2-2-2--2-2-2--1------------|
D|---------------------------|---------------------------|
A|---------------------------|---------------------------|
E|---------------------------|---------------------------|

e|------ 5-\--- ------ 5-\---|------ 5-\--- ------ ------|
B|-------5-\-----------7-\---|-------5-\-----------------|
G|-------6-\-----------7-\---|-------6-\-----------------|
D|---------------------------|---------------------------|
A|---------------------------|---------------------------|
E|---------------------------|---------------------------|
  harm                                                 Oh!

e|5-5-5- 5-5-5- 5-5-5- 5-5-5-|4-4-4- 4-4-4- 4-4-4- 4-4-4-|
B|5-5-5--5-5-5--5-5-5--5-5-5-|5-5-5--5-5-5--5-5-5--5-5-5-|
G|6-6-6--6-6-6--6-6-6--6-6-6-|4-4-4--4-4-4--4-4-4--4-4-4-|
D|---------------------------|---------------------------|
A|---------------------------|---------------------------|
E|---------------------------|---------------------------|

e|------ 5----- ------ 5-----|------ 7----- ------ 7-\---|
B|-------5-------------5-----|-------9-------------9-\---|
G|-------6-------------6-----|-------9-------------9-\---|
D|---------------------------|---------------------------|
A|---------------------------|---------------------------|
E|---------------------------|---------------------------|
  Darling,             if you leave me
  Oooooooooooooooooooooohhhhhhoooooooooooooooooooooooohhhh


e|5-5-5- 5-5-5- 5-5-5- 5-5-5-|5-5-5- 5-5-5- 5-5-5- 5-5-5-|
B|7-7-7--7-7-7--7-7-7--7-7-7-|7-7-7--7-7-7--7-7-7--7-7-7-|
G|6-6-6--6-6-6--6-6-6--6-6-6-|7-7-7--7-7-7--7-7-7--7-7-7-|
D|---------------------------|---------------------------|
A|---------------------------|---------------------------|
E|---------------------------|---------------------------|

e|------ 5----- ------ 5-----|------ 5-\--- ------ 5-\---|
B|-------7-------------7-----|-------7-\-----------7-\---|
G|-------6-------------6-----|-------7-\-----------7-\---|
D|---------------------------|---------------------------|
A|---------------------------|---------------------------|
E|---------------------------|---------------------------|
  I'll   never  make it    alone                       Believe
  Ooooooooooooooooooooooohhhhhaaaaaaaaaaaaaaaaaaaaaaahhhh


e|2-2-2- 2-2-2- 2-2-2- 2-2-2-|2-2-2- 2-2-2- 2-2-2- 2-2-2-|
B|3-3-3--3-3-3--3-3-3--3-3-3-|3-3-3--3-3-3--3-3-3--3-3-3-|
G|2-2-2--2-2-2--1-1-1--1-1-1-|2-2-2--2-2-2--1-1-1--1-1-1-|
D|---------------------------|---------------------------|
A|---------------------------|---------------------------|
E|---------------------------|---------------------------|

e|------ 7----- ------ 7-\---|------ 7-\--- ------ 7-----|
B|-------7-------------9-\---|-------7-\-----------9-----|
G|-------7-------------9-\---|-------7-\-----------9-----|
D|---------------------------|---------------------------|
A|---------------------------|---------------------------|
E|---------------------------|---------------------------|
      me when    you ooooooh  Don't  ever   leave me   alone
           I beg
  Aaaaaaaaaaaaaaaaahhhh       Aaaaaaaaaaaaaaaaahhhh

e|0-0-0- 0-0-0- 2-2-2- 2-222-|000000 000000 333333 333333|
B|2-2-2--2-2-2--3-3-3--3-333-|222222-222222-222222-222222|
G|2-2-2--2-2-2--2-2-2--2-222-|222222-222222-222222-222222|
D|---------------------------|---------------------------|
A|---------------------------|---------------------------|
E|---------------------------|---------------------------|

e|------ 5-\--- ------ 5-\---|------ 5-\--- ------ 5-\---|
B|-------5-\-----------7-\---|-------5-\-----------5-\---|
G|-------6-\-----------7-\---|-------6-\-----------6-\---|
D|---------------------------|---------------------------|
A|---------------------------|---------------------------|
E|---------------------------|---------------------------|
                                                     When
                                                       you


e|5-5-5- 5-5-5- 5-5-5- 5-5-5-|8-8-8- 8-8-8- 8-8-8- 8-8-8-|
B|7-7-7--7-7-7--7-7-7--7-7-7-|101010-101010-101010-101010|
G|7-7-7--7-7-7--7-7-7--7-7-7-|101010-101010-101010-101010|
D|---------------------------|---------------------------|
A|---------------------------|---------------------------|
E|---------------------------|---------------------------|

e|--10-- ------ --10-- ------|--13-- ------ --13-- ------|
B|----10---10-------10---10--|----13-101310-----13-101310|
G|-------11--11--------11--11|10------------10-----------|
D|--------------12-----------|---------------------------|
A|---------------------------|---------------------------|
E|---------------------------|---------------------------|
  told me             you didn't     anymore         Oh,
                              need me                 well,
                                                        you

e|9-9-9- 9-9-9- 9-9-9- 9-9-9-|9-9-9- 9-9-9- 9-9-9- 9-9-9-|
B|101010-101010-101010-101010|8-8-8--8-8-8--8-8-8--8-8-8-|
G|9-9-9--9-9-9--9-9-9--9-9-9-|9-9-9--9-9-9--9-9-9--9-9-9-|
D|---------------------------|---------------------------|
A|---------------------------|---------------------------|
E|---------------------------|---------------------------|

e|------ ------ ------ ------|------ ------ ------ ------|
B|--10------------10---------|--10------------10---------|
G|----9----9--------9----9---|----9----9--------9----9---|
D|-------11--11--------11--11|-------11--11--------11--11|
A|12------------12-----------|12------------12-----------|
E|---------------------------|---------------------------|
  know I nearly broke down and cried                 When
                                                       you


e|111111 111111 111111 111111|111111 111111 111111 111111|
B|121212-121212-121212-121212|121212-121212-121212-121212|
G|111111-111111-111111-111111|111111-111111-111111-111111|
D|---------------------------|---------------------------|
A|---------------------------|---------------------------|
E|---------------------------|---------------------------|

e|------ ------ ------ ------|------ ------ ------ ------|
B|--12------------12---------|--12------------12---------|
G|----11---11-------11---11--|----11---11-------11---11--|
D|-------13--13--------13--13|-------13--13--------13--13|
A|14------------14-----------|14------------14-----------|
E|---------------------------|---------------------------|
  told me              you didn't    anymore         Oh.
                              need me                 well,
                                                     you

                                            (.

e|77--77 77--77 88--88 88--88|7----- ------ 0----- ------|
B|99--99-99--99-66--66-66--66|9-------------1------------|
G|99--99-99--99-55--55-55--55|9-------------1------------|
D|---------------------------|--------------2------------|
A|---------------------------|---------------------------|
E|---------------------------|---------------------------|

e|--12-- ------ --13-- ------|------ ------ ------ ------|
B|----12---12-------13---13--|---------------------------|
G|-------13--13--------14--14|---------------------------|
D|14------------15-----------|14-\-----------------------|
A|---------------------------|---------------------------|
E|---------------------------|---------------------------|
  know I nearly broke down and died                    Oh!

e|5-5-5- 5-5-5- 5-5-5- 5-5-5-|4-4-4- 4-4-4- 4-4-4- 4-4-4-|
B|5-5-5--5-5-5--5-5-5--5-5-5-|5-5-5--5-5-5--5-5-5--5-5-5-|
G|6-6-6--6-6-6--6-6-6--6-6-6-|4-4-4--4-4-4--4-4-4--4-4-4-|
D|---------------------------|---------------------------|
A|---------------------------|---------------------------|
E|---------------------------|---------------------------|

e|------ 9----- ------ 9--\--|------ 7----- ------ 7-\---|
B|-------10------------10-\--|-------9-------------9-\---|
G|-------9-------------9--\--|-------9-------------9-\---|
D|---------------------------|---------------------------|
A|---------------------------|---------------------------|
E|---------------------------|---------------------------|
  Darling,             if you leave me

e|5-5-5- 5-5-5- 5-5-5- 5-5-5-|5-5-5- 5-5-5- 5-5-5- 5-5-5-|
B|7-7-7--7-7-7--7-7-7--7-7-7-|7-7-7--7-7-7--7-7-7--7-7-7-|
G|6-6-6--6-6-6--6-6-6--6-6-6-|7-7-7--7-7-7--7-7-7--7-7-7-|
D|---------------------------|---------------------------|
A|---------------------------|---------------------------|
E|---------------------------|---------------------------|

e|------ 5----- ------ 5-\---|------ 5-\--- ------ 5-----|
B|-------7-------------7-\---|-------7-\-----------7-----|
G|-------6-------------6-\---|-------7-\-----------7-----|
D|---------------------------|---------------------------|
A|---------------------------|---------------------------|
E|---------------------------|---------------------------|
  I'll   never  make it    alone                       Believe
  Ooooooooooooooooooooooohhhhhaaaaaaaaaaaaaaaaaaaahhhh


e|2-2-2- 2-2-2- 2-2-2- 2-2-2-|2-2-2- 2-2-2- 2-2-2- 2-2-2-|
B|3-3-3--3-3-3--3-3-3--3-3-3-|3-3-3--3-3-3--3-3-3--3-3-3-|
G|2-2-2--2-2-2--1-1-1--1-1-1-|2-2-2--2-2-2--1-1-1--1-1-1-|
D|---------------------------|---------------------------|
A|---------------------------|---------------------------|
E|---------------------------|---------------------------|

e|------ 7----- ------ 7-----|------ 7----- ------ 7-----|
B|-------7-------------9-----|-------7-------------9-----|
G|-------7-------------9-----|-------7-------------9-----|
D|---------------------------|---------------------------|
A|---------------------------|---------------------------|
E|---------------------------|---------------------------|
      me when     you         I'll   never  do  you    no
           I tell
  Aaaaaaaaaaaaaaaaahhh        Aaaaaaaaaaaaaaaaahhh

e|0-0-0- 0-0-0- 2-2-2- 2-2-2-|000000 000000 333333 3-333-|
B|2-2-2--2-2-2--3-3-3--3-3-3-|222222-222222-222222-2-222-|
G|2-2-2--2-2-2--2-2-2--2-2-2-|222222-222222-222222-2-222-|
D|---------------------------|---------------------------|
A|---------------------------|---------------------------|
E|---------------------------|---------------------------|

e|------ 5-\--- ------ 5-\---|------ 5-\--- ------ 5-\---|
B|-------5-\-----------7-\---|-------5-\-----------5-\---|
G|-------6-\-----------7-\---|-------6-\-----------6-\---|
D|---------------------------|---------------------------|
A|---------------------------|---------------------------|
E|---------------------------|---------------------------|
  harm                                               When
                                                       you


e|5-5-5- 5-5-5- 5-5-5- 5-5-5-|8-8-8- 8-8-8- 8-8-8- 8-8-8-|
B|7-7-7--7-7-7--7-7-7--7-7-7-|101010-101010-101010-101010|
G|7-7-7--7-7-7--7-7-7--7-7-7-|101010-101010-101010-101010|
D|---------------------------|---------------------------|
A|---------------------------|---------------------------|
E|---------------------------|---------------------------|

e|--10-- ------ --10-- ------|--13-- ------ --13-- ------|
B|----10---10-------10---10--|----13-101310-----13-101310|
G|-------11--11--------11--11|10------------10-----------|
D|--------------12-----------|---------------------------|
A|---------------------------|---------------------------|
E|---------------------------|---------------------------|
  told me oooooh       you didn't     anymore         Oh,
                              need me                 well,
                                                        you

e|9-9-9- 9-9-9- 9-9-9- 9-9-9-|9-9-9- 9-9-9- 9-9-9- 9-9-9-|
B|101010-101010-101010-101010|8-8-8--8-8-8--8-8-8--8-8-8-|
G|9-9-9--9-9-9--9-9-9--9-9-9-|9-9-9--9-9-9--9-9-9--9-9-9-|
D|---------------------------|---------------------------|
A|---------------------------|---------------------------|
E|---------------------------|---------------------------|

e|------ ------ ------ ------|------ ------ ------ ------|
B|--10------------10---------|--10------------10---------|
G|----9----9--------9----9---|----9----9--------9----9---|
D|-------11--11--------11--11|-------11--11--------11--11|
A|12------------12-----------|12------------12-----------|
E|---------------------------|---------------------------|
  know I nearly broke down and cried              Oh,when
                                                       you


e|111111 111111 111111 111111|111111 111111 111111 111111|
B|121212-121212-121212-121212|121212-121212-121212-121212|
G|111111-111111-111111-111111|111111-111111-111111-111111|
D|---------------------------|---------------------------|
A|---------------------------|---------------------------|
E|---------------------------|---------------------------|

e|------ ------ ------ ------|------ ------ ------ ------|
B|--12------------12---------|--12------------12---------|
G|----11---11-------11---11--|----11---11-------11---11--|
D|-------13--13--------13--13|-------13--13--------13--13|
A|14------------14-----------|14------------14-----------|
E|---------------------------|---------------------------|
  told me              you didn't    anymore         Oh,
                              need me                 well,
                                                      you

                                            (.

e|77--77 77--77 88--88 88--88|7----- ------ 0----- ------|
B|99--99-99--99-66--66-66--66|9-------------1------------|
G|99--99-99--99-55--55-55--55|9-------------1------------|
D|---------------------------|--------------2------------|
A|---------------------------|---------------------------|
E|---------------------------|---------------------------|

e|--12-- ------ --13-- ------|------ ------ ------ ------|
B|----12---12-------13---13--|---------------------------|
G|-------13--13--------14--14|---------------------------|
D|14------------15-----------|14-\-----------------------|
A|---------------------------|---------------------------|
E|---------------------------|---------------------------|
  know I nearly broke down and died                    Oh!

e|5-5-5- 5-5-5- 5-5-5- 5-5-5-|4-4-4- 4-4-4- 4-4-4- 4-4-4-|
B|5-5-5--5-5-5--5-5-5--5-5-5-|5-5-5--5-5-5--5-5-5--5-5-5-|
G|6-6-6--6-6-6--6-6-6--6-6-6-|4-4-4--4-4-4--4-4-4--4-4-4-|
D|---------------------------|---------------------------|
A|---------------------------|---------------------------|
E|---------------------------|---------------------------|

e|------ 9----- ------ 9--\--|------ 7----- ------ 7-\---|
B|-------10------------10-\--|-------9-------------9-\---|
G|-------9-------------9--\--|-------9-------------9-\---|
D|---------------------------|---------------------------|
A|---------------------------|---------------------------|
E|---------------------------|---------------------------|
  Darling,             please
                           believe me
  Ooooooooooooooooooooooohhhhhooooooooooooooooooooooohhhh

e|5-5-5- 5-5-5- 5-5-5- 5-5-5-|5-5-5- 5-5-5- 5-5-5- 5-5-5-|
B|7-7-7--7-7-7--7-7-7--7-7-7-|7-7-7--7-7-7--7-7-7--7-7-7-|
G|6-6-6--6-6-6--6-6-6--6-6-6-|7-7-7--7-7-7--7-7-7--7-7-7-|
D|---------------------------|---------------------------|
A|---------------------------|---------------------------|
E|---------------------------|---------------------------|

e|------ 5----- ------ 5-----|------ 5-\--- ------ 5-\---|
B|-------7-------------7-----|-------7-\-----------7-\---|
G|-------6-------------6-----|-------7-\-----------7-\---|
D|---------------------------|---------------------------|
A|---------------------------|---------------------------|
E|---------------------------|---------------------------|
  I'll   never  let       you               Oh,    darling
                            down             believe
                                                 me,    Believe
  Ooooooooooooooooooooooohhhhhaaaaaaaaaaaaaaaaaaaaaaahhhh


e|2-2-2- 2-2-2- 2-2-2- 2-2-2-|2-2-2- 2-2-2- 2-2-2- 2-2-2-|
B|3-3-3--3-3-3--3-3-3--3-3-3-|3-3-3--3-3-3--3-3-3--3-3-3-|
G|2-2-2--2-2-2--1-1-1--1-1-1-|2-2-2--2-2-2--1-1-1--1-1-1-|
D|---------------------------|---------------------------|
A|---------------------------|---------------------------|
E|---------------------------|---------------------------|

e|------ 7----- ------ 7-----|------ 7----- ------ 7-\---|
B|-------7-------------9-----|-------7-------------9-\---|
G|-------7-------------9-----|-------7-------------9-\---|
D|---------------------------|---------------------------|
A|---------------------------|---------------------------|
E|---------------------------|---------------------------|
      me when     you    ooooh   I'll       do  you    no
           I tell                    never
  Aaaaaaaaaaaaaaaaahhh        Aaaaaaaaaaaaaaaaahhh

                                       (.

e|0-0-0- 0-0-0- 2-2-2- 2-2-2-|0----- ------ ------ ------|
B|2-2-2--2-2-2--3-3-3--3-3-3-|2------6---5---------------|
G|2-2-2--2-2-2--2-2-2--2-2-2-|2------7---6---------------|
D|---------------------------|-------6---5---------------|
A|---------------------------|---------------------------|
E|---------------------------|---------------------------|
                                                +   +  +
e|------ 5-\--- ------ 5-\---|------ 6---5- ---14- ------|
B|-------5-\-----------7-\---|-------6---7---------14----|
G|-------6-\-----------7-\---|-------7---6------------14-|
D|---------------------------|-------6---5---------------|
A|---------------------------|---------------------------|
E|---------------------------|---------------------------|
  harm

  +  +   +
e|------ ------ ------ ------|------ ------ ------ ------|
B|---------------------------|---------------------------|
G|---------------------------|---------------------------|
D|9--------------------------|---------------------------|
A|---9---5-------------------|---------------------------|
E|---------------------------|---------------------------|


-----------------------------------------------------------------
  THE BEATLES - OCTOPUS'S GARDEN (Starkey) From ABBEY ROAD album.
                Released 26th September 1969.
-----------------------------------------------------------------
  Tabbed by:PJVillanueva
e|------- ------- ------- -------|------- ------- ------- -------|
B|-------------------------------|---------------------------------|
G|-------------------------------|------------------------9-H-11---|
D|-------------------------------|----------------9-H-11-----------|
A|-------------------------------|---------------------------------|
E|-------------------------------|---------------------------------|

e|------- ------- ------- -------|------- ------- ------- -------|
B|----12-H14-P12-----------------|---------------------------------|
G|13--------------13--11-\9----11/13----------------------9-H-11---|
D|-------------------------------|----------------9-H-11-----------|
A|-------------------------------|---------------------------------|
E|-------------------------------|---------------------------------|

e|------- ------- ------- -------|------- ------- ------- -------|
B|-------------------------------|-------------------------------|
G|-----------------------------12|13-----------------------------|
D|-----------------------------13|14-----------------------------|
A|-------------------------------|-------------------------------|
E|-------------------------------|-------------------------------|

e|----12- ------- ------- -------|------- ---------|
B|--------14--12-----------------/10-----/11-------|
G|13--------------13-P11-\9------/11-----/12-------|
D|-------------------------------|-----------------|
A|-------------------------------|-----------------|
E|-------------------------------|-----------------|


  E                               C#m
e|0------ ------- ------- -------|4------ ------- ------- -------|
B|--------------------0----------|--------------------5----------|
G|------------1------------------|------------6------------------|
D|--------2---------------2------|--------6---------------6------|
A|----------------2--------------|4------------------------------|
E|0------------------------------|----------------4--------------|

e|------- ------- ------- -------|------- ------- ------- -------|
B|12--------------14-------------|-------------------------------|
G|13----------------------13-\11-|9-------9-------11-P9----------|
D|-------------------------------|------------------------11-P9--|
A|-------------------------------|-------------------------------|
E|-------------------------------|-------------------------------|


  A                               B
e|5------ ------- ------- -------|7------ ------- ------- -------|
B|--------------------5----------|--------------------7----------|
G|------------6------------------|------------8------------------|
D|--------7---------------7------|--------9---------------9------|
A|----------------7--------------|----------------9--------------|
E|5------------------------------|7------------------------------|

e|------- ------- ------- -------|------- ------- ------- -------|
B|-------------------------------|-------------------------------|
G|-------------------------------|-------------------------------|
D|-------------------------------|-------------------------------|
A|11-P9-\-7-------7-------9------|-------------------------------|
E|-------------------------------|--------7-------7--------------|


  E
e|0------ ------- ------- -------|0------ ------- ------- -------|
B|--------------------0----------|--------------------0----------|
G|------------1------------------|------------1------------------|
D|--------2---------------2------|--------2---------------2------|
A|----------------2--------------|----------------2--------------|
E|0------------------------------|0------------------------------|
          I'd     like    to  be
e|------- ------- ------- -------|------- ------- ------- -------|
B|-------------------------------|-------------------------------|
G|-------------------------------|-------------------------------|
D|-------------------------------|-------------------------------|
A|7------------------------------|-------------------------------|
E|-------------------------------|-------------------------------|


  C#m
e|4------ ------- ------- -------|4------ ------- ------- -------|
B|--------------------5----------|--------------------5----------|
G|------------6------------------|------------6------------------|
D|--------6---------------6------|--------6---------------6------|
A|4------------------------------|4------------------------------|
E|----------------4--------------|----------------4--------------|
          Under           the sea                         In  an

  A
e|5------ ------- ------- -------|5------ ------- ------- -------|
B|--------------------5----------|--------------------5----------|
G|------------6------------------|------------6------------------|
D|--------7---------------7------|--------7---------------7------|
A|----------------7--------------|----------------7--------------|
E|5------------------------------|5------------------------------|
   octopus's                  garden                  in  the shade

  B
e|7------ ------- ------- -------|7------ ------- ------- -------|
B|--------------------7----------|--------------------7----------|
G|------------8------------------|------------8------------------|
D|--------9---------------9------|--------9---------------9------|
A|----------------9--------------|----------------9--------------|
E|7------------------------------|7------------------------------|


  E
e|0------ ------- ------- -------|0------ ------- ------- -------|
B|--------------------0----------|--------------------0----------|
G|------------1------------------|------------1------------------|
D|--------2---------------2------|--------2---------------2------|
A|----------------2--------------|----------------2--------------|
E|0------------------------------|0------------------------------|
          He'd    let us      in

  C#m
e|4------ ------- ------- -------|4------ ------- ------- -------|
B|--------------------5----------|--------------------5----------|
G|------------6------------------|------------6------------------|
D|--------6---------------6------|--------6---------------6------|
A|4------------------------------|4------------------------------|
E|----------------4--------------|----------------4--------------|
          Knows   where  we've been                       in his

  A
e|5------ ------- ------- -------|5------ ------- ------- -------|
B|--------------------5----------|--------------------5----------|
G|------------6------------------|------------6------------------|
D|--------7---------------7------|--------7---------------7------|
A|----------------7--------------|----------------7--------------|
E|5------------------------------|5------------------------------|
   octopus's                  garden                  in  the shade

  B
e|7------ ------- ------- -------|7------ ------- ------- -------|
B|--------------------7----------|--------------------7----------|
G|------------8------------------|------------8------------------|
D|--------9---------------9------|--------9---------------9------|
A|----------------9--------------|----------------9--------------|
E|7------------------------------|7------------------------------|

e|------- ------- ------- ------9/11----- ------- 7------ -------|
B|-------------------------------|-------------------------------|
G|------------------------------9/11--------------8--------------|
D|-------------------------------|-------------------------------|
A|-------------------------------|-------------------------------|
E|-------------------------------|-------------------------------|


  C#m
e|4------ ------- ------- -------|------- ------- ------- -------|
B|5------------------------------|-------------------------------|
G|6------------------------------|-------------------------------|
D|6------------------------------|-------------------------------|
A|4------------------------------|-------------------------------|
E|-------------------------------|-------------------------------|
          I'd     ask     my      friends                 to
e|9------ ------- ------- -------|------- ------- ------- -------|
B|-------------------------------|-------------------------------|
G|9------------------------------|-------------------------------|
D|-------------------------------|-------------------------------|
A|-------------------------------|-------------------------------|
E|-------------------------------|-------------------------------|

e|0------ 0------ 0------ 0------|0------ 0------ 0------ 0------|
B|2-------2-------2-------2--P--0|2-------2-------2--P--0-2------|
G|1-------1-------1-------1------|1-------1-------1-------1------|
D|-------------------------------|-------------------------------|
A|-------------------------------|-------------------------------|
E|-------------------------------|-------------------------------|


                                                  B
e|------- ------- ------- -------|4------ ------- 2------ -------|
B|-------------------------------|5---------------4--------------|
G|-------------------------------|6---------------4--------------|
D|-------------------------------|6---------------4--------------|
A|-------------------------------|4---------------2--------------|
E|-------------------------------|-------------------------------|
  come            and     see
e|0------ 0------ 0------ 0------|0------ 0------ 4------ 4------|
B|2-------2--P--0-2-------2--P--0|2-------2-------4--H--5P4------|
G|1-------1-------1-------1------|1-------1-------4--H--6P4------|
D|-------------------------------|----------------6-------6------|
A|-------------------------------|-------------------------------|
E|-------------------------------|-------------------------------|

  A
e|0------ ------- ------- -------|------- ------- ------- -------|
B|2------------------------------|-------------------------------|
G|2------------------------------|-------------------------------|
D|2------------------------------|-------------------------------|
A|0------------------------------|-------------------------------|
E|-------------------------------|-------------------------------|
          An      octopus's
e|------- ------- ------- -------|------- ------- ------- -------|
B|5-------5-------5-------5------|5-------5-------5-------5------|
G|6-------6-------6-------6------|6-------6-------6-------6------|
D|------------------------------7|--------------7----------------|
A|-------------------------------|-------------------------------|
E|-------------------------------|-------------------------------|

  B
e|2------ 2------ 2------ 2------|------- 2------ 2------ -------|
B|4-------4-------4-------4------|--------4-------4--------------|
G|4-------4-------4-------4------|--------4-------4--------------|
D|4-------4-------4-------4------|--------4-------4--------------|
A|2-------2-------2-------2------|--------2-------2--------------|
E|-------------------------------|-------------------------------|
  garden          with    me
e|------- ------- ------- -------|------- ------- ------- -------|
B|7-------7-------9-------7------|-------------------------------|
G|8-------8-------8-------8------|-------------------------------|
D|9-------9-------9-------9------|-------------------------------|
A|-------------------------------|-------------------------------|
E|-------------------------------|-------------------------------|

  E
e|0------ ------- ------- -------|0------ ------- ------- -------|
B|--------------------0----------|--------------------0----------|
G|------------1------------------|------------1------------------|
D|--------2---------------2------|--------2---------------2------|
A|----------------2--------------|----------------2--------------|
E|0------------------------------|0------------------------------|
          I'd     like    to  be
         (I'd     like    to  be

  C#m
e|4------ ------- ------- -------|4------ ------- ------- -------|
B|--------------------5----------|--------------------5----------|
G|------------6------------------|------------6------------------|
D|--------6---------------6------|--------6---------------6------|
A|4------------------------------|4------------------------------|
E|----------------4--------------|----------------4--------------|
          Under           the sea                         In  an
          Under           the sea                         In  an

  A                               B
e|5------ ------- ------- -------|7------ ------- ------- -------|
B|--------------------5----------|--------------------7----------|
G|------------6------------------|------------8------------------|
D|--------7---------------7------|--------9---------------9------|
A|----------------7--------------|----------------9--------------|
E|5------------------------------|7------------------------------|
   octopus's                  garden                  in  the shade
   octopus's                  garden                  in  the shade)

  E
e|0------ ------- ------- -------|0------ ------- ------- -------|
B|--------------------0----------|--------------------0----------|
G|------------1------------------|------------1------------------|
D|--------2---------------2------|--------2---------------2------|
A|----------------2--------------|----------------2--------------|
E|0------------------------------|0------------------------------|

e|------- ------- 9------ 7------|------- ------- ------- -------|
B|------------9------------------|9------------------------------|
G|--------9-------9-------8------|9------------------------------|
D|-------------------------------|--------------------9-/-11-----|
A|-------------------------------|----------------11-------------|
E|-------------------------------|-------------------------------|

  E
e|0------ ------- ------- -------|0------ ------- ------- -------|
B|--------------------0----------|--------------------0----------|
G|------------1------------------|------------1------------------|
D|--------2---------------2------|--------2---------------2------|
A|----------------2--------------|----------------2--------------|
E|0------------------------------|0------------------------------|
          We      would   be warm
                                                 (Oooooooooooooo..
e|------- ------- ------- -------|------- ------- ------- -------|
B|-------------------------------|-------------------------------|
G|9------------------------------|-------------------------------|
D|-------------------------------|-------------------------------|
A|-------------------------------|-------------------------------|
E|-------------------------------|-------------------------------|

  C#m
e|4------ ------- ------- -------|4------ ------- ------- -------|
B|--------------------5----------|--------------------5----------|
G|------------6------------------|------------6------------------|
D|--------6---------------6------|--------6---------------6------|
A|4------------------------------|4------------------------------|
E|----------------4--------------|----------------4--------------|
          below           the storm                       In  a
  ooooooooooooooh                                  Oooooooooooooo..

  A
e|5------ ------- ------- -------|5------ ------- ------- -------|
B|--------------------5----------|--------------------5----------|
G|------------6------------------|------------6------------------|
D|--------7---------------7------|--------7---------------7------|
A|----------------7--------------|----------------7--------------|
E|5------------------------------|5------------------------------|
   litlle         hide    away                beneath     the waves
  oooooooooooooooh

  B
e|7------ ------- ------- -------|7------ ------- ------- -------|
B|--------------------7----------|--------------------7----------|
G|------------8------------------|------------8------------------|
D|--------9---------------9------|--------9---------------9------|
A|----------------9--------------|----------------9--------------|
E|7------------------------------|7------------------------------|

  Aaaaaaaaaaaaaaaaaaaaaaaaaaaaaaaaaaaaaaaaaaaaaaaaaaaaaaaaaaaaaaa

  E
e|0------ ------- ------- -------|0------ ------- ------- -------|
B|--------------------0----------|--------------------0----------|
G|------------1------------------|------------1------------------|
D|--------2---------------2------|--------2---------------2------|
A|----------------2--------------|----------------2--------------|
E|0------------------------------|0------------------------------|
          Resting     our         head
  aaaaaaaaaaaaaaaaaaaaaaaaaaaaaaah                 Oooooooooooooo..

e|------- ------- ------- -------|------- ------- 12----- -------|
B|-------------------------------|--------------------14--12-----|
G|-------------------------------|-------------------------------|
D|-------------------------------|-------------------------------|
A|-------------------------------|-------------------------------|
E|-------------------------------|-------------------------------|

  C#m
e|4------ ------- ------- -------|4------ ------- ------- -------|
B|--------------------5----------|--------------------5----------|
G|------------6------------------|------------6------------------|
D|--------6---------------6------|--------6---------------6------|
A|4------------------------------|4------------------------------|
E|----------------4--------------|----------------4--------------|
          on      the sea         bed                     in  an
  oooooooooooooooh                                 Oooooooooooooo..
e|------- ------- ------- -------|14B16-- ----14- ------- 12-----|
B|-------------------------------|-------------------------------|
G|13-----------------------------|-------------------------------|
D|-------------------------------|-------------------------------|
A|-------------------------------|-------------------------------|
E|-------------------------------|-------------------------------|

  A
e|5------ ------- ------- -------|5------ ------- ------- -------|
B|--------------------5----------|--------------------5----------|
G|------------6------------------|------------6------------------|
D|--------7---------------7------|--------7---------------7------|
A|----------------7--------------|----------------7--------------|
E|5------------------------------|5------------------------------|
   octopus's                  garden                  near a  cave
  oooooooooooooooh
e|------- ------- ------- -------|------- ------- ------- -------|
B|14-----------------------------|-------------------------------|
G|-------------------------------|-------------------------------|
D|-------------------------------|-------------------------------|
A|-------------------------------|-------------------------------|
E|-------------------------------|-------------------------------|

  B
e|7------ ------- ------- -------|7------ ------- ------- -------|
B|--------------------7----------|--------------------7----------|
G|------------8------------------|------------8------------------|
D|--------9---------------9------|--------9---------------9------|
A|----------------9--------------|----------------9--------------|
E|7------------------------------|7------------------------------|

  Aaaaaaaaaaaaaaaaaaaaaaaaaaaaaaaaaaaaaaaaaaaaaaaaaaaaaaaaaaaaaaa

  C#m
e|4------ ------- ------- -------|------- ------- ------- -------|
B|5------------------------------|-------------------------------|
G|6------------------------------|-------------------------------|
D|6------------------------------|-------------------------------|
A|4------------------------------|-------------------------------|
E|-------------------------------|-------------------------------|
          We      would           sing                    and
  aaaaaaaaaaaaaaaaaaaaaaaaaaaaaah)
e|0------ 0------ 0------ 0------|0------ 0------ 0------ 0------|
B|2-------2-------2-------2--P--0|2-------2-------2--P--0-2------|
G|1-------1-------1-------1------|1-------1-------1-------1------|
D|-------------------------------|-------------------------------|
A|-------------------------------|-------------------------------|
E|-------------------------------|-------------------------------|

                                                  B
e|------- ------- ------- -------|4------ ------- 2------ -------|
B|-------------------------------|5---------------4--------------|
G|-------------------------------|6---------------4--------------|
D|-------------------------------|6---------------4--------------|
A|-------------------------------|4---------------2--------------|
E|-------------------------------|-------------------------------|
  dance           around
e|0------ 0------ 0------ 0------|0------ 0------ 4------ 4------|
B|2-------2--P--0-2-------2--P--0|2-------2-------4--H--5P4------|
G|1-------1-------1-------1------|1-------1-------4--H--6P4------|
D|-------------------------------|----------------6-------6------|
A|-------------------------------|-------------------------------|
E|-------------------------------|-------------------------------|


  A
e|0------ ------- ------- -------|------- ------- ------- -------|
B|2------------------------------|-------------------------------|
G|2------------------------------|-------------------------------|
D|2------------------------------|-------------------------------|
A|0------------------------------|-------------------------------|
E|-------------------------------|-------------------------------|
          Because         we      know                    we
e|------- ------- ------- -------|------- ------- ------- -------|
B|5-------5-------5-------5------|5-------5-------5-------5------|
G|6-------6-------6-------6------|6-------6-------6-------6------|
D|--------------7----------------|------7---------------7--------|
A|-------------------------------|-------------------------------|
E|-------------------------------|-------------------------------|


  B
e|2------ 2------ 2------ -------|------- ------- ------- -------|
B|4-------4-------4--------------|-------------------------------|
G|4-------4-------4--------------|-------------------------------|
D|4-------4-------4--------------|-------------------------------|
A|2-------2-------2--------------|-------------------------------|
E|-------------------------------|-------------------------------|
  can't be found
e|------- ------- ------- -------|------- ------- ------- -------|
B|7-------7-------9--------------|-------------------------------|
G|8-------8-------8--------------|-------------------------------|
D|9-------9-------9--------------|-------------------------------|
A|-------------------------------|-------------------------------|
E|-------------------------------|-------------------------------|

  E
e|0------ ------- ------- -------|0------ ------- ------- -------|
B|--------------------0----------|--------------------0----------|
G|------------1------------------|------------1------------------|
D|--------2---------------2------|--------2---------------2------|
A|----------------2--------------|----------------2--------------|
E|0------------------------------|0------------------------------|
          I'd     like    to  be
         (I'd     like    to  be

  C#m
e|4------ ------- ------- -------|4------ ------- ------- -------|
B|--------------------5----------|--------------------5----------|
G|------------6------------------|------------6------------------|
D|--------6---------------6------|--------6---------------6------|
A|4------------------------------|4------------------------------|
E|----------------4--------------|----------------4--------------|
          Under           the sea                         In  an
          Under           the sea                         In  an

  A                               B
e|5------ ------- ------- -------|7------ ------- ------- -------|
B|--------------------5----------|--------------------7----------|
G|------------6------------------|------------8------------------|
D|--------7---------------7------|--------9---------------9------|
A|----------------7--------------|----------------9--------------|
E|5------------------------------|7------------------------------|
   octopus's                  garden                  in  the shade
   octopus's                  garden                  in  the shade)


                                  Solo
  E
e|0------ ------- ------- -------|0------ ------- ------- -------|
B|--------------------0----------|--------------------0----------|
G|------------1------------------|------------1------------------|
D|--------2---------------2------|--------2---------------2------|
A|----------------2--------------|----------------2--------------|
E|0------------------------------|0------------------------------|

e|------- ------- ------- -------|------- ------- ------- -------|
B|-------------------------------|------------------------12-----|
G|-------------------------------|-------------11/13-------------|
D|-------------------------------|-------------------------------|
A|-------------------------------|-------------------------------|
E|-------------------------------|-------------------------------|


  A
e|5------ ------- ------- -------|5------ ------- ------- -------|
B|--------------------5----------|--------------------5----------|
G|------------6------------------|------------6------------------|
D|--------7---------------7------|--------7---------------7------|
A|----------------7--------------|----------------7--------------|
E|5------------------------------|5------------------------------|

e|------- ------- ------- 14-----|------- ------- ------- -------|
B|--------13B14------------------|14--12--10------10----------12/|
G|-------------------------------|-------------------------------|
D|-------------------------------|-------------------------------|
A|-------------------------------|-------------------------------|
E|-------------------------------|-------------------------------|

  F#m
e|2------ ------- ------- -------|2------ ------- ------- -------|
B|--------------------2----------|--------------------2----------|
G|------------2------------------|------------2------------------|
D|--------4---------------4------|--------4---------------4------|
A|----------------4--------------|----------------4--------------|
E|2------------------------------|2------------------------------|

e|----12- 12----- 12\---- ----12-|----12- 12----- ----12- ----12-|
B|14-------------------12/14-----|-------------12/14-------------|
G|-------------------------------|-------------------------------|
D|-------------------------------|-------------------------------|
A|-------------------------------|-------------------------------|
E|-------------------------------|-------------------------------|

  D
e|------- ------- ------- -------|------- ------- ------- -------|
B|10-----------------------------|10-----------------------------|
G|--------------------11---------|--------------------11---------|
D|------------12-----------------|------------12-----------------|
A|--------12--------------12-----|--------12--------------12-----|
E|10--------------10-------------|10--------------10-------------|

e|19B21-- ------- 17----- 17-----|------- 19B21-- ------- 17-----|
B|-------------------------------|-------------------------------|
G|-------------------------------|-------------------------------|
D|-------------------------------|-------------------------------|
A|-------------------------------|-------------------------------|
E|-------------------------------|-------------------------------|

  E
e|------- ------- ------- -------|------- ------- ------- -------|
B|12-----------------------------|12-----------------------------|
G|--------------------13---------|--------------------13---------|
D|------------14-----------------|------------14-----------------|
A|--------14--------------14-----|--------14--------------14-----|
E|12--------------12-------------|12--------------12-------------|

e|17----- ------- ------- -------|------- ------- ------- -------|
B|----------------17------17-----|--------17------17B19---17-----|
G|-------------------------------|-------------------------------|
D|-------------------------------|-------------------------------|
A|-------------------------------|-------------------------------|
E|-------------------------------|-------------------------------|

  A
e|5------ ------- ------- -------|5------ ------- ------- -------|
B|--------------------5----------|--------------------5----------|
G|------------6------------------|------------6------------------|
D|--------7---------------7------|--------7---------------7------|
A|----------------7--------------|----------------7--------------|
E|5------------------------------|5------------------------------|

e|------- ------- ------- -------|----14- ------- ------- -------|
B|-------------------------------|------------------------12-----|
G|14----------------------14--16-B18------16------14-------------|
D|----------------14--16---------|-------------------------------|
A|-------------------------------|-------------------------------|
E|-------------------------------|-------------------------------|

  F#m
e|2------ ------- ------- -------|2------ ------- ------- -------|
B|--------------------2----------|--------------------2----------|
G|------------2------------------|------------2------------------|
D|--------4---------------4------|--------4---------------4------|
A|----------------4--------------|----------------4--------------|
E|2------------------------------|2------------------------------|

e|----12- ----12- 12----- ----12-|----12- 12----- ----12- ----12-|
B|---------------------12/14-----|-------------12/14-------------|
G|-------------------------------|-------------------------------|
D|-------------------------------|-------------------------------|
A|-------------------------------|-------------------------------|
E|-------------------------------|-------------------------------|

  D                               E
e|------- ------- ------- -------|------- ------- ------- -------|
B|10-----------------------------|12-----------------------------|
G|--------------------11---------|--------------------12---------|
D|------------12-----------------|------------14-----------------|
A|--------12--------------12-----|--------14--------------14-----|
E|10--------------10-------------|12--------------12-------------|

e|19B21-- ------- 19B21-- -------|21B19-- 17----- 17----- 19-----|
B|-------------------------------|-------------------------------|
G|-------------------------------|-------------------------------|
D|-------------------------------|-------------------------------|
A|-------------------------------|-------------------------------|
E|-------------------------------|-------------------------------|

  A                               B
e|5------ ------- ------- -------|7------ ------- ------- -------|
B|--------------------5----------|--------------------7----------|
G|------------6------------------|------------8------------------|
D|--------7---------------7------|--------9---------------9------|
A|----------------7--------------|----------------9--------------|
E|5------------------------------|7------------------------------|

e|17----- ------- ------- -------|------- ------- ------- -------|
B|-------------------------------|----12------12--12------10-----|
G|-------------------------------|----11------11--11------11-----|
D|-------------------------------|----13------13--13------13-----|
A|-------------------------------|-------------------------------|
E|-------------------------------|-------------------------------|


  E
e|0------ ------- ------- -------|0------ ------- ------- -------|
B|--------------------0----------|--------------------0----------|
G|------------1------------------|------------1------------------|
D|--------2---------------2------|--------2---------------2------|
A|----------------2--------------|----------------2--------------|
E|0------------------------------|0------------------------------|
                  We  would   shout
                                                  (Aaaaaaaaaaaaaa

  C#m
e|4------ ------- ------- -------|4------ ------- ------- -------|
B|--------------------5----------|--------------------5----------|
G|------------6------------------|------------6------------------|
D|--------6---------------6------|--------6---------------6------|
A|4------------------------------|4------------------------------|
E|----------------4--------------|----------------4--------------|
          And     swim    about                               the
  aaaaaaaaaaaaaaah                                 Ooooooooooooooo

  A
e|5------ ------- ------- -------|5------ ------- ------- -------|
B|--------------------5----------|--------------------5----------|
G|------------6------------------|------------6------------------|
D|--------7---------------7------|--------7---------------7------|
A|----------------7--------------|----------------7--------------|
E|5------------------------------|5------------------------------|
   coral                  that    lies        beneath     the waves
  oooooooooooooooh

  B
e|7------ ------- ------- -------|7------ ------- ------- -------|
B|--------------------7----------|--------------------7----------|
G|------------8------------------|------------8------------------|
D|--------9---------------9------|--------9---------------9------|
A|----------------9--------------|----------------9--------------|
E|7------------------------------|7------------------------------|

  Lies            beneath                 the     ocean

  E
e|0------ ------- ------- -------|0------ ------- ------- -------|
B|--------------------0----------|--------------------0----------|
G|------------1------------------|------------1------------------|
D|--------2---------------2------|--------2---------------2------|
A|----------------2--------------|----------------2--------------|
E|0------------------------------|0------------------------------|
                  Oh, what    joy                             for
  waves                                           Aaaaaaaaaaaaaaa

  C#m
e|4------ ------- ------- -------|4------ ------- ------- -------|
B|--------------------5----------|--------------------5----------|
G|------------6------------------|------------6------------------|
D|--------6---------------6------|--------6---------------6------|
A|4------------------------------|4------------------------------|
E|----------------4--------------|----------------4--------------|
  every           girl and    boy
  aaaaaaaaaaaaaaah                                 Ooooooooooooooo

  A
e|5------ ------- ------- -------|5------ ------- ------- -------|
B|--------------------5----------|--------------------5----------|
G|------------6------------------|------------6------------------|
D|--------7---------------7------|--------7---------------7------|
A|----------------7--------------|----------------7--------------|
E|5------------------------------|5------------------------------|
  Knowing                 they're happy           and     they're
  oooooooooooooooooooooooooooooh

  B
e|7------ ------- ------- -------|7------ ------- ------- -------|
B|--------------------7----------|--------------------7----------|
G|------------8------------------|------------8------------------|
D|--------9---------------9------|--------9---------------9------|
A|----------------9--------------|----------------9--------------|
E|7------------------------------|7------------------------------|
  safe
  Happy                           and             they're

  C#m
e|4------ ------- ------- -------|------- ------- ------- -------|
B|5------------------------------|-------------------------------|
G|6------------------------------|-------------------------------|
D|6------------------------------|-------------------------------|
A|4------------------------------|-------------------------------|
E|-------------------------------|-------------------------------|
                  We      would   be                      so
  safe)
e|0------ 0------ 0------ 0------|0------ 0------ 0------ 0------|
B|2-------2--P--0-2-------2--P--0|2-------2-----0-2-------2--P--0|
G|1-------1-------1-------1------|1-------1-------1-------1------|
D|-------------------------------|-------------------------------|
A|-------------------------------|-------------------------------|
E|-------------------------------|-------------------------------|

                                                  B
e|------- ------- ------- -------|4------ ------- 2------ -------|
B|-------------------------------|5---------------4--------------|
G|-------------------------------|6---------------4--------------|
D|-------------------------------|6---------------4--------------|
A|-------------------------------|4---------------2--------------|
E|-------------------------------|-------------------------------|
  happy           you and     me
e|0------ 0------ 0------ 0------|0------ 0------ 4------ 4------|
B|2-------2--P--0-2-------2--P--0|2-------2-------4--H--5P4------|
G|1-------1-------1-------1------|1-------1-------4--H--6P4------|
D|-------------------------------|----------------6-------6------|
A|-------------------------------|-------------------------------|
E|-------------------------------|-------------------------------|

  A
e|0------ ------- ------- -------|------- ------- ------- -------|
B|2------------------------------|-------------------------------|
G|2------------------------------|-------------------------------|
D|2------------------------------|-------------------------------|
A|0------------------------------|-------------------------------|
E|-------------------------------|-------------------------------|
  No      one    there        to  tell us         what    to do
e|------- ------- ------- -------|------- ------- ------- -------|
B|5-------5-------5-------5------|5-------5-------5-------5------|
G|6-------6-------6-------6------|6-------6-------6-------6------|
D|------------------------------7|--------------7----------------|
A|-------------------------------|-------------------------------|
E|-------------------------------|-------------------------------|


  B
e|2------ 2------ 2------ 2------|------- 2------ 2------ -------|
B|4-------4-------4-------4------|--------4-------4--------------|
G|4-------4-------4-------4------|--------4-------4--------------|
D|4-------4-------4-------4------|--------4-------4--------------|
A|2-------2-------2-------2------|--------2-------2--------------|
E|-------------------------------|-------------------------------|

e|------- ------- ------- -------|------- ------- ------- -------|
B|7-------7-------9-------7------|-------------------------------|
G|8-------8-------8-------8------|-------------------------------|
D|9-------9-------9-------9------|-------------------------------|
A|-------------------------------|-------------------------------|
E|-------------------------------|-------------------------------|

  E
e|0------ ------- ------- -------|0------ ------- ------- -------|
B|--------------------0----------|--------------------0----------|
G|------------1------------------|------------1------------------|
D|--------2---------------2------|--------2---------------2------|
A|----------------2--------------|----------------2--------------|
E|0------------------------------|0------------------------------|
          I'd     like    to  be
         (I'd     like    to  be
                                                  Aaaaaaaaaaaaaaa
e|------- ------- ------- -------|------- ------- 12----- -------|
B|-------------------------------|--------14--12------14--12-----|
G|-------------------------------|-------------------------------|
D|-------------------------------|-------------------------------|
A|-------------------------------|-------------------------------|
E|-------------------------------|-------------------------------|

  C#m
e|4------ ------- ------- -------|4------ ------- ------- -------|
B|--------------------5----------|--------------------5----------|
G|------------6------------------|------------6------------------|
D|--------6---------------6------|--------6---------------6------|
A|4------------------------------|4------------------------------|
E|----------------4--------------|----------------4--------------|
          Under           the sea                         In  an
          Under           the sea                         In  an
  aaaaaaaaaaaaaah                                 Aaaaaaaaaaaaaaa
e|------- ------- ------- -------|14--12- ----14- 12----- -------|
B|-------------------------------|--------14--------------12-----|
G|13-----------------------------|-------------------------------|
D|-------------------------------|-------------------------------|
A|-------------------------------|-------------------------------|
E|-------------------------------|-------------------------------|

  A                               B
e|5------ ------- ------- -------|7------ ------- ------- -------|
B|--------------------5----------|--------------------7----------|
G|------------6------------------|------------8------------------|
D|--------7---------------7------|--------9---------------9------|
A|----------------7--------------|----------------9--------------|
E|5------------------------------|7------------------------------|
   octopus's                  garden                  with    you
   octopus's                  garden                  with    you
  aaaaaaaaaaaaaaaaaaaaaaaaaaaaaaaaaaaaaaaaaaaaaaaaaaaaaaaaaaaaaah
e|------- ------- ------- -------|------- ------- ------- -------|
B|14-----------------------------|12-----------------------------|
G|-------------------------------|-------------------------------|
D|-------------------------------|-------------------------------|
A|-------------------------------|-------------------------------|
E|-------------------------------|-------------------------------|

  C#m
e|------- ------- ------- -------|------- ------- ------- -------|
B|5-------------------6----------|5-------------------6----------|
G|------------6------------------|-----------4-------------------|
D|--------6---------------6------|--------6---------------6------|
A|4------------------------------|4------------------------------|
E|----------------4--------------|----------------4--------------|
                                                          In  an
                                                          In  an
  Ooooooooooooooooooooooooooooooooooooooh          Aaaaaaaaaaaaaa
e|------- ------- ------- -------|----9-- ------- ------- -------|
B|-------------------------------|-------------------------------|
G|--------9-------9-----------11B|13------11------9-------8------|
D|11-----------------------------|-------------------------------|
A|-------------------------------|-------------------------------|
E|-------------------------------|-------------------------------|

  A                               B
e|5------ ------- ------- -------|7------ ------- ------- -------|
B|--------------------5----------|--------------------7----------|
G|------------6------------------|------------8------------------|
D|--------7---------------7------|--------9---------------9------|
A|----------------7--------------|----------------9--------------|
E|5------------------------------|7------------------------------|
   octopus's                  garden                  with    you
   octopus's                  garden                  with    you
  aaaaaaaaaaaaaaaaaaaaaaaaaaaaaaaaaaaaaaaaaaaaaaaaaaaaaaaaaaaaaah
e|------- ------- ------- -------|------- ------- ------- -------|
B|-------------------------------|-------------------------------|
G|-------------------------------|-------------------------------|
D|11-----------------------------|-------------------------------|
A|-------------------------------|-------------------------------|
E|-------------------------------|-------------------------------|

  C#m
e|------- ------- ------- -------|------- ------- ------- -------|
B|5-------------------6----------|5-------------------6----------|
G|------------6------------------|-----------4-------------------|
D|--------6---------------6------|--------6---------------6------|
A|4------------------------------|4------------------------------|
E|----------------4--------------|----------------4--------------|
                                                          In  an
                                                          In  an
  Ooooooooooooooooooooooooooooooooooooooh         Aaaaaaaaaaaaaaa
e|14B16-- ----12- ------- 14B15--|------- 12----- 12----- 14-----|
B|-------------------------------|-------------------------------|
G|-------------------------------|-------------------------------|
D|-------------------------------|-------------------------------|
A|-------------------------------|-------------------------------|
E|-------------------------------|-------------------------------|

  A                               B
e|5------ ------- ------- -------|7------ ------- ------- -------|
B|--------------------5----------|--------------------7----------|
G|------------6------------------|------------8------------------|
D|--------7---------------7------|--------9---------------9------|
A|----------------7--------------|----------------9--------------|
E|5------------------------------|7------------------------------|
   octopus's                  garden                  with    you
   octopus's                  garden                  with    you)
  aaaaaaaaaaaaaaaaaaaaaaaaaaaaaaaaaaaaaaaaaaaaaaaaaaaaaah)
e|------- ------- ------- -------|------- ------- ------- -------|
B|14-----------------------------|12-----------------------------|
G|-------------------------------|-------------------------------|
D|-------------------------------|-------------------------------|
A|-------------------------------|-------------------------------|
E|-------------------------------|-------------------------------|

  E                                       D#      E
e|0------ ------- ------- -------|------- ------- ------- -------|
B|-------------------------------|--------8-------9--------------|
G|-------------------------------|--------8-------9--------------|
D|-------------------------------|--------8-------9--------------|
A|-------------------------------|--------6-------7--------------|
E|0------------------------------|-------------------------------|
                                                 (.
e|14B1512 ------- ------- -------|------- ------- ------- -------|
B|--------14------12-------------|------------/---9--------------|
G|------------------------13-P-11\9----11-8---/---9--------------|
D|-------------------------------|-------------------------------|
A|-------------------------------|-------------------------------|
E|-------------------------------|-------------------------------|


------------------------------------------------------------------

      THE BEATLES - I WANT YOU (SHE'S SO HEAVY) (Lennon/McCartney)
                    From ABBEY ROAD album. Released 26th September
                    1969.

------------------------------------------------------------------

      Tabbed by:PJVillanueva
          Tune 2nd guitar's low E to D.

    6/8

e|--------------- 1--------------|--------------- 1--------------|  1
B|----------3----------3---------|----------3----------3---------|
G|-----2--------------------2----|-----2--------------------2----|
D|0------------------------------|3------------------------------|
A|-------------------------------|-------------------------------|
E|-------------------------------|-------------------------------|

e|--------------- ---------------|--------------- ---------------|  2
B|-------------------------------|-------------------------------|
G|--------------------------2----|--------------------------2----|
D|0------------------------------|3------------------------------|
A|-------------------------------|-------------------------------|
D|-------------------------------|-------------------------------|

e|--------------- ---------------|--------------- ----B15---R----|  3
B|-------------------------------|-------------------------------|
G|----------------------------7-/|10---------12-/-10-------------|
D|-------------------------------|-------------------------------|
A|-------------------------------|-------------------------------|
E|-------------------------------|-------------------------------|


e|--------------- 1--------------|--------------- 1--------------|
B|----------3----------3---------|---------------------3---------|
G|-----1--------------------1----|----------1---------------1----|
D|2------------------------------|-----2-------------------------|
A|-------------------------------|1------------------------------|
E|-------------------------------|-------------------------------|

e|--------------- ---------------|--------------- ---------------|
B|-------------------------------|-------------------------------|
G|-------------------------------|--------------------------1----|
D|2------------------------------|-------------------------------|
A|---------------------3----2----|1------------------------------|
D|-------------------------------|-------------------------------|

e|--------------- ---------------|17B18---------- 18-R-----------|
B|12-------------------15---12---|--------------------------18---|
G|-------------------------------|-------------------------------|
D|-------------------------------|-------------------------------|
A|-------------------------------|-------------------------------|
E|-------------------------------|-------------------------------|


                                   4/4
                  (.

e|--------------- 1--------------|------- ------- ------- -------|
B|----------2--------------------|-------------------------------|
G|-----2-------------------------|------------------------5------|
D|-------------------------------|--------------------7----------|
A|0------------------------------|-------------------------------|
E|-------------------------------|-------------------------------|
                                                      I   want
e|--------------- ---------------|--------------- ---------------|
B|-------------------------------|-------------------------------|
G|-------------------------------|-------------------------------|
D|-------------------------------|-------------------------------|
A|0------------------------------|-------------------------------|
D|-------------------------------|-------------------------------|

e|--------------- 17-------------|--------------- ---------------|
B|-----18---------18-------------|-------------------------------|
G|18---18------------------------|-------------------------------|
D|19-----------------------------|-------------------------------|
A|-------------------------------|-------------------------------|
E|-------------------------------|-------------------------------|

                  x   x   x

e|------- ------- ------- -------|------- ------- ------- -------|
B|-------------------------------|---------------------------------|
G|7-B-9--------R7P5--------------|----------------5---7---7-B-9-9--|R
D|--------------------7----------|------------7--------------------|
A|-------------------------------|---------------------------------|
E|-------------------------------|---------------------------------|
  you                                         I   want you so


                                  x   x   x   x

e|------- ------- ------- -------|------- ------- ------- -------|
B|-------------------------------|-------------------------------|
G|7---5-----------5-------7-P-5--|------------------------5------|
D|--------7----------------------|--------------------7----------|
A|-------------------------------|-------------------------------|
E|-------------------------------|-------------------------------|
  bad                                                 I   want


                                  x   x   x

e|------- ------- ------- -------|------- ------- ------- -------|
B|-------------------------------|---------------------------------|
G|7-B-9-R-7-B-9-R-7-B-9-R-7P5----|----------------5---7---7-B-9-9--|R
D|----------------------------7--|------------7--------------------|
A|-------------------------------|---------------------------------|
E|-------------------------------|---------------------------------|
  you                                         I   want you so


e|------- ------- ------- -------|------- ------- ------- -------|
B|-------------------------------|-------------------------------|
G|7-P-5-----------5--------------|--------5-------5--------------|
D|--------7---------------7------|5-------5-------5H7-----5------|
A|-------------------------------|----7--------------------------|
E|-------------------------------|-------------------------------|
  bad                     It’s    driving me      mad,    it's


   2/4

e|------- -------|
B|---------------|
G|---------------|
D|---------------|
A|7---5---3B4----|
E|---------------|
  driving me


   4/4
                                          x x x x x  x x  x x x

e|------- ------- ------- -------|------- ------- ------- -------|
B|-------------------------------|-------------------------------|
G|-------------------------------|------------------------10-----|
D|-------------------------------|--------------------12---------|
A|-------------------------------|-------------------------------|
E|5------------------------------|-------------------------------|
  mad                                                 I   want
e|------- ------- ------- -------|------- ------- ------- -------|
B|-------------------------------|-------------------------------|
G|--------5---5---5-----------5--|-------------------------------|
D|--------5---5---5-----------5--|-------------------------------|
A|--------------------7\5/7------|7---7---7----------------------|
D|-------------------------------|7---7---7----------------------|

e|------- ------- ------- -------|------- ------- ------- -------|
B|-------------------------------|-------------------------------|
G|12B14-12-----------------------|----------------10--12--12-B-14|
D|-------------------------------|------------12-----------------|
A|-------------------------------|-------------------------------|
E|-------------------------------|-------------------------------|
  you                                         I   want you so
e|------- ------- ------- -------|------- ------- ------- -------|
B|-------------------------------|-------------------------------|
G|------------------------10-----|-------------------------------|
D|----------------12--12--10-----|-------------------------------|
A|----------------12--12---------|-------------------------------|
D|-------------------------------|-------------------------------|


                           B P
e|------- ------- ------- -------|------- ------- ------- -------|
B|-------------------------------|-------------------------------|
G|14R1210---------10------121410-|------------------------10-----|
D|--------12-------------------12|--------------------12---------|
A|-------------------------------|-------------------------------|
E|-------------------------------|-------------------------------|
  bad,                    babe                        I   want
e|------- ------- ------- -------|------- ------- ------- -------|
B|-------------------------------|----------------10-------------|
G|-------------------------------|--------10--10--10-------------|
D|-------------------------------|--------10--10------12---------|
A|-------------------------------|-------------------------------|
D|-------------------------------|-------------------------------|

e|------- ------- ------- -------|------- ------- ------- -------|
B|12-B-13R12-B-13R12-B-13R12-----|-------------------------------|
G|12-B-13R12-B-13R12-B-13R12-----|----------------10--12--12-B-14|
D|-------------------------------|------------12-----------------|
A|-------------------------------|-------------------------------|
E|-------------------------------|-------------------------------|
  you                                         I   want you so
e|------- ------- ------- -------|------- ------- ------- -------|
B|-------------------------------|-------------------------------|
G|-------------------------------|10--10--10---------------------|
D|-------------------------------|10--10--10---------------------|
A|-------------------------------|-------------------------------|
D|-------------------------------|-------------------------------|

e|------- ------- ------- -------|------- ------- ------- -------|
B|-------------------------------|-------------------------------|
G|14R1210---------10-------------|-------------------------------|
D|--------12--------------12-----|10------10---10H12------10-----|
A|-------------------------------|----12-------------------------|
E|-------------------------------|-------------------------------|
  bad                     it's    driving me      mad     it's
e|------- ------- ------- -------|------- ------- ------- -------|
B|-------------------------------|-------------------------------|
G|-------------------------------|-------------------------------|
D|-------------------------------|10------10------8--------------|
A|-------------------------------|10------10------8--------------|
D|-------------------------------|-------------------------------|

   2/4

e|------- -------|
B|---------------|
G|---------------|
D|---------------|
A|10----11----12-|
E|---------------|
  driving     me
e|------- -------|
B|---------------|
G|---------------|
D|---------------|
A|5-----6-----7--|
D|---------------|

   4/4

e|------- ------- ------- -------|------- ------- ------- -------|
B|--------6---6---6---6-------6--|6---6--------------------------|
G|--------7---7---7---7-------7--|7---7--------------------------|
D|--------6---6---6---6-------6--|6---6--------------------------|
A|--------7---7---7---7-------7--|7---7--------------------------|
E|0-------0---0---0---0-------0--|0---0--------------------------|

e|------- ------- ------- -------|------- ------- ------- -------|
B|--------6---6---6---6-------6--|6---6--------------------------|
G|--------7---7---7---7-------7--|7---7--------------------------|
D|--------6---6---6---6-------6--|6---6--------------------------|
A|--------7---7---7---7-------7--|7---7--------------------------|
E|0-------0---0---0---0-------0--|0---0--------------------------|

                                          x

e|------- ------- ------- -------|------- ------- ------- -------|
B|--------6---6---6---6-------6--|6------------------------------|
G|--------7---7---7---7-------7--|7-----------------------5------|
D|--------6---6---6---6-------6--|6-------------------7----------|
A|--------7---7---7---7-------7--|7------------------------------|
E|0-------0---0---0---0-------0--|0------------------------------|
                                                      I   want


e|------- ------- ------- -------|------- ------- ------- -------|
B|-------------------------------|---------------------------------|
G|7-B-9-----------7B9R7----------|----------------5---7---7-B-9-9--|R
D|-------------------------------|------------7--------------------|
A|-------------------------------|---------------------------------|
E|-------------------------------|---------------------------------|
  you                                         I   want you so
e|------- ------- ------- -------|------- ------- ------- -------|
B|-------------------------------|-------------------------------|
G|------------------------5---5--|5------------------------------|
D|------------------------5---5--|5------------------------------|
A|-------------------------------|-------------------------------|
D|-------------------------------|-------------------------------|

e|------- ------- ------- -------|------- ------- ------- -------|
B|-------------------------------|-------------------------------|
G|7-P-5-----------5-------7P5----|------------------------5------|
D|--------7-------------------7--|--------------------7----------|
A|-------------------------------|-------------------------------|
E|-------------------------------|-------------------------------|
  bad                                                 I   want
e|------- ------- ------- -------|------- ------- ------- -------|
B|-------------------------------|-------------------------------|
G|-------------------------------|5---5---5---5------------------|
D|-------------------------------|7---7---5---5------------------|
A|-------------------------------|7---7--------------------------|
D|-------------------------------|-------------------------------|


e|------- ------- ------- -------|------- ------- ------- -------|
B|-------------------------------|---------------------------------|
G|7-B-9-R-7-B-9-R-7P5------------|----------------5---7---7-B-9-9--|R
D|--------------------7----------|------------7--------------------|
A|-------------------------------|---------------------------------|
E|-------------------------------|---------------------------------|
  you                                         I   want you so
e|------- ------- ------- -------|------- ------- ------- -------|
B|-------------------------------|-------------------------------|
G|-------------------------------|----5---5----------------------|
D|-------------------------------|----5---5----------------------|
A|----------------------------5-H|7------------------------------|
D|-------------------------------|-------------------------------|

e|------- ------- ------- -------|------- ------- ------- -------|
B|-------------------------------|-------------------------------|
G|7-P-5-----------5--------------|----------------5--------------|
D|--------7---------------7------|5-------5-------5H7-----5------|
A|-------------------------------|----7--------------------------|
E|-------------------------------|-------------------------------|
  bad                     it's    driving me      mad     it's
e|------- ------- ------- -------|------- ------- ------- -------|
B|-------------------------------|-------------------------------|
G|----------------5--------------|5-------5-------5--------------|
D|5---------------5--------------|7-------7-------5--------------|
A|7------------------------------|-------------------------------|
D|-------------------------------|-------------------------------|

   2/4

e|------- -------|
B|---------------|
G|---------------|
D|---------------|
A|7---5---3B4----|
E|---------------|
  driving me


    4/4

e|------- ------- ------- -------|------- ------- ------- -------|
B|-------------------------------|------------------------10-----|
G|-------------------------------|------------------------10-----|
D|-------------------------------|--------------------12---------|
A|-------------------------------|-------------------------------|
E|5-~----------------------------|-------------------------------|
  mad                                                 I   want
e|------- ------- ------- -------|------- ------- ------- -------|
B|-------------------------------|-------------------------------|
G|--------------------5---5------|5------------------------------|
D|--------------------5---5------|5------------------------------|
A|--------------5/7-----------7--|-------------------------------|
D|-------------------------------|-------------------------------|


   B R P                                                   B
e|------- ------- ------- -------|------- ------- ------- -------|
B|-------------------------------|---------------------------------|
G|12141210-----------------------|----------------10--12--1214-14--|R
D|--------12---------------------|------------12-------------------|
A|-------------------------------|---------------------------------|
E|-------------------------------|---------------------------------|
  you                                         I   want you so
e|------- ------- ------- -------|------- ------- ------- -------|
B|------------------------8/10---|-------------------------------|
G|----------------10--10--8/10---|10-----------------------------|
D|----------------10--10---------|10-----------------------------|
A|-------------------------------|-------------------------------|
D|-------------------------------|-------------------------------|


                          B R P
e|------- ------- ------- -------|------- ------- ------- -------|
B|--------------------10---------|-------------------------------|
G|12--10----------10--10H12141210|------------------------10-----|
D|--------12--------------------12--------------------12---------|
A|-------------------------------|-------------------------------|
E|-------------------------------|-------------------------------|
  bad                                                 I   want
e|------- ------- ------- -------|------- ------- ------- -------|
B|-------------------------------|-------------------------------|
G|-------------------------------|10--10--10----------10---------|
D|-------------------------------|10--10--10----------10---------|
A|-------------------------------|-----------12\10/12------------|
D|-------------------------------|-------------------------------|


                                                           B
e|------- ------- ------- -------|------- ------- ------- -------|
B|12-B-13R12-B-13R12-------------|---------------------------------|
G|12-B-13R12-B-13R12-------------|----------------10--12--1214-14--|R
D|-------------------------------|------------12-------------------|
A|-------------------------------|---------------------------------|
E|-------------------------------|---------------------------------|
  you                                         I   want you so
e|------- ------- ------- -------|------- ------- ------- -------|
B|------------------------10--10-|-------------------------------|
G|------------------------10--10-12/13\12-10---------------------|
D|-------------------------------12/13\12-10---------------------|
A|-------------------------------|-------------------------------|
D|-------------------------------|-------------------------------|

e|------- ------- ------- -------|------- ------- ------- -------|
B|-------------------------------|-------------------------------|
G|12--10----------10-------------|--------10------10------10-----|
D|--------12--------------12-----|10------10------10H12---10-----|
A|-------------------------------|----12-------------------------|
E|-------------------------------|-------------------------------|
  bad                     it's    driving me      mad     it's
e|------- ------- ------- -------|------- ------- ------- -------|
B|-------------------------------|-------------------------------|
G|-------------------------------|-------------------------------|
D|----------------10----------10-|10--10----------8--------------|
A|12---------------8-----------8-|10--10----------8--------------|
D|12-----------------------------|-------------------------------|

   2/4

e|------- -------|
B|---------------|
G|---------------|
D|---------------|
A|10----11----12-|
E|---------------|
  driving     me
e|------- -------|
B|---------------|
G|---------------|
D|---------------|
A|5-----6-----7--|
D|---------------|

   4/4

e|------- ------- ------- -------|------- ------- ------- -------|
B|--------6---6---6---6---6---6--|6---6--------------------------|
G|--------7---7---7---7---7---7--|7---7--------------------------|
D|--------6---6---6---6---6---6--|6---6--------------------------|
A|--------7---7---7---7---7---7--|7---7--------------------------|
E|0-------0---0---0---0---0---0--|0---0--------------------------|

e|------- ------- ------- -------|------- ------- ------- -------|
B|--------6---6---6---6-------6--|6---6--------------------------|
G|--------7---7---7---7-------7--|7---7--------------------------|
D|--------6---6---6---6-------6--|6---6--------------------------|
A|--------7---7---7---7-------7--|7---7--------------------------|
E|0-------0---0---0---0-------0--|0---0--------------------------|

                                          x

e|------- ------- ------- -------|------- ------- ------- -------|
B|--------6---6---6---6---6---6--|6------------------------------|
G|--------7---7---7---7---7---7--|7------------------------------|
D|--------6---6---6---6---6---6--|6------------------------------|
A|--------7---7---7---7---7---7--|7------------------------------|
E|0-------0---0---0---0---0---0--|0------------------------------|
                                                  She's   so


    6/8

e|--------------- 1--------------|--------------- 1--------------|
B|----------3----------3---------|----------3----------3---------|
G|-----2--------------------2----|-----2--------------------2----|
D|0------------------------------|3------------------------------|
A|-------------------------------|-------------------------------|
E|-------------------------------|-------------------------------|

e|--------------- ---------------|--------------- ---------------|
B|-------------------------------|-------------------------------|
G|--------------------------2----|--------------------------2----|
D|0------------------------------|3------------------------------|
A|-------------------------------|-------------------------------|
D|-------------------------------|-------------------------------|

e|--------------- 1--------------|--------------- 1--------------|
B|----------3----------3---------|---------------------3---------|
G|-----1--------------------1----|----------1---------------1----|
D|2------------------------------|-----2-------------------------|
A|-------------------------------|1------------------------------|
E|-------------------------------|-------------------------------|
                                  heavy
e|--------------- ---------------|--------------- ---------------|
B|-------------------------------|-------------------------------|
G|-------------------------------|--------------------------1----|
D|2------------------------------|-------------------------------|
A|---------------------3----2----|1------------------------------|
D|-------------------------------|-------------------------------|

e|--------------- 1--------------|
B|----------2----------2---------|
G|-----2--------------------2----|
D|-------------------------------|
A|0------------------------------|
E|-------------------------------|

e|--------------- ---------------|
B|-------------------------------|
G|--------------------------2----|
D|-------------------------------|
A|0------------------------------|
D|-------------------------------|

e|--------------- 1--------------|--------------- 1--------------|
B|----------3----------3---------|----------3----------3---------|
G|-----2--------------------2----|-----2--------------------2----|
D|0------------------------------|3------------------------------|
A|-------------------------------|-------------------------------|
E|-------------------------------|-------------------------------|
  Heavy
                 (Heavy           Heavy)
e|--------------- ---------------|--------------- ---------------|
B|-------------------------------|-------------------------------|
G|--------------------------2----|-------------------------------|
D|0------------------------------|3-------------------------3----|
A|-------------------------------|-------------------------------|
D|-------------------------------|-------------------------------|

e|--------------- 1--------------|--------------- 1--------------|
B|----------3----------3---------|---------------------3---------|
G|-----1--------------------1----|----------1---------------1----|
D|2------------------------------|-----2-------------------------|
A|-------------------------------|1------------------------------|
E|-------------------------------|-------------------------------|

e|--------------- ---------------|--------------- ---------------|
B|-------------------------------|-------------------------------|
G|-------------------------------|--------------------------1----|
D|2------------------------------|-------------------------------|
A|---------------------3----2----|1------------------------------|
D|-------------------------------|-------------------------------|


                                   4/4
                  (.

e|--------------- 1--------------|------- ------- ------- -------|
B|----------2--------------------|-------------------------------|
G|-----2-------------------------|------------------------5------|
D|-------------------------------|------------------/-7----------|
A|0------------------------------|-------------------------------|
E|-------------------------------|-------------------------------|

e|--------------- ---------------|--------------- ---------------|
B|-------------------------------|-------------------------------|
G|-------------------------------|-------------------------------|
D|-------------------------------|-------------------------------|
A|0------------------------------|-------------------------------|
D|-------------------------------|-------------------------------|

e|------- ------- ------- -------|------- ------- ------- -------|
B|-------------------------------|-------------------------------|
G|7-B-9------R7B9R7------B8-R-7--|5---------------5---7---7-B-9--|
D|-------------------------------|----7-----/-7------------------|
A|-------------------------------|-------------------------------|
E|-------------------------------|-------------------------------|

e|------- ------- ------- -------|------- ------- ------- -------|
B|-------------------------------|-------------------------------|
G|9R8--5----------5-------7B8P5--|------------------------5------|
D|--------7--------------------7-|--------------------7----------|
A|-------------------------------|-------------------------------|
E|-------------------------------|-------------------------------|

e|------- ------- ------- -------|------- ------- ------- -------|
B|-------------------------------|-------------------------------|
G|----------------------------5-5|--5-----5----------------------|
D|----------------------------5-5|--5-----5----------------------|
A|-------------------------------|7---7--------------------------|
D|-------------------------------|-------------------------------|

e|------- ------- ------- -------|------- ------- ------- -------|
B|-------------------------------|---------------------------------|
G|7-B-9-R-7-B-9-R-7-B-9-R-7P5----|5---7B9---------5---7---7-B-9-9--|R
D|----------------------------7--|---------------------------------|
A|-------------------------------|---------------------------------|
E|-------------------------------|---------------------------------|

e|------- ------- ------- -------|------- ------- ------- -------|
B|-------------------------------|-------------------------------|
G|-------------------------------|5------------------------------|
D|-------------------------------|5------------------------------|
A|--------------------------5/7--|----7--------------------------|
D|-------------------------------|-------------------------------|

e|------- ------- ------- -------|------- ------- ------- -------|
B|-------------------------------|-------------------------------|
G|7---5-----------5--------------|-------------------------------|
D|--------7---------------7------|5-------5---5-H-7-------5------|
A|-------------------------------|----7--------------------------|
E|-------------------------------|-------------------------------|

e|------- ------- ------- -------|------- ------- ------- -------|
B|-------------------------------|-------------------------------|
G|-------------------------------|----------------5--------------|
D|----------------5--------------|7-------7-------3--------------|
A|7---------------3--------------|5-------5----------------------|
D|7------------------------------|-------------------------------|

   2/4

e|------- -------|
B|---------------|
G|---------------|
D|---------------|
A|7---5---3B4-~--|
E|---------------|

   4/4

e|------- ------- ------- -------|------- ------- ------- -------|
B|------------------------5---5--|------------------------10-----|
G|------------------------5---5B6|------------------------10-----|
D|------------------5----7-------|--------------------12---------|
A|----------------7--------------|-------------------------------|
E|5-~----------------------------|-------------------------------|

e|------- ------- ------- -------|------- ------- ------- -------|
B|-------------------------------|-------------------------------|
G|--------5----7/8--------5------|--------5----------------------|
D|--------5----7/8--------5------|--------5----------------------|
A|-------------------------------|-------------------------------|
D|-------------------------------|-------------------------------|


                               B R P H
e|------- ------- ------- -------|------- ------- ------- -------|
B|12---B--13---13R121012------1214121012----------10--12--12B1313--|R
G|12---B--13---13R121012-B14--1214121012----------10--12--12B1313--|R
D|-------------------------------|---------------------------------|
A|-------------------------------|---------------------------------|
E|-------------------------------|---------------------------------|

e|------- ------- ------- -------|------- ------- ------- -------|
B|------------------------6------|-------------------------------|
G|----------5-------------5------|7-------5----------------------|
D|----------5--------------------|7-------5----------------------|
A|-------------------------------|-------------------------------|
D|-------------------------------|-------------------------------|


                           B P H
e|------- ------- ------- -------|------- ------- ------- -------|
B|12-P-10---------10------12131012------------------------10-----|
G|12-P-10---------10------12131012--------------------12--10-----|
D|--------12---------------------|--------------------12---------|
A|-------------------------------|-------------------------------|
E|-------------------------------|-------------------------------|

e|------- ------- ------- -------|------- ------- ------- -------|
B|-------------------------------|-------------------------------|
G|-------------------------------|----10--10------10-------------|
D|-------------------------------|----11--10------10-------------|
A|-------------------------------|------------12-----------------|
D|-------------------------------|-------------------------------|

e|------- ------- ------- -------|------- ------- ------- -------|
B|121312131213121312-~-----------|----------------10--12--12B1313--|R
G|121312131213121312-~-----------|-----------12---10--12--12B1313--|R
D|-------------------------------|-----------12--------------------|
A|-------------------------------|---------------------------------|
E|-------------------------------|---------------------------------|

e|------- ------- ------- -------|------- ------- ------- -------|
B|-------------------------------|-------------------------------|
G|-------------------------------|--------10---------------------|
D|------------------10-----------|--------10---------------------|
A|-------------10/12--12\10/12---|12-----------------------------|
D|-------------------------------|----12-------------------------|

e|------- ------- ------- -------|------- ------- ------- -------|
B|12--10----------10-------------|-------------------------------|
G|12--10--12------10------12-----|10------10---10H12------10-----|
D|--------12--------------12-----|10------10---10H12------10-----|
A|-------------------------------|----12-------------------------|
E|-------------------------------|-------------------------------|

e|------- ------- ------- -------|------- ------- ------- -------|
B|-------------------------------|-------------------------------|
G|----------------10-------------|10-------8------8-------8------|
D|-----------------8-------------|10-------8------8-------8------|
A|12-----------------------------|-------------------------------|
D|12-----------------------------|-------------------------------|

   2/4

e|------- -------|
B|---------------|
G|---------------|
D|---------------|
A|10----11----12-|
E|---------------|

e|------- -------|
B|---------------|
G|---------------|
D|---------------|
A|5-----6-----7--|
D|---------------|

   4/4

e|------- ------- ------- -------|------- ------- ------- -------|
B|--------6-------6---6-------6--|6---6---6-/----0---------------|
G|--------7-------7---7-------7--|7---7---7-/--------------------|
D|--------6-------6---6-------6--|6---6---6-/--------------------|
A|--------7-------7---7-------7--|7---7---7-/--------------------|
E|0-------0-------0---0-------0--|0---0---0----------------------|

e|------- ------- ------- -------|------- ------- ------- -------|
B|--------6---6---6---6-------6--|6---6-/------------------------|
G|--------7---7---7---7-------7--|7---7-/------------------------|
D|--------6---6---6---6-------6--|6---6-/------------------------|
A|--------7---7---7---7-------7--|7---7-/------------------------|
E|0-------0---0---0---0-------0--|0---0--------------------------|

                                          x

e|------- ------- ------- -------|------- ------- ------- -------|
B|--------6---6---6---6---6---6--|6------------------------------|
G|--------7---7---7---7---7---7--|7------------------------------|
D|--------6---6---6---6---6---6--|6------------------------------|
A|--------7---7---7---7---7---7--|7------------------------------|
E|0-------0---0---0---0---0---0--|0------------------------------|
                                                  She's   so


    6/8

e|--------------- 1--------------|--------------- 1--------------|
B|----------3----------3---------|----------3----------3---------|
G|-----2--------------------2----|-----2--------------------2----|
D|0------------------------------|3------------------------------|
A|-------------------------------|-------------------------------|
E|-------------------------------|-------------------------------|

e|--------------- ---------------|--------------- ---------------|
B|-------------------------------|-------------------------------|
G|--------------------------2----|--------------------------2----|
D|0------------------------------|3------------------------------|
A|-------------------------------|-------------------------------|
D|-------------------------------|-------------------------------|

e|--------------- 1--------------|--------------- 1--------------|
B|----------3----------3---------|---------------------3---------|
G|-----1--------------------1----|----------1---------------1----|
D|2------------------------------|-----2-------------------------|
A|-------------------------------|1------------------------------|
E|-------------------------------|-------------------------------|
  heavy
e|--------------- ---------------|--------------- ---------------|
B|-------------------------------|-------------------------------|
G|-------------------------------|--------------------------1----|
D|2------------------------------|-------------------------------|
A|---------------------3----2----|1------------------------------|
D|-------------------------------|-------------------------------|

e|--------------- 1--------------|
B|----------2----------2---------|
G|-----2--------------------2----|
D|-------------------------------|
A|0------------------------------|
E|-------------------------------|
                       She's so
e|--------------- ---------------|
B|-------------------------------|
G|-------------------------------|
D|--------------------------2----|
A|0------------------------------|
D|-------------------------------|

e|--------------- 1--------------|--------------- 1--------------|
B|----------3----------3---------|----------3----------3---------|
G|-----2--------------------2----|-----2--------------------2----|
D|0------------------------------|3------------------------------|
A|-------------------------------|-------------------------------|
E|-------------------------------|-------------------------------|
  heavy
                   Heavy          Heavy
e|--------------- ---------------|--------------- ---------------|
B|-------------------------------|-------------------------------|
G|--------------------------2----|--------------------------2----|
D|0------------------------------|3------------------------------|
A|-------------------------------|-------------------------------|
D|-------------------------------|-------------------------------|

e|--------------- 1--------------|--------------- 1--------------|
B|----------3----------3---------|---------------------3---------|
G|-----1--------------------1----|----------1---------------1----|
D|2------------------------------|-----2-------------------------|
A|-------------------------------|1------------------------------|
E|-------------------------------|-------------------------------|

e|--------------- ---------------|--------------- ---------------|
B|-------------------------------|-------------------------------|
G|-------------------------------|--------------------------1----|
D|2------------------------------|-------------------------------|
A|---------------------3----2----|1------------------------------|
D|-------------------------------|-------------------------------|


                                   4/4
                  (.

e|--------------- 1--------------|------- ------- ------- -------|
B|-------------------------------|-------------------------------|
G|-----2----2--------------------|------------------------5------|
D|-------------------------------|--------------------/-7--------|
A|0------------------------------|-------------------------------|
E|-------------------------------|-------------------------------|
                                                        I want
e|--------------- ---------------|--------------- ---------------|
B|-------------------------------|-------------------------------|
G|-------------------------------|-------------------------------|
D|-------------------------------|-------------------------------|
A|0------------------------------|-------------------------------|
D|-------------------------------|-------------------------------|

e|------- ------- ------- -------|------- ------- ------- -------|
B|-------------------------------|---------------------------------|
G7B9R7P5-------------------------|----------------5---7---7-B-9-8--|R
D|------7------------------------|------------7--------------------|
A|-------------------------------|---------------------------------|
E|-------------------------------|---------------------------------|
  you                                         I   want you so
e|------- ------- ------- -------|------- ------- ------- -------|
B|-------------------------------|-------------------------------|
G|------------------------5---5--|--------5----------------------|
D|------------------------5---5--|7-------5----------------------|
A|--------------------7----------|7------------------------------|
D|-------------------------------|-------------------------------|

e|------- ------- ------- -------|------- ------- ------- -------|
B|-------------------------------|7---5--------------------------|
G|7-P-5-----------5-------7P5----|--------5---------------5------|
D|--------7-------------------7--|------7------------------------|
A|-------------------------------|-------------------------------|
E|-------------------------------|-------------------------------|
  bad                                                     want
e|------- ------- ------- -------|------- ------- ------- -------|
B|-------------------------------|--------5-------7/8-----5------|
G|-------------------------------|--------5-------7/8-----5------|
D|-------------------------------|-------------------------------|
A|-------------------------------|-------------------------------|
D|-------------------------------|-------------------------------|

e|------- ------- ------- -------|------- ------- ------- -------|
B|-------------------------------|----------------5---7---7-/-8--|
G|7B8R7B8R7P5--------------------|------------7---5---7---7-/-8--|
D|------------7------------------|------------7------------------|
A|-------------------------------|-------------------------------|
E|-------------------------------|-------------------------------|
  you                                         I   want you so
e|------- ------- ------- -------|------- ------- ------- -------|
B|-------------------------------|-------------------------------|
G|------------------------5---5--|5-------5----------------------|
D|--------------------7---5---5--|5-------5----------------------|
A|--------------------7----------|-------------------------------|
D|-------------------------------|-------------------------------|

e|------- ------- ------- -------|------- ------- ------- -------|
B|7---5--------------------------|-------------------------------|
G|7---5-----------5--------------|5-------5-------5-------5------|
D|--------7---------------7------|5-------5-------5H7-----5------|
A|-------------------------------|----7--------------------------|
E|-------------------------------|-------------------------------|
  bad                     it's    driving me      mad     it's
e|------- ------- ------- -------|------- ------- ------- -------|
B|-------------------------------|-------------------------------|
G|-------------------------------|5-------5-------5-------5------|
D|----------------5--------------|5-------5-------5-------5------|
A|7---------------3--------------|-------------------------------|
D|7------------------------------|-------------------------------|

   2/4

e|------- -------|
B|---------------|
G|---------------|
D|---------------|
A|7---5---3B4----|
E|---------------|
  driving me
e|------- -------|
B|---------------|
G|--------5---5--|
D|--------5---5--|
A|---------------|
D|---------------|

   4/4

e|------- ------- ------- -------|------- ------- ------- -------|
B|-------------------------------|-------------------------------|
G|------------------------5---5--|------------------------10-----|
D|------------------5---7--------|--------------------12---------|
A|--------------5/7--------------|-------------------------------|
E|5-~----------------------------|-------------------------------|
  mad                                                    I   want
e|------- ------- ------- -------|------- ------- ------- -------|
B|-------------------------------|-------------------------------|
G|------------5---5--------------|5------------------------------|
D|------------5---5--------------|5------------------------------|
A|-------------------------------|-------------------------------|
D|-------------------------------|-------------------------------|


  B R P
e|------- ------- ------- -------|------- ------- ------- -------|
B|-------------------------------|----------------10-------------|
G12141210------------------------|----------------10--12--12-B-14|
D|-------12----------------------|----12--12--12-----------------|
A|-------------------------------|-------------------------------|
E|-------------------------------|-------------------------------|
  you                                 you know I  want you so
e|------- ------- ------- -------|------- ------- ------- -------|
B|-------------------------------|-------------------------------|
G|----------------10--10--10--10-|10--\--------------------------|
D|----------------10--10--10--10-|10--\--------------------------|
A|-------------------------------|-------------------------------|
D|-------------------------------|-------------------------------|

e|------- ------- ------- -------|------- ------- ------- -------|
B|-------------------------------|------------------------10-----|
G|12-P-10---------10-------------|------------------------10-----|
D|--------12---------------------|--------------------12---------|
A|-------------------------------|-------------------------------|
E|-------------------------------|-------------------------------|
  bad,                    babe                        I   want
e|------- ------- ------- -------|------- ------- ------- -------|
B|-------------------------------|-------------------------------|
G|---------------------------10--|--------10------12/13---10-----|
D|---------------------------10--|--------10------12/13---10-----|
A|---------------------10/12---12\10/12--------------------------|
D|-------------------------------|-------------------------------|

e|------- ------- ------- -------|------- ------- ------- -------|
B|12-B-13R12-B-13R12-\-----------|----------------10--12--12-B-13|
G|12-B-13R12-B-13R12-------------|----------------10--12--12-B-13|
D|-------------------------------|------------12-----------------|
A|-------------------------------|-------------------------------|
E|-------------------------------|-------------------------------|
  you                                 you know I want you so
e|------- ------- ------- -------|------- ------- ------- -------|
B|-----------------------------10|--10----10---------------------|
G|-----------------------------10|--10----10---------------------|
D|---------------------------12--|----12-------------------------|
A|-------------------------------|-------------------------------|
D|-------------------------------|-------------------------------|

e|------- ------- ------- -------|------- ------- ------- -------|
B|12-P-10---------10-------------|-------------------------------|
G|12-P-10---------10-------------|----------------10------10-----|
D|------------------------12-----|10------10------10H12---10-----|
A|-------------------------------|----12-------------------------|
E|-------------------------------|-------------------------------|
  bad                     it's    driving me      mad     it's
e|------- ------- ------- -------|------- ------- ------- -------|
B|-------------------------------|-------------------------------|
G|-------------------------------|-------------------------------|
D|----------------10-------------|10--------------8--------------|
A|-----------------8-------------|10--------------8--------------|
D|-------------------------------|-------------------------------|

  2/4

e|------- -------|
B|---------------|
G|---------------|
D|---------------|
A|10----11----12-|
E|---------------|
  driving me
e|------- -------|
B|---------------|
G|---------------|
D|---------------|
A|5-----6-----7--|
D|---------------|

   4/4

e|------- ------- ------- -------|------- ------- ------- -------|
B|--------6---6---6---6-------6--|6---6---6-/--------------------|
G|--------7---7---7---7-------7--|7---7---7-/--------------------|
D|--------6---6---6---6-------6--|6---6---6-/--------------------|
A|--------7---7---7---7-------7--|7---7---7-/--------------------|
E|0-------0---0---0---0-------0--|0---0---0----------------------|
  mad                                          Yeah!


e|------- ------- ------- -------|------- ------- ------- -------|
B|------------6---6---6---6---6--|6---6--------------------------|
G|------------7---7---7---7---7--|7---7--------------------------|
D|------------6---6---6---6---6--|6---6--------------------------|
A|------------7---7---7---7---7--|7---7--------------------------|
E|0-----------0---0---0---0---0--|0---0--------------------------|

                                          x

e|------- ------- ------- -------|------- ------- ------- -------|
B|--------6---6---6---6---6---6--|6------------------------------|
G|--------7---7---7---7---7---7--|7------------------------------|
D|--------6---6---6---6---6---6--|6------------------------------|
A|--------7---7---7---7---7---7--|7------------------------------|
E|0-------0---0---0---0---0---0--|0------------------------------|
                                                  She's   so


         CODA

    6/8

e|--------------- 1--------------|--------------- 1--------------|
B|----------3----------3---------|----------3----------3---------|
G|-----2--------------------2----|-----2--------------------2----|
D|0------------------------------|3------------------------------|
A|-------------------------------|-------------------------------|
E|-------------------------------|-------------------------------|

e|--------------- ---------------|--------------- ---------------|
B|-------------------------------|-------------------------------|
G|-------------------------------|-------------------------------|
D|-------------------------------|-------------------------------|
A|-------------------------------|--------------------------0----|
D|0---------------2--------------|3---------------5--------------|

e|--------------- 1--------------|--------------- 1--------------|
B|----------3----------3---------|---------------------3---------|
G|-----1--------------------1----|----------1---------------1----|
D|2------------------------------|-----2-------------------------|
A|-------------------------------|1------------------------------|
E|-------------------------------|-------------------------------|

e|--------------- ---------------|--------------- ---------------|
B|-------------------------------|-------------------------------|
G|-------------------------------|-------------------------------|
D|-------------------------------|--------------------------0----|
A|---------------------3----2----|1--------------------3---------|
D|2------------------------------|-------------------------------|

e|--------------- 1--------------|
B|----------2----------2---------|
G|-----2--------------------2----|
D|-------------------------------|
A|0------------------------------|
E|-------------------------------|

e|--------------- ---------------|
B|-------------------------------|
G|-------------------------------|
D|-------------------------------|
A|0------------------------------|
D|---------------------3----2----|

e|--------------- 1--------------|--------------- 1--------------|
B|----------3----------3---------|----------3----------3---------|
G|-----2--------------------2----|-----2--------------------2----|
D|0------------------------------|3------------------------------|
A|-------------------------------|-------------------------------|
E|-------------------------------|-------------------------------|

e|--------------- ---------------|--------------- ---------------|
B|-------------------------------|-------------------------------|
G|-------------------------------|-------------------------------|
D|-------------------------------|-------------------------------|
A|-------------------------------|--------------------------0----|
D|0---------------2--------------|3---------------5--------------|

e|--------------- 1--------------|--------------- 1--------------|
B|----------3----------3---------|---------------------3---------|
G|-----1--------------------1----|----------1---------------1----|
D|2------------------------------|-----2-------------------------|
A|-------------------------------|1------------------------------|
E|-------------------------------|-------------------------------|

e|--------------- ---------------|--------------- ---------------|
B|-------------------------------|-------------------------------|
G|-------------------------------|-------------------------------|
D|-------------------------------|--------------------------0----|
A|---------------------3----2----|1--------------------3---------|
D|2------------------------------|-------------------------------|

e|--------------- 1--------------|
B|----------2----------2---------|
G|-----2--------------------2----|
D|-------------------------------|
A|0------------------------------|
E|-------------------------------|

e|--------------- ---------------|
B|-------------------------------|
G|-------------------------------|
D|-------------------------------|
A|0------------------------------|
D|---------------------3----2----|

e|--------------- 1--------------|--------------- 1--------------|
B|----------3----------3---------|----------3----------3---------|
G|-----2--------------------2----|-----2--------------------2----|
D|0------------------------------|3------------------------------|
A|-------------------------------|-------------------------------|
E|-------------------------------|-------------------------------|

e|--------------- ---------------|--------------- ---------------|
B|-------------------------------|-------------------------------|
G|-------------------------------|-------------------------------|
D|-------------------------------|-------------------------------|
A|-------------------------------|--------------------------0----|
D|0---------------2--------------|3---------------5--------------|

e|--------------- 1--------------|--------------- 1--------------|
B|----------3----------3---------|---------------------3---------|
G|-----1--------------------1----|----------1---------------1----|
D|2------------------------------|-----2-------------------------|
A|-------------------------------|1------------------------------|
E|-------------------------------|-------------------------------|

e|--------------- ---------------|--------------- ---------------|
B|-------------------------------|-------------------------------|
G|-------------------------------|-------------------------------|
D|-------------------------------|--------------------------0----|
A|---------------------3----2----|1--------------------3---------|
D|2------------------------------|-------------------------------|

e|--------------- 1--------------|
B|----------2----------2---------|
G|-----2--------------------2----|
D|-------------------------------|
A|0------------------------------|
E|-------------------------------|

e|--------------- ---------------|
B|-------------------------------|
G|-------------------------------|
D|-------------------------------|
A|0------------------------------|
D|---------------------3----2----|

---------------------------------------------------------------------------
                         Here Comes The Sun
---------------------------------------------------------------------------
The song is played capoed at the 7th fret.

I've just included the parts.  Some assembly required.

George is just strum/picking (somewhere in between, that is) the chords
while playing the melody as the top note of the chord.  For example (I
won't try to exactly match the strumming, just list the basic notes.
The basic chord is played up to the melody note on pretty much all of
these) the intro/verse part is:

---2-----0--2-----2--0------------0----------------------0----|
---3--3--------3--------3--0--3--(0)--3--0--2--0--2--3--(2)---|
---2-----------------------0-------------0--------------------|
---0-----------------------0-------------2--------------------|
---------------------------2-------------0--------------------|
---------------------------3----------------------------------|
   D chord                    G chord       A7 chord

------2-----0--2-----2--0--------2--0---------|
---3-----3--------3--------3--0--------3---2--|
---2--------------------------0------------0--|
---0--------------------------0------------2--|
------------------------------2------------0--|
------------------------------3---------------|
   D chord                    G chord      A7 chord


"here comes the sun" part:

------2--0--2-----2-----0--2-----2--0--2-------|
---3-------- --3-----3--------0-------------3--|
---2--------------------------0-------------1--|
---0--------------------------0-------------0--|
------------------------------2-------------2--|
------------------------------3-------------0--|
   D chord                    G chord       E7 chord

------2--0----|
---3-------3--|
---2----------|
---0----------|
--------------|
--------------|
   D chord

and into the lick:

-----------0--------0--------0--------0--------------|
--------3--------3--------3--------3-----3--2--0-----|
--2--4--------2--------0--------2-----------------2--|
-----------------------------------------------------|
-----------------------------------------------------|
-----------------------------------------------------|


then:


------2-----0--2-------------------0---|
---3-----3---------0--2--0--2--3--(2)--|
---2---------------0-------------------|
---0---------------2-------------------|
-------------------0-------------------|
---------------------------------------|
   D chord         A7 chord

The bridge part ("sun, sun, here it comes"):

--------------------------------------------2-----|
-----------------1--------------------------3--2--|
--------------2-----------0--------0--------2--0--|
--------2--3-----------2--------0-----------0--2--|
--0--4--------------3--------2-----------2-----0--|
--------------------------------------3-----------|

The part leading out of the bridge is all just based
on the A7 chord:

--------------------0-------0---3---5--5--|
-2--0--2--3--2--3--(2)--3--(2)------------|
-0----------------------------------------|
-2----------------------------------------|
-0----------------------------------------|
------------------------------------------|

The end is just the "sun, sun, here it comes" lick.

-----------------------------------------------------------------------------
                    Because

                    Lennon/McCartney
-----------------------------------------------------------------------------
Album: Abbey Road


Chords:

 C#m    G#7sus?   G#      A       A7      D       F#
EADGBe  EADGBe  EADGBe  EADGBe  EADGBe  EADGBe  EADGBe
======  ======  ======  ======  ======  ======  ======
446654  464644  466544  577655  575685  000232  244322

Main section:
    C#m                             G7sus?          G#
e|---------------|---------------|---------------|-------------|
B|------5--------|------5--------|------4--------|------4------|
G|----6---6------|----6---6------|----6---6------|----5---5----|
D|--6-------6---6|--6-------6---6|--4-------4---4|--6-------6--|
A|4-----------7*-|4-----------7*-|6-----------7*-|6------------|
E|---------------|---------------|---------------|------------4|

    A             C#m           A7
e|--------------|---------------|-----------------|------------|
B|------5-------|-------5-------|-------8---------|-------7----|
G|----6---6-----|-----6---6-----|-----6---6-------|-----6------|
D|--7-------7---|---6-------6---|---5-------5---5-|---5--------|
A|------------7-|-4-----------4-|-------------7---|------------|
E|5-------------|---------------|-5---------------|-5----------|

    D
e|------2---------|-------2-1---|
B|----3---3-------|-----3-------|
G|--2-------2---2-|---2---------| - Repeat main section
D|0-----------4*--|-0-----------|
A|----------------|-------------|
E|----------------|-------------|

Part with "Love is old, love is new...":
    F#                               G#
e|----------------|----------------|----------------|--------4-|
B|------2---------|------2---------|------4---------|------7---|
G|----3---3-------|----3---3-------|----5---5-----5-|----5-----|
D|--4-------4---4-|--4-------4---4-|--6-------6-4---|--4-------|
A|------------4---|------------4---|----------------|----------|
E|2---------------|2---------------|4---------------|4---------|

-------------------------------------------------------------------

      THE BEATLES - YOU NEVER GIVE ME YOUR MONEY (Lennon/McCartney)
                    From ABBEY ROAD album. Released 26th September
                    1969.

-------------------------------------------------------------------

      Tabbed by:PJVillanueva
                                              Dm7
  Am7
e|----12- 12--12- 12--12- 12-----|12----- ----10- ------- 10-----|
B|----10--10--10--10--10--10-----|10----------13----------13-----|
G|----12--12--12--12--12--12--12-|12----------10----------10-----|
D|-------------------------------|----12------12------12--12-----|
A|0------------------------------|--------12------------------12-|
E|-------------------------------|10-----------------------------|


  G7
e|----10- 10--10- 10--10- 10-----|13----- 12----- ------- -------|
B|----12--12--12--12--12--12-----|------------13-----------------|
G|----10--10--10--10--10--10--10-|--------------------12---------|
D|----12--12--12--12--12--12-----|------------------------10-----|
A|10-----------------------------|-------------------------------|
E|-------------------------------|-------------------------------|

e|------- ------- ------- -------|------- ------- ------- -------|
B|-------------------------------|-------------------------------|
G|-------------------------------|5H7-----5---5-------5----------|
D|-------------------------------|5-------5---5H7-----5----------|
A|-------------------------------|------------------------7\6/7--|
E|-------------------------------|-------------------------------|


  Fmaj7                           Bm7         E7
e|----8-- 8---8-- 8---8-- 8---8--|7------ ----0-- ------- 0---4--|
B|---10--10--10--10--10--10--10--|7-----------0-------0----------|
G|----9---9---9---9---9---9---9--|7-------7---1------------------|
D|---10--10--10--10--10--10--10--|7---9-------0------------------|
A|8------------------------------|-------------------------------|
E|-------------------------------|7-----------0------------------|

e|------- ------- ------- -------|------- ------- ------- -------|
B|-------------------------------|-------------------------------|
G|-------------------------------|-------------------------------|
D|-------------------------------|-------------------------------|
A|-------------------------------|-------------------------------|
E|8------------------------------|-------------------------------|


  Am                                          A7
e|5------ ----8-- ------- -------|------- ----12- ------- -------|
B|5------------------------------|------------10-----------------|
G|5------------------------------|------------12-----------------|
D|7-------7-------7-------7------|-------------------------------|
A|----7-------7-------7-------7--|12------12--------------12--0--|
E|-------------------------------|----12---------------12--------|

e|------- ------- ------- -------|------- ------- ------- -------|
B|------------5------------------|-------------------------------|
G|5-----------5------------------|----------------------------5--|
D|5H7----------------------------|----------------------------5--|
A|-------------------------------|--------------------7\6/7------|
E|-------------------------------|-------------------------------|


  Am7                                          Dm
e|----12- 12--12- 12--12- 12--12-|12----- ----10- ------- 10-----|
B|----10--10--10--10--10--10--10-|10----------10----------10-----|
G|----12--12--12--12--12--12--12-|12----------10----------10-----|
D|-------------------------------|-0---0----------0---0----------|
A|0------------------------------|---------------------------12--|
E|-------------------------------|-------------------------------|
      You never   give me  your   money

  G7                               C
e|10----- ----10- ------- 10-----|-8----- -----8- ------- 8------|
B|12----------12----------12-----|-8-----------8----------8------|
G|10----------10----------10-----|-9-----------9----------9------|
D|12----------12------12--12-----|10----------10---------10------|
A|10----------10----------10-----|--------------------10------10-|
E|-------------------------------|-8-----------8-----------------|
      You only    give me your    funny        paper
e|------- ------- ------- -------|------- ------- ------- -------|
B|-------------------------------|-------------------------------|
G|-------------------------------|5H7-----5---5---------------5--|
D|-------------------------------|5-------5---5------------------|
A|-------------------------------|--------------------7\6/7------|
E|-------------------------------|-------------------------------|


   Fmaj7                           E7sus4      E7
e|-8----- ----8-- ------- 8------|-7----- 7----7- ------- 7------|
B|10---------10----------10------|10-----10----9----------9------|
G|-9----------9-----------9------|-7------7----7----------7------|
D-10---------10----------10------|-9------9----9----------9------|
A|-8----------8-------8---8------|-7------7---------------7------|
E|-------------------------------|----------------0---0-------0--|
      and in  the middle  of negotiations                     you
e|------- ------- ------- -------|------- ------- ------- -------|
B|-------------------------------|-------------------------------|
G|-------------------------------|-------------------------------|
D|-------------------------------|-------------------------------|
A|8------------------------------|-------------------------------|
E|8------------------------------|-------------------------------|


  Am                                          Am7
e|5------ 5------ 5---5-- 5------|------- ----12- ------- -------|
B|5-------5-------5---5---5------|----10--13--10-----------------|
G|5-------5-------5---5---5------|------------12-----------------|
D|7-------7-------7---7---7------|-------------------------------|
A|-------------------------------|--------------------0---0---0--|
E|5---------------5-----------5--|-------------------------------|
  break           down
e|------- ------- ------- -------|------- ------- ------- -------|
B|------------5------------------|---------------------------------|
G|5-----------5------------------|----------------7P5--------------|
D|5H7----------------------------|--------------------7P5H7P5------|
A|-------------------------------|----------------------------7----|P5/
E|-------------------------------|---------------------------------|


  Am7                                          Dm
e|------- 12----- ----12- -------|12----- ----10- ------- 10-----|
B|--------10----------10---------|10----------10----------10-----|
G|--------12----------12---------|12----------10----------10-----|
D|-------------------------------|-0-----------------------0-----|
A|0------------------------------|----------------------------10-|
E|-------------------------------|-------------------------------|
      I   never   give you my     number
e|------- ------- ------- -------|------- ------- ------- -------|
B|-------------------------------|-------------------------------|
G|-------------------------------|-------------------------------|
D|-------------------------------|-------------------------------|
A|7------------------------------|-------------------------------|
E|-------------------------------|-------------------------------|


  G7                               C
e|10----- ----10- ------- 10-----|-8----- -----8- ------- 8------|
B|12----------12----------12-----|-8-----------8----------8------|
G|10----------10----------10-----|-9-----------9----------9------|
D|12----------12----------12-----|10----------10----------9------|
A|10----------10----------10-----|-------------------------------|
E|-------------------------------|-8-----------8----------8------|
      I   only    give you my     situation
e|------- ------- ------- -------|------- ------- ------- -------|
B|-------------------------------|-------------------------------|
G|-------------------------------|5-----------5-------5----------|
D|-------------------------------|5-----------5H7-----5----------|
A|-------------------------------|------------------------7\6/7--|
E|-------------------------------|-------------------------------|


   Fmaj7                           E7sus4      E7
e|-8----- ----8-- ------- 8------|-7----- 7----7- ------- 7------|
B|10---------10----------10------|10-----10----9----------9------|
G|-9----------9-----------9------|-7------7----7----------7------|
D-10---------10----------10------|-9------9----9----------9------|
A|-8----------8-----------8------|-7------------------7----------|
E|-------------------------------|------------------------0------|
      and in  the middle  of investigation                    I
e|------- ------- ------- -------|------- ------- ------- -------|
B|-------------------------------|-------------------------------|
G|-------------------------------|-------------------------------|
D|-------------------------------|-------------------------------|
A|-------------------------------|-------------------------------|
E|8------------------------------|-------------------------------|

                                  x   x x x   x x x x x   X X X
  Am                                  C           G
e|5------ ----5-- ------- -------|----0-- 0------ ------- -------|
B|5-----------5------------------|----1---1-------3--------------|
G|5-----------5------------------|----0---0-------0--------------|
D|7-----------7------------------|----2---2-------0--------------|
A|-------------------------------|----3---3-------2--------------|
E|5-----------5------------------|----------------3--------------|
  break       down

  C                               E
e|0----0- 0----0- 0----0- 0------|0------ 0------ 0------ 0----0-|
B|1----1--1----1--1----1--1------|0-------0-------0-------0----0-|
G|0----0--0----0--0----0--0------|1-------1-------1-------1----1-|
D|2----2--2----2--2----2--2------|2-------2-------2-------2----2-|
A|3----3--3----3--3----3--3------|2-------2-------2-------2----2-|
E|3----3--3----3--3----3--3------|0-------0-------0-------0----0-|
          Out  of college,        money        spent

  Am                              C7
e|0----0- -----0- -----0- 0------|0----0- 0------ 0----0- 0----0-|
B|1----1-------1-------1--1------|1----1--1-------1----1--1----1-|
G|2----2-------2-------2--2------|3----3--3-------3----3--3----3-|
D|2----2-------2-------2--2------|2----2--2-------2----2--2----2-|
A|0----0-------0-------0--0------|3----3--3-------3----3--3----3-|
E|-------------------------------|-------------------------------|
  See     no   future,            pay     no   rent

  F                            G
e|1----1- 1----1- 1------ 1----3-|3------ ------- ------- -------|
B|1----1--1----1--1-------1----3-|3------------------------------|
G|2----2--2----2--2-------2----4-|4------------------------------|
D|3----3--3----3--3-------3----5-|5------------------------------|
A|3----3--3----3--3-------3----5-|5------------------------------|
E|1----1--1----1--1-------1----3-|3------------------------------|
  All     the  money's         gone       nowhere         to   go

  C7
e|0----0- -----0- -----0- 0------|0----0- 0------ 0----0- 0------|
B|1----1--x----1-------1--1------|1----1--1----x--1----1--1------|
G|3----3--x----3-------3--3------|3----3--3----x--3----3--3------|
D|2----2--x----2-------2--2------|2----2--2----x--2----2--2------|
A|3----3-------3-------3--3------|3----3--3-------3----3--3------|
E|-------------------------------|-------------------------------|


  C                               E
e|0------ ------- ------- 0---0--|0------ 0------ 0------ -------|
B|1-----------------------1---1--|0-------0-------0--------------|
G|0-----------------------0---0--|1-------1-------1--------------|
D|2-----------------------2---2--|2-------2-------2--------------|
A|3-----------------------3---3--|2-------2-------2--------------|
E|3-----------------------3---3--|0-------0-------0--------------|
          Any     jobber          got     the  sack

  Am                              C7
e|0------ 0------ ------- -------|0------ 0------ ------- 0------|
B|1-------1----------------------|1-------1---------------1------|
G|2-------2----------------------|3-------3---------------3------|
D|2-------2----------------------|2-------2---------------2------|
A|0-------0----------------------|3-------3---------------3------|
E|-------------------------------|-------------------------------|
  Monday       morning            turning      back

  F                            G
e|1------ 1------ 1----1- 1----3-|3----3- 3------ 3------ 3----3-|
B|1-------1-------1----1--1----3-|3----3--3-------3-------3----3-|
G|2-------2-------2----2--2----4-|4----4--4-------4-------4----4-|
D|3-------3-------3----3--3----5-|5----5--5-------5-------5----5-|
A|3-------3-------3----3--3----5-|5----5--5-------5-------5----5-|
E|1-------1-------1----1--1----3-|3----3--3-------3-------3----3-|
  Yellow       lorry           slow       nowhere         to   go

  C
e|0----0- 0----0- 0------ 0------|0----0- 0------ 0----0- 0------|
B|1----1--1----1--1-------1------|1----1--1-------1----1--1------|
G|0----0--0----0--0-------0------|0----0--0-------0----0--0------|
D|2----2--2----2--2-------2------|2----2--2-------2----2--2------|
A|3----3--3----3--3-------3------|3----3--3-------3----3--3------|
E|3----3--3----3--3-------3------|3----3--3-------3----3--3------|
                                                          But  oh,

  Bb                              F
e|1------ ----1-- ------- -------|1------ ----1-- ------- -------|
B|3-----------3------------------|1-----------1------------------|
G|3-----------3------------------|2-----------2------------------|
D|3-----------3------------------|3-----------3------------------|
A|1-----------1------------------|3-----------3------------------|
E|-------------------------------|1-----------1------------------|
          that magic      feeling                    nowhere to go
e|----10- ------- ------- -------|----8-- ------- ------- -------|
B|--------11---------------------|--------10---------------------|
G|------------10-----------------|------------10-----------------|
D|-------------------------------|-------------------------------|
A|-------------------------------|-------------------------------|
E|-------------------------------|-------------------------------|


  C                               Bb
e|0------ ----0-- ------- -------|1------ ----1-- ------- -------|
B|1-----------1------------------|3-----------3------------------|
G|0-----------0------------------|3-----------3------------------|
D|2-----------2------------------|3-----------3------------------|
A|3-----------3------------------|1-----------1------------------|
E|3-----------3------------------|-------------------------------|
                                  Oh,     that magic      feeling
e|----8-- ------- ------- -------|----10- ------- ------- -------|
B|----8--------------------------|--------11---------------------|
G|7/9----------------------------|10----------10-----------------|
D|-------------------------------|-------------------------------|
A|-------------------------------|-------------------------------|
E|-------------------------------|-------------------------------|


  F                               C
e|1------ ----1-- ------- -------|0------ ----0-- ------- -------|
B|1-----------1------------------|1-----------1------------------|
G|2-----------2------------------|0-----------0------------------|
D|3-----------3------------------|2-----------2------------------|
A|3-----------3------------------|3-----------3------------------|
E|1-----------1------------------|3-----------3------------------|
                     nowhere to go            nowhere to go
e|----8-- ------- ------- -------|----8-- ------- ------- -------|
B|--------10---------------------|----8--------------------------|
G|------------10-----------------|7/9----------------------------|
D|-------------------------------|-------------------------------|
A|-------------------------------|-------------------------------|
E|-------------------------------|-------------------------------|


          Bb                      F
e|-------10---6-- ------- 6------|8---8-- ----8-- ------- 8------|
B|--------6---6-----------6------10--10------10----------10------|
G|--------7---7-----------7------10--10------10----------10------|
D|--------6---8-----------8------10--10------10----------10------|
A|--------8---8-----------8------|8---8-------8-----------8------|
E|--------6---6-----------6------|-------------------------------|

e|--13--- 13----10----10- --10---|--12--- 12-----8----8-- ---8---|
B|----15----15----11----11----11-|----13----13----10---10-----10-|
G|15----15----15----10----10-----|10----10----10----10----10-----|
D|-------------------------------|-------------------------------|
A|-------------------------------|-------------------------------|
E|-------------------------------|-------------------------------|

e|------- ------- ------- -------|------- ------- ------- -------|
B|-------------------------------|-------------------------------|
G|-------------------------------|-------------------------------|
D|-------------------------------|------------------------10--10-|
A|-----------8/10-----8----------|--------8/10-8----8H10/12------|
E|-----------------------8B10R8-6|5------------------------------|


  C                                   Bb
e|8---8-- ----8-- ------- 8------|----6-- ----6-- ------- 6------|
B|8---8-------8-----------8------|----6-------6-----------6------|
G|9---9-------9-----------9------|----7-------7-----------7------|
D10--10------10----------10------|----8-------8-----------8------|
A10--10------10----------10------|----8-------8-----------8------|
E|8---8-------8-----------8------|----6-------6-----------6------|

e|--8---- 8------ ------- -------|--13--- 13----10----10- --10---|
B|----8--------------------------|----15----15----11----11----11-|
G/9-----9------------------------|15----15----15----10----10-----|
D|-------------------------------|-------------------------------|
A|-------------------------------|-------------------------------|
E|-------------------------------|-------------------------------|

e|------- ------- ------- -------|------- ------- ------- -------|
B|-------------------------------|-------------------------------|
G|-------------------------------|-------------------------------|
D|10-----------------------------|-------------------------------|
A|------------------------12P10--|---8/10-8----------------------|
E|----------------------------12\|6---------(8)108108108--6---5--|
                                               B RB RB R

  F                               C
e|8---8-- ----8-- ------- 8------|8---8-- ----8-- ------- 8------|
B10--10------10----------10------|8---8-------8-----------8------|
G10--10------10----------10------|9---9-------9-----------9------|
D10--10------10----------10------10--10------10----------10------|
A|8---8-------8-----------8------10--10------10----------10------|
E|-------------------------------|8---8-------8-----------8------|

e|--12--- 12-----8-----8- ---8---|--8---- 8------ ------- -------|
B|----13----13----10----10----10-|----8--------------------------|
G|10----10----10----10----10-----/9-----9------------------------|
D|-------------------------------|-------------------------------|
A|-------------------------------|-------------------------------|
E|-------------------------------|-------------------------------|

e|------- ------- ------- -------|------- ------- ------- -------|
B|-------------------------------|-------------------------------|
G|-------------------------------|-------------------------------|
D|-------------10------10------10|12/14-10-----------------------|
A|8/10-8----/12----10H12---10H12-|-------------------------------|
E|--------8----------------------|-------------------------------|


      Bb                              F
e|---10-- 6------ 6---6-- ----6--|----8-- 8------ 8---8-- ----8--|
B|----6---6-------6---6-------6--|---10--10------10--10------10--|
G|----7---7-------7---7-------7--|---10--10------10--10------10--|
D|----6---8-------8---8-------8--|---10--10------10--10------10--|
A|----8---8-------8---8-------8--|----8---8-------8---8-------8--|
E|----6---6-------6---6-------6--|-------------------------------|

e|--13--- 13----10----10- --10---|--12--- 12-----8----8-- ---8---|
B|----15----15----11----11----11-|----13----13----10---10-----10-|
G|15----15----15----10----10-----|10----10----10----10----10-----|
D|-------------------------------|-------------------------------|
A|-------------------------------|-------------------------------|
E|-------------------------------|-------------------------------|

e|------- ------- ------- -------|------- ------- ------- -------|
B|-------------------------------|---------------------------------|
G|-------------------------------|---------------------------------|
D|-------------------------------|-----------------10----10---12---|B
A|---8/10-8----------------------|--8/10\8---8H10/12-10H12---------|
E|6-----------8B10--R-8---6------|5--------------------------------|


          C                       D
e|------- 8-----8 ----8-- ----8--|10----- 10----10----10- ----10-|
B|--------8-----8-----8-------8--|10------10----10----10------10-|
G|--------9-----9-----9-------9--|11------11----11----11------11-|
D|-------10----10----10------10--|10------10----10----10------10-|
A|-------10----10----10------10--|12------12----12----12------12-|
E|--------8-----8-----8-------8--|10------10----10----10------10-|

e|--8---- 8------ ------- -------|------- ------- ------- -------|
B|----8--------------------------|-------------------------------|
G/9-----9------------------------|-------------------------------|
D|-------------------------------|-------------------------------|
A|-------------------------------|-------------------------------|
E|-------------------------------|-------------------------------|

e|------- ------- ------- -------|------- ------- ------- -------|
B|------------------------13-----|-------------------------------|
G|-------------------------------|12B14-~------------------------|
D|14-----------------------------|-------------------------------|
A|-------------------------------|-------------------------------|
E|-------------------------------|-------------------------------|


  D#              G               C           A
e|6------ 6------ 3------ 3------|3------ ----5-- ------- -------|
B|8-------8-------3-------3------|5-----------5------------------|
G|8-------8-------4-------4------|5-----------6------------------|
D|8-------8-------5-------5------|5-----------7------------------|
A|6-------6-------5-------5------|3-----------7------------------|
E|----------------3-------3------|------------5------------------|

e|------- ------- ------- -------|------- -----9- ------- -------|
B|-------------------------------|--8---8-111088-----------------|
G|10B12--121081012-121212-12-108-/9---------P-P9-----------------|
D|---------R----B------------R---|-------------------------------|
A|-------------------------------|-------------------------------|
E|-------------------------------|-------------------------------|


  D#          C                    F#         D#
e|6------ ----8-- ----8-8 8------|-9----- ----11- ------- -------|
B|8-----------8-------8-8-8------|10----------11-----------------|
G|8-----------9-------9-9-9------|10----------12-----------------|
D|8----------10------101010------|10----------13-----------------|
A|6----------10------101010------|-9----------13-----------------|
E|------------8-------8-8-8------|------------11-----------------|

e|------- ------12------- -------|------- ------15------- -------|
B|--11-11-14131111---------------|--14-14-17161414---------------|
G/12--------P-P-12---------------/15------------15---------------|
D|-------------------------------|-------------------------------|
A|-------------------------------|-------------------------------|
E|-------------------------------|-------------------------------|


  A           F#      G       G#
e|12----- ----9-- ----10- ----11-|
B|14---------11-------12------13-|
G|14---------11-------12------13-|
D|14---------11-------12------13-|
A|12----------9-------10------11-|
E|-------------------------------|

e|------- ------18----19- ----20-|
B|--17-17-20191717----18------19-|
G/18--------P-P-18----19------20-|
D|-------------------------------|
A|-------------------------------|
E|-------------------------------|


  A5      A6    A5        A6  A5  B5                      B6  B5
e|------- ------- ------- -------|------- ------- ------- -------|
B|-------------------------------|-------------------------------|
G|-------------------------------|-------------------------------|
D|-------------------------------|-------------------------------|
A|7---7---9-----7---7---7-9---7--|9---9---9-----9-9---9---9H119--|
E|5---5---5-----5---5---5-5---5--|7---7---7-----7-7---7---7---7--|
                  One sweet   dream
e|12----- ------- ------- -------|------- ------- ------- -------|
B|14-----------------------------|-------------------------------|
G|14-----------------------------|-------------------------------|
D|14-----------------------------|-------------------------------|
A|12-----------------------------|-------------------------------|
E|-------------------------------|-------------------------------|

e|21----- ------- ------- -------|------- ------- ------- -------|
B|20-----------------------------|-------------------------------|
G|21-----------------------------|-------------------------------|
D|-------------------------------|------------------9-9---9H11P9-|
A|-------------------------------|--6-6H9-9---9-9H11-------------|
E|-------------------------------|7------------------------------|

  C5              E               A5      A6    A7        A6  A7
e|------- ------- 7-7---7 7---7--|------- ------- ------- -------|
B|----------------9-9---9-9---9--|----------------------------5-\|
G|----------------9-9---9-9---9--|----------------------------6-\|
D|----------------9-9---9-9---9--|--------------5---5---------5-\|
A|10--10--12--10--7-7---7-7---7--|7---7---9---9-7---7---7-9---7--|
E|-8---8---8---8-----------------|5---5---5---5-5---5---5-5---5--|
  Pick    bags and get
    up the          in the limousine
e|------- ------- ------- -------|------- ------- ------- -------|
B|-------------------------------|-------------------------------|
G|-------------------------------|-------------------------------|
D|-------------------------------|9B11--9P7-7-7---7P5------------|
A|-------------------------------|--------------------7----------|
E|-------------------------------|-------------------------------|


  Dm          G                   D7          G
e|1------ ----3-- ------- -------|5------ ----3-- ------- -------|
B|3-----------0------------------|3-----------0------------------|
G|2-----------4------------------|5-----------4------------------|
D|0-----------0------------------|0-----------0------------------|
A|-------------------------------|-------------------------------|
E|-------------------------------|-------------------------------|
  Soon we'll         from here    Step       and wipe that tear away
          be  away                  on the gas

  A5      A6  A5                  B5
e|------- ------- ------- -------|------- -------|
B|-------------------------------|---------------|
G|-------------------------------|---------------|
D|-------------------------------|---------------|
A|7---7---9---7-7---7---7-7------|9--------------|
E|5---5---5---5-5---5---5-5------|7--------------|
                  One sweet   dream       came true
e|------- ------- ------- -------|------- -------|
B|-------------------------------|---------------|
G|-------------------------------|---------------|
D|----7-7-7-7-7---7-7---7-7-7-9B10R9-7-7--7------|
A|-------------------------------|---------------|
E|-------------------------------|---------------|


  C           Cmaj7               A
e|------- ------- ------- -------|------- ----5-- ------- -------|
B|------------------------0------|------------2------------------|
G|--------0-----------0-------0--|--------2----------------------|
D|----2-----------0--------------|----2--------------------------|
A|3-----------2------------------|0------------------------------|
E|-------------------------------|-------------------------------|
                          today                           came true

  C           Cmaj7               A
e|------- ------- ------- -------|------- ----5-- ------- -------|
B|------------------------0------|------------2------------------|
G|--------0-----------0-------0--|--------2----------------------|
D|----2-----------0--------------|----2--------------------------|
A|3-----------2------------------|0------------------------------|
E|-------------------------------|-------------------------------|
                          today                           came true

  C           Cmaj7               A
e|------- ------- ------- -------|------- ----5-- ------- -------|
B|------------------------0------|------------2------------------|
G|--------0-----------0-------0--|--------2----------------------|
D|----2-----------0--------------|----2--------------------------|
A|3-----------2------------------|0------------------------------|
E|-------------------------------|-------------------------------|
                          today,      yes     it  did

  C           Cmaj7               A
e|------- ------- ------- -------|------- ----5-- ------- -------|
B|------------------------0------|------------2------------------|
G|--------0-----------0-------0--|--------2----------------------|
D|----2-----------0--------------|----2--------------------------|
A|3-----------2------------------|0------------------------------|
E|-------------------------------|-------------------------------|

e|------- ------- ------- -------|------- ------- ------- -------|
B/10-----------------------------|----8-------10-----------------|
G|-------------------------------|-------------------------------|
D|-------------------------------|-------------------------------|
A|-------------------------------|-------------------------------|
E|-------------------------------|-------------------------------|


  C           Cmaj7               A
e|------- ------- ------- -------|------- ----5-- ------- -------|
B|------------------------0------|------------2------------------|
G|--------0-----------0-------0--|--------2----------------------|
D|----2-----------0--------------|----2--------------------------|
A|3-----------2------------------|0------------------------------|
E|-------------------------------|-------------------------------|
  One two three                   All good children go to Heaven
              four five six seven,

  C           Cmaj7               A
e|------- ------- ------- -------|------- ----5-- ------- -------|
B|------------------------0------|------------2------------------|
G|--------0-----------0-------0--|--------2----------------------|
D|----2-----------0--------------|----2--------------------------|
A|3-----------2------------------|0------------------------------|
E|-------------------------------|-------------------------------|
  One two three                   All good children go to Heaven
              four five six seven,
e|------- ------- ------- -------|------- ------- ------- -------|
B|-------------------------------|------------8B10---------------|
G|--8P7P5-7---5B6----------5H7H8-|9---9---9----------------------|
D|----------------7---5H6H7------|-------------------------------|
A|-------------------------------|-------------------------------|
E|-------------------------------|-------------------------------|


  C           Cmaj7               A
e|------- ------- ------- -------|------- ----5-- ------- -------|
B|------------------------0------|------------2------------------|
G|--------0-----------0-------0--|--------2----------------------|
D|----2-----------0--------------|----2--------------------------|
A|3-----------2------------------|0------------------------------|
E|-------------------------------|-------------------------------|
  One two three                   All good children go to Heaven
              four five six seven,
e|------- ------- ------- -------|------- ------- ------- -------|
B|--10-10-10R8-8B10-1010--10R8---|-------------------------------|
G|------------9---------------9-8|7P5H7B9-5B6--------------------|
D|-------------------------------|------------7------------------|
A|-------------------------------|-------------------------------|
E|-------------------------------|-------------------------------|


  C           Cmaj7               A
e|------- ------- ------- -------|------- ----5-- ------- -------|
B|------------------------0------|------------2------------------|
G|--------0-----------0-------0--|--------2----------------------|
D|----2-----------0--------------|----2--------------------------|
A|3-----------2------------------|0------------------------------|
E|-------------------------------|-------------------------------|
  One two three                   All good children go to Heaven
              four five six seven,
e|------- ------- ------- -------|------- ------- ------- -------|
B|-------------------------------|-------------------------------|
G|-------------------------------|---------------------------12-/|
D|-------------------------------|-------------------------------|
A|-------------------------------|-------------------------------|
E|-------------------------------|-------------------------------|


  C           Cmaj7               A
e|------- ------- ------- -------|------- ----5-- ------- -------|
B|------------------------0------|------------2------------------|
G|--------0-----------0-------0--|--------2----------------------|
D|----2-----------0--------------|----2--------------------------|
A|3-----------2------------------|0------------------------------|
E|-------------------------------|-------------------------------|
  One two three                   All good children go to Heaven
              four five six seven,
e|------- ------- ------- -------|------- ----15B17------ -------|
B|--13-13-15P13--B15R1315B17R1513|----13--13---------------------|
G|14-----------------------------|14-----------------------------|
D|-------------------------------|-------------------------------|
A|-------------------------------|-------------------------------|
E|-------------------------------|-------------------------------|


  C           Cmaj7               A
e|------- ------- ------- -------|------- ----5-- ------- -------|
B|------------------------0------|------------2------------------|
G|--------0-----------0-------0--|--------2----------------------|
D|----2-----------0--------------|----2--------------------------|
A|3-----------2------------------|0------------------------------|
E|-------------------------------|-------------------------------|
  One two three                   All good children go to Heaven
              four five six seven,
e|15B1717 17--15- 12----- -------|------- ------- ------- -------|
B|--------------------15--13B14--|-------------------------------|
G|----------------------------14-|14--12------14-----------------|
D|-------------------------------|-------------------------------|
A|-------------------------------|-------------------------------|
E|-------------------------------|-------------------------------|
  .............................Fade..............................

  C           Cmaj7               A
e|------- ------- ------- -------|------- ----5-- ------- -------|
B|------------------------0------|------------2------------------|
G|--------0-----------0-------0--|--------2----------------------|
D|----2-----------0--------------|----2--------------------------|
A|3-----------2------------------|0------------------------------|
E|-------------------------------|-------------------------------|
  One two three                   All good children go to Heaven
              four five six seven,
  ...............................................................


  C           Cmaj7               A
e|------- ------- ------- -------|------- ----5-- ------- -------|
B|------------------------0------|------------2------------------|
G|--------0-----------0-------0--|--------2----------------------|
D|----2-----------0--------------|----2--------------------------|
A|3-----------2------------------|0------------------------------|
E|-------------------------------|-------------------------------|
  One two three                   All good children go to Heaven
              four five six seven,
  ...............................................................

  C           Cmaj7               A
e|------- ------- ------- -------|------- ----5-- ------- -------|
B|------------------------0------|------------2------------------|
G|--------0-----------0-------0--|--------2----------------------|
D|----2-----------0--------------|----2--------------------------|
A|3-----------2------------------|0------------------------------|
E|-------------------------------|-------------------------------|
  One two three                   All good children go to Heaven
              four five six seven,
  ...............................................................

  C           Cmaj7               A
e|------- ------- ------- -------|------- ----5-- ------- -------|
B|------------------------0------|------------2------------------|
G|--------0-----------0-------0--|--------2----------------------|
D|----2-----------0--------------|----2--------------------------|
A|3-----------2------------------|0------------------------------|
E|-------------------------------|-------------------------------|
  One two three                   All good children go to Heaven
              four five six seven,

------------------------------------------------------------------
  THE BEATLES - SUN KING (Lennon/McCartney) From ABBEY ROAD album.
                Released 26th September 1969.
------------------------------------------------------------------
  Tabbed by:PJVillanueva
e|------- ------- ------- -------|------- ------- ------- -------|
B|-------------------------------|-------------------------------|
G|-------------------------------|----------------------------2--|
D|-------------------------------|----------------------------2--|
A|-------------------------------|--------------------2---2/4----|
E|-------------------------------|-------------------------------|


e|------- ------- ------- -------|------- ------- ------- -------|
B|-------------------------------|-------------------------------|
G|-------------------------------|----------------------------2--|
D|------------2---2--------------|------------2-2-2-----------2--|
A|4\2----------------------------|--------------------2--2/4-----|
E|0------------------------------|0------------------------------|


e|------- ------- ------- -------|------- ------- ------- -------|
B|-------------------------------|-------------------------------|
G|-------------------------------|-------------------------------|
D|-----------2----2--------------|------------2-2-2--------------|
A|4\2----------------------------|----------------------------2--|
E|0------------------------------|0-------------------0-2/4------|

  F#m7                                                    B6
e|0------ --2---- 0------ --2----|0------ --2---- 0------ --4----|
B|------2-----2---------2-----2--|------2-----2---------2/4---4--|
G|----2---------------2----------|----2---------------2----------|
D|------------2---2--------------|------------2---2--------------|
A|-------------------------------|------------------------2------|
E|2------------------------------|2------------------------------|

  E6
e|0------ ------- ------- -------|------- ------- ------- -------|
B|----------2--------------------|-------------------------------|
G|------1-----1---------------2--|-------------------------------|
D|----2-------2---2-----------2--|------------2------------------|
A|--------------------2--2/4-----|4\2-----------------0---2------|
E|0------------------------------|0---------------4-----------2--|

  F#m7                                                    B6
e|0------ --2---- 0------ --2----|0------ --2---- 0------ --4----|
B|------2-----2---------2-----2--|------2-----2---------2/4---4--|
G|----2---------------2----------|----2---------------2----------|
D|------------2---2--------------|------------2---2--------------|
A|-------------------------------|------------------------2------|
E|-------------------------------|2------------------------------|

  E6
e|0------ ------- ------- -------|------- ------- ------- -------|
B|----------2-----0--------------|-------------------------------|
G|------1-----1---------------2--|-------------------------------|
D|----2-------2---2-----------2--|------------2-2-2--------------|
A|--------------------2--2/4-----|4\2---------------------0---2--|
E|0------------------------------|0-------------------4----------|

  F#m7                                                 Gm7  B6
e|2----2- --2---- 2------ -------|------- ------- 2----3- --4----|
B|2----2----2-----2--------------|----------------2----3----4----|
G|2----2----2-----2--------------|----------------2----3----4----|
D|------------2---2--------------|------------2-2-2----3----4----|
A|-------------------------------|--------------------------2----|
E|2------------------------------|2------------------------------|

  E6                                                           G7sus2
e|-----0- ------- ------- -------|9------ ------- ------- -----1-|
B|----2--------------------------|9-----------------------------3--|
G|---1------------------------2--|9------------------------------2-|
D|--2---------2---2-----------2--|9---------------2----------------|
A|-2------------------2--2/4-----|------------2-----------2--------|
E|0------------------------------|0--------------------------------|


e|------- ------- ------- -------|------- ------- ------- -------|
B|-------------------------------|-------------------------------|
G|-------------------------------|-------------------------------|
D|-------------------------------|-------------------------------|
A|-------------------------------|-------------------------------|
E|3------------------------------|-------------------------------|

e|------- ------- ------- -------|------- --17--- 13--12- 10-----|
B|-------------------------------|--------------------------10/13|
G|-------------------------------|-------------------------------|
D|-------------------------------|-------------------------------|
A|-------------------------------|-------------------------------|
E|-------------------------------|-------------------------------|

  C                               Cmaj7
e|0---0-- ----0-- 0---0-- ----0--|0------ ----0-- 0---0-- -------|
B|1---1-------1---1---1-------1--|0-----------0---0---0----------|
G|0---0-------0---0---0-------0--|0-----------0---0---0----------|
D|2---2-------2---2---2-------2--|2-----------2---2---2----------|
A|3---3-------3---3---3-------3--|3-----------3---3---3----------|
E|3---3-------3---3---3-------3--|3-----------3---3---3----------|
  Here                            comes                   the
e|------- ------- ------- -------|7------ ------- ------- 8------|
B|8------------------------------|-------------------------------|
G|-------------------------------|-------------------------------|
D|-------------------------------|-------------------------------|
A|-------------------------------|-------------------------------|
E|-------------------------------|-------------------------------|

      Gm7                             A
e|----3-- ----3-- 3---3-- 3------|----0-- 0---0-- 0---0-- 0------|
B|----3-------3---3---3---3------|----2---2---2---2---2---2------|
G|----3-------3---3---3---3------|----2---2---2---2---2---2------|
D|----3-------3---3---3---3------|----2---2---2---2---2---2------|
A|-------------------------------|----0---0---0---0---0---0------|
E|----3-------3---3---3---3------|-------------------------------|
  Sun                             King
e|------- ------- ------- -------|------- ------- ------- -------|
B|8------------------------------|10-----------------------------|
G|-------------------------------|-------------------------------|
D|-------------------------------|-------------------------------|
A|-------------------------------|-------------------------------|
E|-------------------------------|-------------------------------|

  C                                   Cmaj7
e|0---0-- ----0-- ----0-- ----0--|----0-- ----0-- ----0-- 0---0--|
B|1---1-------1-------1-------1--|----0-------0-------0---0---0--|
G|0---0-------0-------0-------0--|----0-------0-------0---0---0--|
D|2---2-------2-------2-------2--|----2-------2-------2---2---2--|
A|3---3-------3-------3-------3--|----3-------3-------3---3---3--|
E|3---3-------3-------3-------3--|----3-------3-------3---3---3--|
  Here                            comes                   the
e|------- ------- ------- -------|7------ ------- ------- 8------|
B|8------------------------------|-------------------------------|
G|-------------------------------|-------------------------------|
D|-------------------------------|-------------------------------|
A|-------------------------------|-------------------------------|
E|-------------------------------|-------------------------------|

      Gm7                             A
e|----3-- 3---3-- ----3-- 3---3--|----0-- 0---0-- ----0-- 0---0--|
B|----3---3---3-------3---3---3--|----2---2---2-------2---2---2--|
G|----3---3---3-------3---3---3--|----2---2---2-------2---2---2--|
D|----3---3---3-------3---3---3--|----2---2---2-------2---2---2--|
A|-------------------------------|----0---0---0-------0---0---0--|
E|----3---3---3-------3---3---3--|-------------------------------|
  Sun                             King
e|------- ------- ------- -------|------- ------- ------- -------|
B|8------------------------------|10--------------8---7----------|
G|-------------------------------|------------------------10--9--|
D|-------------------------------|-------------------------------|
A|-------------------------------|-------------------------------|
E|-------------------------------|-------------------------------|

e|------- ------- ------- -------|------- ------- ------- -------|
B|-------------------------------|----------------8---7----------|
G|----10--9---7---10--9---7---9--|6---7---9---10----------10--9--|
D|-------------------------------|-------------------------------|
A|-------------------------------|-------------------------------|
E|-------------------------------|-------------------------------|

  F                               D
e|1------ ----1-- ----1-- 1---1--|2---2-- 2---2-- 2---2-- 2---2--|
B|1-----------1-------1---1---1--|3---3---3---3---3---3---3---3--|
G|2-----------2-------2---2---2--|2---2---2---2---2---2---2---2--|
D|3-----------3-------3---3---3--|0---0---0---0---0---0---0---0--|
A|3-----------3-------3---3---3--|-------------------------------|
E|1-----------1-------1---1---1--|-------------------------------|
          Everybody's         laughing
e|------- ------- ------- -------|------- ------- ------- -------|
B|-------------------------------|----------------8---7----------|
G|-------------------------------|---------------9--------10--9--|
D|10-----------------------------|--------------10---------------|
A|-------------------------------|-------------------------------|
E|-------------------------------|-------------------------------|

  F                               D7
e|1---1-- 1---1-- ----1-- 1---1--|2---2-- 2---2-- 2---2-- 2---2--|
B|1---1---1---1-------1---1---1--|1---1---1---1---1---1---1---1--|
G|2---2---2---2-------2---2---2--|2---2---2---2---2---2---2---2--|
D|3---3---3---3-------3---3---3--|0---0---0---0---0---0---0---0--|
A|3---3---3---3-------3---3---3--|-------------------------------|
E|1---1---1---1-------1---1---1--|-------------------------------|
          Everybody's         happy
e|------- ------- ------- -------|------- ------- ------- -------|
B|-------------------------------|----7-5-7-----------8---7------|
G|-------------------------------|----7-5-7---7-------7---7---7--|
D|10-----------------------------|------------7---------------7--|
A|-------------------------------|-------------------------------|
E|-------------------------------|-------------------------------|

  C                               Em
e|0---0-- 0---0-- 0---0-- 0---0--|0------ ----0-- 0---0-- ----0--|
B|1---1---1---1---1---1---1---1--|0-----------0---0---0-------0--|
G|0---0---0---0---0---0---0---0--|0-----------0---0---0-------0--|
D|2---2---2---2---2---2---2---2--|2-----------2---2---2-------2--|
A|3---3---3---3---3---3---3---3--|2-----------2---2---2-------2--|
E|3---3---3---3---3---3---3---3--|0-----------0---0---0-------0--|
  Here                            comes                   the
e|------- ------- ------- -------|------- ------- ------- -------|
B|8------------------------------|8------------------------------|
G|9------------------------------|9------------------------------|
D10------------------------------|9------------------------------|
A|-------------------------------|-------------------------------|
E|-------------------------------|-------------------------------|

  C7                              F
e|0---0-- ----0-- 0---0-- ----0--|1------ ----1-- ----1-- -------|
B|1---1-------1---1---1-------1--|1-----------1-------1----------|
G|3---3-------3---3---3-------3--|2-----------2-------2----------|
D|2---2-------2---2---2-------2--|3-----------3-------3----------|
A|3---3-------3---3---3-------3--|3-----------3-------3----------|
E|-------------------------------|1-----------1-------1----------|
  Sun                             King
e|------- ------- ------- -------|------- ------- ------- -------|
B|8------------------------------|6------------------------------|
G|9------------------------------|5------------------------------|
D|8------------------------------|7------------------------------|
A|-------------------------------|-------------------------------|
E|-------------------------------|-------------------------------|

e|------- ------- ------- -------|------- ------- ------- -------|
B|-------------------------------|----------------10--8----------|
G|-------------------------------|------------------------9B10R9-|
D|-------------------------------|-------------------------------|
A|-------------------------------|-------------------------------|
E|-------------------------------|-------------------------------|

  F#m7                                                    B6
e|0------ --2---- 0------ --2----|0------ --2---- 0------ --4----|
B|------2-----2---------2-----2--|------2-----2---------2/4---4--|
G|----2---------------2----------|----2---------------2----------|
D|------------2---2--------------|----------2-2-2-2--------------|
A|-------------------------------|------------------------2------|
E|2------------------------------|2------------------------------|
  Quando      paramucho       mi amore        de felice       cara..


  E6
e|0------ ------- ------- -------|------- ------- ------- -------|
B|----------2-----0--------------|-------------------------------|
G|------1-----1---------------2--|-------------------------------|
D|----2-------2---2-----------2--|------------------------2------|
A|--------------------2--2/4-----|4\2-------------0---2-------2--|
E|0------------------------------|0-----------4------------------|
  thon


  F#m7                                                    B6
e|0------ --2---- 0------ --2----|0------ --2---- 0------ --4----|
B|------2-----2---------2-----2--|------2-----2---------2/4---4--|
G|----2---------------2----------|----2---------------2----------|
D|------------2---2--------------|------2-2-2-2-2-2--------------|
A|-------------------------------|------------------------2------|
E|2------------------------------|2------------------------------|
  Mundo       paparazzi       mi amore        cicce verdi     para..


  E6
e|-----0- ------- ------- -------|------- ------- ------- -------|
B|----2--------------------------|-------------------------------|
G|---1------------------------2--|-------------------------------|
D|--2---------2-2-2-----------2--|------------2------------------|
A|-2------------------2--2/4-----|4\2-----------------0---2------|
E|0------------------------------|0---------------4-----------0--|
  sol


  F#m7                                                 Gm7  B6
e|2----2- --2---- 2----2- --2----|2------ ------- 2----3- --4----|
B|2----2----2-----2----2----2----|2---------------2----3----4----|
G|2----2----2-----2----2----2----|2---------------2----3----4----|
D|------------2---2--------------|----2-------2---2----3----4----|
A|-------------------------------|------------------------2------|
E|2------------------------------|2-------2-------2--------------|
  Questo      abrigado      tantamucho        que canite   carou...                      
          (.  E6
e|-----0- ------- ------- -------|9------ ------- ------- -------|
B|----2--------------------------|9------------------------------|
G|---1------------------------2--|9------------------------------|
D|--2---------2-2-2-----------2--|9------------------------------|
A|-2------------------2--2/4-----|-------------------------------|
E|0------------------------------|0------------------------------|
  sel

-------------------------------------------------------------------
  THE BEATLES - MEAN MR. MUSTARD (Lennon/McCartney) From ABBEY ROAD
                album. Released 26th September 1969.
-------------------------------------------------------------------
  Tabbed by:PJVillanueva
                                               xxxX   X x     X X

e|------- ------- ------- -------|------- ------- ------- -------|
B|-------------------------------|-------------------------------|
G|-------------------------------|-------------------------------|
D|-------------------------------|-------------------------------|
A|-------------------------------|-------------------------------|
E|-------------------------------|-------------------------------|


  E
e|------- ------- ------- -------|------- ------- ------- -------|
B|--------0---------------0---0--|--------0---0-----------0---0--|
G|--------1---------------1---1--|--------1---1-----------1---1--|
D|2---2--------------------------|2---2--------------------------|
A|----------------2---2----------|----------------2---2----------|
E|-------------------------------|-------------------------------|
  Mean    Mr.     Mustard sleeps  in the  park    shaves  in the


e|------- ------- ------- -------|------- ------- ------- -------|
B|--------0---------------0---0--|--------0---0-----------0------|
G|--------1---------------1---1--|--------1---1-----------1------|
D|2---2--------------------------|2---2---------2-2---1-------4--|
A|----------------2---2----------|------------------------4/2----|
E|-------------------------------|-------------------------------|
  dark    trying  to      save paper


  B7
e|------- ------- ------- -------|------- ------- ------- -------|
B|-------------------------------|-------------------------------|
G|--------2---2-----------2---2--|--------2---2-----------2---2--|
D|--------4---4-----------4---4--|--------4---4-----------4---4--|
A|2---2--------------------------|2---2--------------------------|
E|----------------2---2----------|----------------2---2----------|
  Sleeps  in  a   hole in the road
e|------- ------- ------- -------|------- ------- ------- -------|
B|-------------------------------|-------------------------------|
G|--------8---------------8------|--------8-----8-8---9---10--11-|
D|--------7---------------7------|--------7-----7-7---8----9--10-|
A|--------9---------------9------|--------9-----9-9--10---11--12-|
E|--------7---------------7------|--------7-----7-7---8----9--10-|

  D7
e|------- ------- ------- -------|------- ------- ------- -------|
B|-------------------------------|-------------------------------|
G|--------5---5-----------5---5--|--------5---5-----------5---5--|
D|--------7---7-----------7---7--|--------7---7-----------7---7--|
A|5---5--------------------------|5---5--------------------------|
E|----------------5---5----------|---------------5----5----------|
  Saving  up  to  buy     some clothes
e|------- ------- ------- -------|------- ------- ------- -------|
B|-------------------------------|-------------------------------|
G|--------11--------------11-----|--------11---11-11--10--9---8--|
D|--------10--------------10-----|--------10---10-10---9--8---7--|
A|--------12--------------12-----|--------12---12-12--11-10---9--|
E|--------10--------------10-----|--------10---10-10---9--8---7--|

  B7
e|------- ------- ------- -------|------- ------- ------- -------|
B|-------------------------------|-------------------------------|
G|--------2---2-----------2---2--|--------2---2-----------2---2--|
D|--------4---4-----------4---4--|--------4---4-----------4---4--|
A|2---2--------------------------|2---2--------------------------|
E|----------------2---2----------|----------------2---2----------|
  Keeps a ten bob note up his nose                        Such a
e|------- ------- ------- -------|------- ------- ------- -------|
B|-------------------------------|-------------------------------|
G|--------8---------------8------|--------8---------------8------|
D|--------7---------------7------|--------7---------------7------|
A|--------9---------------9------|--------9---------------9------|
E|--------7---------------7------|--------7---------------7------|

  E               C7              B7
e|------- ------- ------- -------|------- ------- ------- -------|
B|--------0---0------------------|-------------------------------|
G|--------1---1-----------3---3--|--------2---2-----------2---2--|
D|2---2-------------------5---5--|--------4---4-----------4---4--|
A|----------------3---3----------|2---2--------------------------|
E|-------------------------------|----------------2---2----------|
  Mean old    man                                         Such a
e|------- ------- ------- -------|------- ------- ------- -------|
B|--------9----------------------|-------------------------------|
G|--------9---------------9------|--------8-------8-------8------|
D|--------9---------------8------|--------7-------7-------7------|
A|--------7--------------10------|--------9-------9-------9------|
E|------------------------8------|--------7-------7-------7------|

  E               C7              B7
e|------- ------- ------- -------|------- ------- ------- -------|
B|--------0---0------------------|-------------------------------|
G|--------1---1-----------3---3--|--------2---2-----------2---2--|
D|2---2-------------------5---5--|--------4---4-----------4---4--|
A|----------------3---3----------|2---2--------------------------|
E|-------------------------------|----------------2---2----------|
  Mean old    man
e|------- ------- ------- -------|------- ------- ------- -------|
B|--------9----------------------|-------------------------------|
G|--------9---------------9------|--------8-------8-------8------|
D|--------9---------------8------|--------7-------7-------7------|
A|--------7--------------10------|--------9-------9-------9------|
E|------------------------8------|--------7-------7-------7------|

  E
e|------- ------- ------- -------|------- ------- ------- -------|
B|--------0---------------0---0--|--------0---0-----------0---0--|
G|--------1---------------1---1--|--------1---1-----------1---1--|
D|2---2--------------------------|2---2--------------------------|
A|----------------2---2----------|----------------2---2----------|
E|-------------------------------|-------------------------------|
  His     sister  Pam     works   in  a   shop    She     never
e|------- ------- ------- -------|------- ------- ------- -------|
B|--------0---------------0------|--------0---------------0------|
G|--------1---------------1------|--------1---------------1------|
D|--------2---------------2------|--------2---------------2------|
A|--------2---------------2------|--------2---------------2------|
E|--------0---------------0------|--------0---------------0------|


e|------- ------- ------- -------|------- ------- ------- -------|
B|--------0---------------0---0--|--------0---0-----------0------|
G|--------1---------------1---1--|--------1---1-----------1------|
D|2---2--------------------------|2---2---------2-2---1-------4--|
A|----------------2---2----------|------------------------4/2----|
E|-------------------------------|-------------------------------|
  Stops   She's a go-     getter
e|------- ------- ------- -------|------- ------- ------- -------|
B|--------0---------------0------|--------0---------------0------|
G|--------1---------------1------|--------1---------------1------|
D|--------2---------------2------|--------2---------------2------|
A|--------2---------------2------|--------2---------------2------|
E|--------0---------------0------|--------0---------------0------|

  B7
e|------- ------- ------- -------|------- ------- ------- -------|
B|-------------------------------|-------------------------------|
G|--------2---2-----------2---2--|--------2---2-----------2---2--|
D|--------4---4-----------4---4--|--------4---4-----------4---4--|
A|2---2--------------------------|2---2--------------------------|
E|----------------2---2----------|----------------2---2----------|
  Takes him out to look at the queen
e|------- ------- ------- -------|------- ------- ------- -------|
B|-------------------------------|-------------------------------|
G|--------8---------------8------|--------8-----8-8---9---10--11-|
D|--------7---------------7------|--------7-----7-7---8----9--10-|
A|--------9---------------9------|--------9-----9-9--10---11--12-|
E|--------7---------------7------|--------7-----7-7---8----9--10-|

  D7
e|------- ------- ------- -------|------- ------- ------- -------|
B|-------------------------------|-------------------------------|
G|--------5---5-----------5---5--|--------5---5-----------5---5--|
D|--------7---7-----------7---7--|--------7---7-----------7---7--|
A|5---5--------------------------|5---5--------------------------|
E|----------------5---5----------|---------------5----5----------|
  Only   place that he's ever been
e|------- ------- ------- -------|------- ------- ------- -------|
B|-------------------------------|-------------------------------|
G|--------11--------------11-----|--------11---11-11--10--9---8--|
D|--------10--------------10-----|--------10---10-10---9--8---7--|
A|--------12--------------12-----|--------12---12-12--11-10---9--|
E|--------10--------------10-----|--------10---10-10---9--8---7--|

  B7
e|------- ------- ------- -------|------- ------- ------- -------|
B|-------------------------------|-------------------------------|
G|--------2---2-----------2---2--|--------2---2-----------2---2--|
D|--------4---4-----------4---4--|--------4---4-----------4---4--|
A|2---2--------------------------|2---2--------------------------|
E|----------------2---2----------|----------------2---2----------|
  Always shouts out something obscene                     Such a
e|------- ------- ------- -------|------- ------- ------- -------|
B|-------------------------------|-------------------------------|
G|--------8---------------8------|--------8---------------8------|
D|--------7---------------7------|--------7---------------7------|
A|--------9---------------9------|--------9---------------9------|
E|--------7---------------7------|--------7---------------7------|


3/4 Time

  E                    C7                   B7
e|------ 0----- 0-----|------ ------ ------|------ ------ ------|
B|-------0------0-----|-------5------5-----|-------4------4-----|
G|-------1------1-----|-------3------3-----|-------2------2-----|
D|2-------------------|-------5------5-----|-------4------4-----|
A|--------------------|3-------------------|2-------------------|
E|--------------------|--------------------|--------------------|
  Dirty         old    man


                       E                    C7
e|------ ------ ------|------ ------ ------|------ ------ ------|
B|--------------4-----|-------0------0-----|-------5------5-----|
G|-------2------2-----|-------1------1-----|-------3------3-----|
D|-------4------1-----|2-------------------|-------5------5-----|
A|2------4------------|--------------------|3-------------------|
E|--------------------|--------------------|--------------------|
                       Dirty         old    man


  B7                          C7     C#7
e|------ ------ ------|------ ------ ------|
B|-------4------4-----|4------5------6-----|
G|-------2------2-----|2------3------4-----|
D|-------4------4-----|4------5------6-----|
A|2-------------------|2------3------4-----|
E|--------------------|--------------------|
                      (This measure, with the following chords, is
                       the nexus to the following song in the album,
                       Polythene Pam.)

  D               A               E
e|2------ ------- 0------ -------|0------ ------- ------- -------|
B|3---------------2--------------|0------------------------------|
G|2---------------2--------------|1------------------------------|
D|0---------------2--------------|2------------------------------|
A|----------------0--------------|2------------------------------|
E|0---------------0--------------|0------------------------------|

e|5------ ------- 5------ -------|4------ ------- ------- -------|
B|7---------------5--------------|5------------------------------|
G|7---------------6--------------|4------------------------------|
D|7---------------7--------------|6------------------------------|
A|5---------------7--------------|7------------------------------|
E|----------------5--------------|-------------------------------|

---------------------------------------------------------------------

      THE BEATLES - POLYTHENE PAM (Lennon/McCartney) From ABBEY ROAD
                   album. Released on 26th September 1969.

---------------------------------------------------------------------

      Tabbed by:PJVillanueva
 D               A               E
e|2------ ------- 0------ -------|0------ ------- ------- -------|
B|3---------------2--------------|0------------------------------|
G|2---------------2--------------|1------------------------------|
D|0---------------2--------------|2------------------------------|
A|0---------------0--------------|2------------------------------|
E|-------------------------------|0------------------------------|

e|------- ------- ------- -------|--/-7-- 7---7-- 7-\---- -------|
B|-------------------------------|--/-9---9---9---9-\------------|
G|-------------------------------|--/-9---9---9---9-\------------|
D|-------------------------------|-------------------------------|
A|-------------------------------|-------------------------------|
E|-------------------------------|-------------------------------|

  D               A               E
e|2------ ------- 0------ -------|0------ ------- ------- -------|
B|3---------------2--------------|0------------------------------|
G|2---------------2--------------|1------------------------------|
D|0---------------2--------------|2------------------------------|
A|0---------------0--------------|2------------------------------|
E|-------------------------------|0------------------------------|
                                                     Well, you should
e|------- ------- ------- -------|--/-7-- 7---7-- 7-\---- -------|
B|-------------------------------|--/-9---9---9---9-\------------|
G|-------------------------------|--/-9---9---9---9-\------------|
D|-------------------------------|-------------------------------|
A|-------------------------------|-------------------------------|
E|-------------------------------|-------------------------------|

  D               A                   E
e|2------ ------- 0------ -------|----0-- 0------ 0------ -------|
B|3---------------2--------------|----0---0-------0--------------|
G|2---------------2--------------|----1---1-------1--------------|
D|0---------------2--------------|----2---2-------2--------------|
A|0---------------0--------------|----2---2-------2--------------|
E|-------------------------------|----0---0-------0--------------|
  see             Polythene       Pam,               She's so good
e|------- ------- ------- -------|----7\- /7----- ------- -------|
B|-------------------------------|----9\--/9---------------------|
G|-------------------------------|----9\--/9---------------------|
D|-------------------------------|-------------------------------|
A|-------------------------------|-------------------------------|
E|-------------------------------|-------------------------------|

  D               A           E
e|2---2-- 2---2-- 0---0-- 0---0--|0---0-- 0------ 0------ -------|
B|3---3---3---3---2---2---2---0--|0---0---0-------0--------------|
G|2---2---2---2---2---2---2---1--|1---1---1-------1--------------|
D|0---0---0---0---2---2---2---2--|2---2---2-------2--------------|
A|0---0---0---0---0---0---0---2--|2---2---2-------2--------------|
E|----------------------------0--|0---0---0-------0--------------|
  looking but she looks like a man.                  Well, you should
  (Aaaaaaaaaaaaaaaaaaaaaaaaaaaaaaahh)
e|------- ------- ------- -------|----7\- --/7--- ------- -------|
B|-------------------------------|----9\----/9-------------------|
G|-------------------------------|----9\----/9-------------------|
D|-------------------------------|-------------------------------|
A|-------------------------------|-------------------------------|
E|-------------------------------|-------------------------------|

  G                               B
e|3---3-- 3---3-- ----3-- ----3--|2---2-- 2---2-- ----2-- 2---2--|
B|3---3---3---3-------3-------3--|4---4---4---4-------4---4---4--|
G|0---0---0---0-------0-------0--|4---4---4---4-------4---4---4--|
D|0---0---0---0-------0-------0--|4---4---4---4-------4---4---4--|
A|2---2---2---2-------2-------2--|2---2---2---2-------2---2---2--|
E|3---3---3---3-------3-------3--|-------------------------------|
  see her in drag, dressed in her polythene   bag.    Yes you should
 (Aaaaaaaaaaaaaaaaaaaaaaaaaaaaaaaaaaaaaaaaaaaaaaaaaaaaaaaaaaaaaaa


  C               D           E
e|0------ 0------ 2---2-- 2---0--|----0-- 0------ 0------ -------|
B|1-------1-------3---3---3---0--|----0---0-------0--------------|
G|0-------0-------2---2---2---1--|----1---1-------1--------------|
D|2-------2-------0---0---0---2--|----2---2-------2--------------|
A|3-------3-------0---0---0---2--|----2---2-------2--------------|
E|3-------3-------------------0--|----0---0-------0--------------|
  see             Polythene       Pam.
  aaaaaaaaaaaaaaaaaaaaaaaaaaaaaaaaaaaahhh)
e|------- ------- ------- -------|----7-- 7------ 7-\---- -------|
B|-------------------------------|----9---9-------9-\------------|
G|-------------------------------|----9---9-------9-\------------|
D|-------------------------------|-------------------------------|
A|-------------------------------|-------------------------------|
E|-------------------------------|-------------------------------|

  C           D               E
e|0---0-- 0---2-- 2---2-- 2---0--|----0-- 0------ 0------ -------|
B|1---1---1---3---3---3---3---0--|----0---0-------0--------------|
G|0---0---0---2---2---2---2---1--|----1---1-------1--------------|
D|2---2---2---0---0---0---0---2--|----2---2-------2--------------|
A|3---3---3---0---0---0---0---2--|----2---2-------2--------------|
E|3---3---3-------------------0--|----0---0-------0--------------|
  Yeah,           yeah,       yeah.
 (Yeah,           yeah,       yeah.)
e|------- ------- ------- -------|---/7-- 7------ 7-\---- -------|
B|-------------------------------|---/9---9-------9-\------------|
G|-------------------------------|---/9---9-------9-\------------|
D|-------------------------------|-------------------------------|
A|-------------------------------|-------------------------------|
E|-------------------------------|-------------------------------|

  D               A               E
e|2------ ------- 0------ -------|0------ ------- ------- -------|
B|3---------------2--------------|0------------------------------|
G|2---------------2--------------|1------------------------------|
D|0---------------2--------------|2------------------------------|
A|0---------------0--------------|2------------------------------|
E|-------------------------------|0------------------------------|

e|------- ------- ------- -------|------- ------- ------- -------|
B|-------------------------------|----9---9---9---9-\------------|
G|-------------------------------|----9---9---9---9-\------------|
D|-------------------------------|----9---9---9---9-\----------/-|
A|-------------------------------|-------------------------------|
E|-------------------------------|-------------------------------|

  D               A               E
e|2------ ------- 0------ -------|0------ ------- ------- -------|
B|3---------------2--------------|0------------------------------|
G|2---------------2--------------|1------------------------------|
D|0---------------2--------------|2------------------------------|
A|0---------------0--------------|2------------------------------|
E|-------------------------------|0------------------------------|
                                                          Get a
e|------- ------- ------- -------|----7-- 7---7-- 7-\---- -------|
B|-------------------------------|----9---9---9---9-\------------|
G|-------------------------------|----9---9---9---9-\------------|
D|9------------------------------|----9---9---9---9-\------------|
A|-------------------------------|-------------------------------|
E|-------------------------------|-------------------------------|

  D               A           E
e|2------ 2---2-- 0---0-- 0---0--|----0-- 0------ 0------ -------|
B|3-------3---3---2---2---2---0--|----0---0-------0--------------|
G|2-------2---2---2---2---2---1--|----1---1-------1--------------|
D|0-------0---0---2---2---2---2--|----2---2-------2--------------|
A|0-------0---0---0---0---0---2--|----2---2-------2--------------|
E|----------------------------0--|----0---0-------0--------------|
  dose of her in jackboot and kilt,                  She's killer-
e|------- ------- ------- -------|---/7-- -------/7\----- -------|
B|-------------------------------|---/9----------/9\-------------|
G|-------------------------------|---/9----------/9\-------------|
D|-------------------------------|-------------------------------|
A|-------------------------------|-------------------------------|
E|-------------------------------|-------------------------------|

  D               A           E
e|2---2-- 2---2-- 0------ 0---0--|----0-- 0------ 0------ -------|
B|3---3---3---3---2-------2---0--|----0---0-------0--------------|
G|2---2---2---2---2-------2---1--|----1---1-------1--------------|
D|0---0---0---0---2-------2---2--|----2---2-------2--------------|
A|0---0---0---0---0-------0---2--|----2---2-------2--------------|
E|----------------------------0--|----0---0-------0--------------|
  diller when she's dressed                              She's the
                      to  the hilt.
 (Aaaaaaaaaaaaaaaaaaaaaaaaaaaaaaahh)
e|------- ------- ------- -------|---/7-- -------/7\----- -------|
B|-------------------------------|---/9----------/9\-------------|
G|-------------------------------|---/9----------/9\-------------|
D|-------------------------------|-------------------------------|
A|-------------------------------|-------------------------------|
E|-------------------------------|-------------------------------|

  G                               B
e|3------ 3---3-- ----3-- 3------|2---2-- 2---2-- ----2-- 2---2--|
B|3-------3---3-------3---3------|4---4---4---4-------4---4---4--|
G|0-------0---0-------0---0------|4---4---4---4-------4---4---4--|
D|0-------0---0-------0---0------|4---4---4---4-------4---4---4--|
A|2-------2---2-------2---2------|2---2---2---2-------2---2---2--|
E|3-------3---3-------3---3------|-------------------------------|
  kind of a   girl  that makes the News Of The World, Yes, you could
 (Aaaaaaaaaaaaaaaaaaaaaaaaaaaaaaaaaaaaaaaaaaaaaaaaaaaaaaaaaaaaaaa


  C               D           E
e|0------ 0---0-- 2---2-- 2---0--|0---0-- 0------ 0------ -------|
B|1-------1---1---3---3---3---0--|0---0---0-------0--------------|
G|0-------0---0---2---2---2---1--|1---1---1-------1--------------|
D|2-------2---2---0---0---0---2--|2---2---2-------2--------------|
A|3-------3---3---0---0---0---2--|2---2---2-------2--------------|
E|3-------3---3---------------0--|0---0---0-------0--------------|
  say she was attractively    built.
  aaaaaaaaaaaaaaaaaaaaaaaaaaaaaaaaaaaahhh)
e|------- ------- ------- -------|---/7-- 7---7-- 7\----- -------|
B|-------------------------------|---/9---9---9---9\-------------|
G|-------------------------------|---/9---9---9---9\-------------|
D|-------------------------------|-------------------------------|
A|-------------------------------|-------------------------------|
E|-------------------------------|-------------------------------|

  C               D           E
e|0---0-- 0------ 2---2-- 2---0--|----0-- 0------ 0------ -------|
B|1---1---1-------3---3---3---0--|----0---0-------0--------------|
G|0---0---0-------2---2---2---1--|----1---1-------1--------------|
D|2---2---2-------0---0---0---2--|----2---2-------2--------------|
A|3---3---3-------0---0---0---2--|----2---2-------2--------------|
E|3---3---3-------------------0--|----0---0-------0--------------|
  Yeah,           yeah,       yeah.
 (Yeah,           yeah,       yeah.)
e|------- ------- ------- -------|---/7-- 7---7-- 7\----- -------|
B|-------------------------------|---/9---9---9---9\-------------|
G|-------------------------------|---/9---9---9---9\-------------|
D|-------------------------------|-------------------------------|
A|-------------------------------|-------------------------------|
E|-------------------------------|-------------------------------|

  D               A               E
e|2------ ------- 0------ -------|0------ ------- ------- -------|
B|3---------------2--------------|0------------------------------|
G|2---------------2--------------|1------------------------------|
D|0---------------2--------------|2------------------------------|
A|0---------------0--------------|2------------------------------|
E|-------------------------------|0------------------------------|

e|------- ------- ------- -------|---/7-- 7---7-- 7\----- -------|
B|-------------------------------|---/9---9---9---9\-------------|
G|-------------------------------|---/9---9---9---9\-------------|
D|-------------------------------|-------------------------------|
A|-------------------------------|-------------------------------|
E|-------------------------------|-------------------------------|

  D               A               E
e|2------ ------- 0------ -------|0------ ------- ------- -------|
B|3---------------2--------------|0------------------------------|
G|2---------------2--------------|1------------------------------|
D|0---------------2--------------|2------------------------------|
A|0---------------0--------------|2------------------------------|
E|-------------------------------|0------------------------------|

e|------- ------- ------- -------|---/7-- 7---7-- 7\----- -------|
B|-------------------------------|---/9---9---9---9\-------------|
G|-------------------------------|---/9---9---9---9\-------------|
D|-------------------------------|-------------------------------|
A|-------------------------------|-------------------------------|
E|-------------------------------|-------------------------------|

  x           x   x           x       x       x   x ....
  D           A               E
e|2------ 2---0-- 0---0-- 0---0--|----0-- 0------ 0------ -------|
B|3-------3---2---2---2---2---0--|----0---0-------0--------------|
G|2-------2---2---2---2---2---1--|----1---1-------1--------------|
D|0-------0---2---2---2---2---2--|----2---2-------2--------------|
A|0-------0---0---0---0---0---2--|----2---2-------2--------------|
E|----------------------------0--|----0---0-------0--------------|

e|------- ------- ------- -------|------- ------- ------- -------|
B|-------------------------------|--------------------5-H-8------|
G|-------------------------------|------------4-H-7--------------|
D|-------------------------------|-------------------------------|
A|-------------------------------|-------------------------------|
E|-------------------------------|-------------------------------|


  D               A           E
e|2------ 2------ 0------ 0---0--|----0-- 0---0-- 0------ -------|
B|3-------3-------2-------2---0--|----0---0---0---0--------------|
G|2-------2-------2-------2---1--|----1---1---1---1--------------|
D|0-------0-------2-------2---2--|----2---2---2---2--------------|
A|0-------0-------0-------0---2--|----2---2---2---2--------------|
E|----------------------------0--|----0---0---0---0--------------|

e|------- ------- ------- -------|------- ------- ------- -------|
B|8B10R8B10-~-------------5H8P5--|--------------------5-------8--|
G|-------------------------------|7------------------------------|
D|-------------------------------|-------------------------------|
A|-------------------------------|-------------------------------|
E|-------------------------------|-------------------------------|


  D               A           E
e|2------ 2------ 0---0-- 0---0--|----0-- 0---0-- 0------ -------|
B|3-------3-------2---2---2---0--|----0---0---0---0--------------|
G|2-------2-------2---2---2---1--|----1---1---1---1--------------|
D|0-------0-------2---2---2---2--|----2---2---2---2--------------|
A|0-------0-------0---0---0---2--|----2---2---2---2--------------|
E|----------------------------0--|----0---0---0---0--------------|

e|------- ------- ------- -------|------- ------- ------- -------|
B|8-B-10----------8B10R8--5------|5-----------------------5---8--|
G|-------------------------------|--------------------7----------|
D|-------------------------------|-------------------------------|
A|-------------------------------|-------------------------------|
E|-------------------------------|-------------------------------|


  D               A           E
e|2---2-- 2------ 0---0-- 0---0--|----0-- 0---0-- 0------ -------|
B|3---3---3-------2---2---2---0--|----0---0---0---0--------------|
G|2---2---2-------2---2---2---1--|----1---1---1---1--------------|
D|0---0---0-------2---2---2---2--|----2---2---2---2--------------|
A|0---0---0-------0---0---0---2--|----2---2---2---2--------------|
E|----------------------------0--|----0---0---0---0--------------|

e|------- ------- ------- -------|------- ------- ------- -------|
B|8-B-10----------10-R-8--5------|5-------------------8-------10-|
G|-------------------------------|--------7H9P7---9--------------|
D|-------------------------------|-------------------------------|
A|-------------------------------|-------------------------------|
E|-------------------------------|-------------------------------|


  D               A           E
e|2------ 2---2-- 0---0-- 0---0--|----0-- 0---0-- 0---0-- -------|
B|3-------3---3---2---2---2---0--|----0---0---0---0---0----------|
G|2-------2---2---2---2---2---1--|----1---1---1---1---1----------|
D|0-------0---0---2---2---2---2--|----2---2---2---2---2----------|
A|0-------0---0---0---0---0---2--|----2---2---2---2---2----------|
E|----------------------------0--|----0---0---0---0---0----------|

e|------- ------- ------- ----12-|------- ------- ------- -------|
B|12B14---12--12--12--10--8H10---|------------------------8---10-|
G|-------------------------------|-------------------------------|
D|-------------------------------|-------------------------------|
A|-------------------------------|-------------------------------|
E|-------------------------------|-------------------------------|


  D               A           E
e|2------ 2---2-- 0---0-- 0---0--|----0-- 0---0-- 0------ -------|
B|3-------3---3---2---2---2---0--|----0---0---0---0--------------|
G|2-------2---2---2---2---2---1--|----1---1---1---1--------------|
D|0-------0---0---2---2---2---2--|----2---2---2---2--------------|
A|0-------0---0---0---0---0---2--|----2---2---2---2--------------|
E|----------------------------0--|----0---0---0---0--------------|

e|------- ------- ------- -------|------- ------- ------- -------|
B|10B12-----------10-B-12-----R--|10--8-------------------8---10-|
G|-------------------------------|--------------------9----------|
D|-------------------------------|-------------------------------|
A|-------------------------------|-------------------------------|
E|-------------------------------|-------------------------------|


  D               A           E
e|2---2-- 2---2-- 0---0-- 0---0--|----0-- 0---0-- 0------ -------|
B|3---3---3---3---2---2---2---0--|----0---0---0---0--------------|
G|2---2---2---2---2---2---2---1--|----1---1---1---1--------------|
D|0---0---0---0---2---2---2---2--|----2---2---2---2--------------|
A|0---0---0---0---0---0---0---2--|----2---2---2---2--------------|
E|----------------------------0--|----0---0---0---0--------------|

e|------- ------- ------- -------|------- ------- ------- -------|
B|10B12-------10B12---10--8------|8-----------------------8---10-|
G|-------------------------------|--------------------9----------|
D|-------------------------------|-------------------------------|
A|-------------------------------|-------------------------------|
E|-------------------------------|-------------------------------|


  D               A           E
e|2---2-- 2---2-- 0---0-- 0---0--|----0-- 0---0-- 0------ -------|
B|3---3---3---3---2---2---2---0--|----0---0---0---0--------------|
G|2---2---2---2---2---2---2---1--|----1---1---1---1--------------|
D|0---0---0---0---2---2---2---2--|----2---2---2---2--------------|
A|0---0---0---0---0---0---0---2--|----2---2---2---2--------------|
E|----------------------------0--|----0---0---0---0--------------|

e|------- ------- ------- -------|------- ------- ------- -------|
B|10B12-~------R--10--8-------8--|----8B10----8---------------8--|
G|------------------------9------|-------------------------------|
D|-------------------------------|-------------------------------|
A|-------------------------------|-------------------------------|
E|-------------------------------|-------------------------------|


  E
e|0---0-- 0---0-- 0---0-- 0---0--|0---0-- 0---0-- 0---0-- 0---0--|
B|0---0---0---0---0---0---0---0--|0---0---0---0---0---0---0---0--|
G|1---1---1---1---1---1---1---1--|1---1---1---1---1---1---1---1--|
D|2---2---2---2---2---2---2---2--|2---2---2---2---2---2---2---2--|
A|2---2---2---2---2---2---2---2--|2---2---2---2---2---2---2---2--|
E|0---0---0---0---0---0---0---0--|0---0---0---0---0---0---0---0--|

e|------- ------- ------- -------|------- ------- ------- -------|
B|10B12---10B12--10B12R10-8------|-------------------------------|
G|---------------------------9---|--------7---4------------------|
D|-------------------------------|----------------7--P5H7-5------|
A|-------------------------------|-------------------------------|
E|-------------------------------|-------------------------------|

  E
e|0---0-- 0---0-- 0---0-- 0---0--|0---0-- 0---0-- 0---0-- 0---0--|
B|0---0---0---0---0---0---0---0--|0---0---0---0---0---0---0---0--|
G|1---1---1---1---1---1---1---1--|1---1---1---1---1---1---1---1--|
D|2---2---2---2---2---2---2---2--|2---2---2---2---2---2---2---2--|
A|2---2---2---2---2---2---2---2--|2---2---2---2---2---2---2---2--|
E|0---0---0---0---0---0---0---0--|0---0---0---0---0---0---0---0--|

e|------- ------- ------- -------|------- ------- ------- -------|
B|-------------------------------|-------------------------------|
G|-------------------------------|-------------------------------|
D|-------------------------------|-------------------------------|
A|7------------------------------|5------------------------------|
E|-------------------------------|-------------------------------|

e|0---0-- 0---0-- 0---0-- 0---0--|0---0-- 0---0-- 0---0-- 0---0--|
B|0---0---0---0---0---0---0---0--|0---0---0---0---0---0---0---0--|
G|1---1---1---1---1---1---1---1--|1---1---1---1---1---1---1---1--|
D|2---2---2---2---2---2---2---2--|2---2---2---2---2---2---2---2--|
A|2---2---2---2---2---2---2---2--|2---2---2---2---2---2---2---2--|
E|0---0---0---0---0---0---0---0--|0---0---0---0---0---0---0---0--|
                           Oh, look out!
e|------- ------- ------- -------|------- ------- ------- -------|
B|-------------------------------|-------------------------------|
G|-------------------------------|-------------------------------|
D|-------------------------------|-------------------------------|
A|4------------------------------|-------------------------------|
E|-------------------------------|7------------------------------|

-------------------------------------------------------------

      THE BEATLES - SHE CAME IN THROUGH THE BATHROOM WINDOW
                   (Lennon/McCartney) From ABBEY ROAD album.
                    Released on 26th September 1969.

-------------------------------------------------------------

      Tabbed by:PJVillanueva
 1               2               3               4

                                          x   x       x   X   X
  A
e|0------ ------- ------- -------|------- ------- ------- -------|
B|2------------------------------|-------------------------------|
G|2------------------------------|-------------------------------|
D|2------------------------------|-------------------------------|
A|0------------------------------|-------------------------------|
E|-------------------------------|-------------------------------|
              She came in     through     the bathroom        window
                                  Aaaaaaaaaaaaaaaaaaaaaaaaaaaaaaa
e|------- ------- ------- -------|------- ------- ------- -------|
B|-------------------------------|-------------------------------|
G|-------------------------------|-------------------------------|
D|-------------------------------|-------------------------------|
A|0------------------------------|-------------------------------|
E|-------------------------------|-------------------------------|

  X
                                  D
e|------- ------- ------- -------|2---2-- 2---2-- ----2-- 2---2--|
B|-------------------------------|3---3---3---3-------3---3---3--|
G|-------------------------------|2---2---2---2-------2---2---2--|
D|-------------------------------|0---0---0---0-------0---0---0--|
A|-------------------------------|-------------------------------|
E|-------------------------------|-------------------------------|
  oooooooooooooooooooooooooooooooooooooooooooooooooooohhh
e|------- ------- ----10- -------10------ ------- -------10------|
B|-------------------------------|7-----------7-------8---7------|
G|------------------------7-H-9--|7---7-------7-------7---7------|
D|-------------------------------|-------------------------------|
A|-------------------------------|-------------------------------|
E|-------------------------------|-------------------------------|


  A
e|0------ 0------ 0------ ----0--|----0-- ----0-- 0------ 0---0--|
B|2-------2-------2-----------2--|----2-------2---2-------2---2--|
G|2-------2-------2-----------2--|----2-------2---2-------2---2--|
D|2-------2-------2-----------2--|----2-------2---2-------2---2--|
A|0-------0-------0-----------0--|----0-------0---0-------0---0--|
E|-------------------------------|-------------------------------|
              Protected           by  a       silver spoon
  Aaaaaaaaaaaaaaaaaaaaaaaaaaaaaaaaaaaaaaaaaaaaaaaaaaaaaaaaaaaaaaa
e|9------ ------- ------- -------|------- ------- ------- -------|
B10------------------------------|-------------------------------|
G|9------------------------------|-------------------------------|
D|-------------------------------|-------------------------------|
A|-------------------------------|-------------------------------|
E|-------------------------------|-------------------------------|

                                  x   x       x   X   X   X   X
  D
e|2------ 2------ 2------ 2---2--|----2-- ----2-- ----2-- 2---2--|
B|3-------3-------3-------3---3--|----3-------3-------3---3---3--|
G|2-------2-------2-------2---2--|----2-------2-------2---2---2--|
D|0-------0-------0-------0---0--|----0-------0-------0---0---0--|
A|-------------------------------|-------------------------------|
E|-------------------------------|-------------------------------|
  oooooooooooooooooooooooooooooooooooooooooooooooohhh
e|------- ------- ----10- -------10------ ---10-- -------10------|
B|-------------------------------|7---7-H-8-P-7-----------7------|
G|------------------------7------|----7-------7-----------7------|
D|------------------------7-H-9--|----7-H-9-P-7---7-/-9----------|
A|-------------------------------|-------------------------------|
E|-------------------------------|-------------------------------|


  A
e|0------ 0------ 0------ -------|0------ 0------ 0------ 0---0--|
B|2-------2-------2--------------|2-------2-------2-------2---2--|
G|2-------2-------2--------------|2-------2-------2-------2---2--|
D|2-------2-------2--------------|2-------2-------2-------2---2--|
A|0-------0-------0--------------|0-------0-------0-------0---0--|
E|-------------------------------|-------------------------------|
              But now     she sucks   her     thumb       and wanders
  Aaaaaaaaaaaaaaaaaaaaaaaaaaaaaaaaaaaaaaaaaaaaaaaaaaaaaaaaaaaaaaa
e|9------ ------- ------- -------|------- ------- ------- -------|
B10------------------------------|-------------------------------|
G|9------------------------------|-------------------------------|
D|-------------------------------|-------------------------------|
A|-------------------------------|-------------------------------|
E|-------------------------------|-------------------------------|

                                  x   x       x   X   X   X   X
  D
e|2---2-- 2------ 2------ 2---2--|----2-- ----2-- 2---2-- 2---2--|
B|3---3---3-------3-------3---3--|----3-------3---3---3---3---3--|
G|2---2---2-------2-------2---2--|----2-------2---2---2---2---2--|
D|0---0---0-------0-------0---0--|----0-------0---0---0---0---0--|
A|-------------------------------|-------------------------------|
E|-------------------------------|-------------------------------|
                                                   By     the banks
  oooooooooooooooooooooooooooooooooooooooooooooooohhh
e|------- ------- ----10- -------10------ ---10-- -------10------|
B|------------------------7-H-8--|7---7-H-8-P-7-----------7------|
G|------------------------7------|----7-------------------7------|
D|-------------------------------|----7-H-9-P-7------------------|
A|-------------------------------|-------------------------------|
E|-------------------------------|-------------------------------|

e|2------ 2------ 2------ ----2--|----2-- ----2-- 2------ 2---2--|
B|3-------3-------3-----------3--|----3-------3---3-------3---3--|
G|2-------2-------2-----------2--|----2-------2---2-------2---2--|
D|0-------0-------0-----------0--|----0-------0---0-------0---0--|
A|-------------------------------|-------------------------------|
E|-------------------------------|-------------------------------|
                  of      her own         lagoon
  Ooooooooooooooooooooooooooooooooooooooooooooooooooooooooooooooo
e/14----- ------- ------- 12-----|10----- ----\-- 5------ -------|
B|-------------------------------|-------------------------------|
G/14----------------------12-----|11----------\---7--------------|
D|-------------------------------|-------------------------------|
A|-------------------------------|-------------------------------|
E|-------------------------------|-------------------------------|

                                  x   x       x   X   X   X   X
  A
e|0------ ------- ------- -------|------- ------- ------- -------|
B|2------------------------------|-------------------------------|
G|2------------------------------|-------------------------------|
D|2------------------------------|-------------------------------|
A|0------------------------------|-------------------------------|
E|-------------------------------|-------------------------------|
          Didn't  anybody                                    tell
  ooooooooohhh
e|9------ ------- ------- -------|------- ------- ------- -------|
B|-------------------------------|-------------------------------|
G|9------------------------------|-------------------------------|
D|-------------------------------|-------------------------------|
A|-------------------------------|-------------------------------|
E|-------------------------------|-------------------------------|


  Dm                                                          A
e|1------ 1------ 1------ ----1--|----1-- 1------ 1------ ----0--|
B|3-------3-------3-----------3--|----3---3-------3-----------2--|
G|2-------2-------2-----------2--|----2---2-------2-----------2--|
D|0-------0-------0-----------0--|----0---0-------0-----------2--|
A|-------------------------------|----------------------------0--|
E|-------------------------------|-------------------------------|
          her?
e|------- ------- ------- -------|------- ------- ------- -------|
B|-------------------------------|-------------------------------|
G|------------------------7---9--|9B10R9--7-------7-------9------|
D|--------------------7----------|-------------------------------|
A|-------------------------------|-------------------------------|
E|-------------------------------|-------------------------------|

e|0------ 0------ 0------ 0---0--|----0-- ----0-- 0------ 0---0--|
B|2-------2-------2-------2---2--|----2-------2---2-------2---2--|
G|2-------2-------2-------2---2--|----2-------2---2-------2---2--|
D|2-------2-------2-------2---2--|----2-------2---2-------2---2--|
A|0-------0-------0-------0---0--|----0-------0---0-------0---0--|
E|-------------------------------|-------------------------------|
          Didn't  anybody                                    see?
e|------- ------- ------- -------|------- ------- ------- -------|
B|-------------------------------|-------------------------------|
G|6--~---------------------------|-------------------------------|
D|-------------------------------|-------------------------------|
A|-------------------------------|-------------------------------|
E|-------------------------------|-------------------------------|

                                  x   x       x   X   X   X   X
  Dm                                                          G
e|1------ 1------ 1------ ----1--|----1-- ----1-- 1---1-- 1---3--|
B|3-------3-------3-----------3--|----3-------3---3---3---3---3--|
G|2-------2-------2-----------2--|----2-------2---2---2---2---0--|
D|0-------0-------0-----------0--|----0-------0---0---0---0---0--|
A|-------------------------------|----------------------------2--|
E|-------------------------------|----------------------------3--|

e|------- ------- ------- -------|------- ------- ------- -------|
B|-------------------------------|-------------------------------|
G|------------------------7------|9B10----9-------7H9P7----------|
D|--------------------7----------|-------------------------------|
A|-------------------------------|-------------------------------|
E|-------------------------------|-------------------------------|

e|3------ 3------ 3------ 3---3--|----3-- ------- 3------ 3------|
B|3-------3-------3-------3---3--|----3-----------3-------3------|
G|0-------0-------0-------0---0--|----0-----------0-------0------|
D|0-------0-------0-------0---0--|----0-----------0-------0------|
A|2-------2-------2-------2---2--|----2-----------2-------2------|
E|3-------3-------3-------3---3--|----3-----------3-------3------|
  Sundays         on      the     phone           to      Monday,


                                        xxx   x   X   X
  C                       G
e|0------ 0------ 0------ 3------|------- 3------ 3------ 3------|
B|1-------1-------1-------3------|--------3-------3-------3------|
G|0-------0-------0-------0------|--------0-------0-------0------|
D|2-------2-------2-------0------|--------0-------0-------0------|
A|3-------3-------3-------2------|--------2-------2-------2------|
E|3-------3-------3-------3------|--------3-------3-------3------|

e|------- 8------ 10-B-12 10-P-8-|------- ------- ------- -------|
B/10-----------------------------|---10-P-8----------------------|
G|-------------------------------|------------9-P-7---5-H-7------|
D|-------------------------------|-------------------------------|
A|-------------------------------|-------------------------------|
E|-------------------------------|-------------------------------|

e|3------ 3------ 3------ 3---3--|----3-- 3------ 3------ 3------|
B|3-------3-------3-------3---3--|----3---3-------3-------3------|
G|0-------0-------0-------0---0--|----0---0-------0-------0------|
D|0-------0-------0-------0---0--|----0---0-------0-------0------|
A|2-------2-------2-------2---2--|----2---2-------2-------2------|
E|3-------3-------3-------3---3--|----3---3-------3-------3------|
  Tuesdays        on      the     phone           to      me
e|------- ------- ------- -------|------- ------- ------- -------|
B|-------------------------------|-------------------------------|
G|-------------------------------|-------------------------------|
D|5------------------------------|-------------------------------|
A|-------------------------------|-------------------------------|
E|-------------------------------|-------------------------------|

                          (.
  C
e|0------ 0---0-- 0---0-- 0------|
B|1-------1---1---1---1---1------|
G|0-------0---0---0---0---0------|
D|2-------2---2---2---2---2------|
A|3-------3---3---3---3---3------|
E|3-------3---3---3---3---3------|

e|------- ------- ------- 9------|
B|----------------8-------8------|
G|-------/-9--------------9------|
D|-------------------------------|
A|-------------------------------|
E|-------------------------------|

                                        xxX   X       X   x   x
  A
e|0------ ------- ------- -------|------- ------- ------- -------|
B|2------------------------------|-------------------------------|
G|2------------------------------|-------------------------------|
D|2------------------------------|-------------------------------|
A|0------------------------------|-------------------------------|
E|-------------------------------|-------------------------------|
              She said    she'd always            been    a   dancer


                                                          x
                  D
e|------- ------- 2------ 2---2--|2---2-- 2---2-- 2---2-- 2---2--|
B|----------------3-------3---3--|3---3---3---3---3---3---3---3--|
G|----------------2-------2---2--|2---2---2---2---2---2---2---2--|
D|----------------0-------0---0--|0---0---0---0---0---0---0---0--|
A|-------------------------------|-------------------------------|
E|-------------------------------|-------------------------------|

e|------- ------- ----10- -------|------- ------- -------10------|
B|------------------------7-H-8--|7-----------7-----------7------|
G|------------------------7------|7---------------7-------7------|
D|-------------------------------|----7-H-9-----------9----------|
A|-------------------------------|-------------------------------|
E|-------------------------------|-------------------------------|

                                                          x
  A
e|0------ ------- ------- -------|------- ------- ------- -------|
B|2------------------------------|-------------------------------|
G|2------------------------------|-------------------------------|
D|2------------------------------|-------------------------------|
A|0------------------------------|-------------------------------|
E|-------------------------------|-------------------------------|
              She worked  at fifteen              clubs   a   day
e|9------ ------- ------- -------|------- ------- ------- -------|
B10------------------------------|-------------------------------|
G|9------------------------------|-------------------------------|
D|-------------------------------|-------------------------------|
A|-------------------------------|-------------------------------|
E|-------------------------------|-------------------------------|

                                                          x
  D
e|2---2-- 2------ 2------ 2---2--|2---2-- 2---2-- 2---2-- 2---2--|
B|3---3---3-------3-------3---3--|3---3---3---3---3---3---3---3--|
G|2---2---2-------2-------2---2--|2---2---2---2---2---2---2---2--|
D|0---0---0-------0-------0---0--|0---0---0---0---0---0---0---0--|
A|-------------------------------|-------------------------------|
E|-------------------------------|-------------------------------|

e|------- ------- ----10- -------|10----- ----10- -------10------|
B|------------------------7-H-8--|----7-H-8-------7-------7------|
G|------------------------7------|----7-----------7---7----------|
D|-------------------------------|-------------------------------|
A|-------------------------------|-------------------------------|
E|-------------------------------|-------------------------------|


  A
e|0------ 0------ ------- 0---0--|----0-- ----0-- 0------ 0---0--|
B|2-------2---------------2---2--|----2-------2---2-------2---2--|
G|2-------2---------------2---2--|----2-------2---2-------2---2--|
D|2-------2---------------2---2--|----2-------2---2-------2---2--|
A|0-------0---------------0---0--|----0-------0---0-------0---0--|
E|-------------------------------|-------------------------------|
              And though  she thought I       knew        the answer
e|9------ ------- ------- -------|------- ------- ------- -------|
B10------------------------------|-------------------------------|
G|9------------------------------|-------------------------------|
D|-------------------------------|-------------------------------|
A|-------------------------------|-------------------------------|
E|-------------------------------|-------------------------------|

          x
  D
e|2------ 2------ 2------ 2---2--|2---2-- 2---2-- 2---2-- 2---2--|
B|3-------3-------3-------3---3--|3---3---3---3---3---3---3---3--|
G|2-------2-------2-------2---2--|2---2---2---2---2---2---2---2--|
D|0-------0-------0-------0---0--|0---0---0---0---0---0---0---0--|
A|-------------------------------|-------------------------------|
E|-------------------------------|-------------------------------|
                                                  Well I      knew
e|------- ------- ---10-- -------10------ ------- ------- -------|
B|-------------------------------|7-------8-------7--------------|
G|------------------------7-H-9--|----7-----------7-------7------|
D|-------------------------------|-------------------------------|
A|-------------------------------|-------------------------------|
E|-------------------------------|-------------------------------|


          x                                               x

e|2------ 2------ 2------ 2---2--|----2-- ----2-- ----2-- ----2--|
B|3-------3-------3-------3---3--|----3-------3-------3-------3--|
G|2-------2-------2-------2---2--|----2-------2-------2-------2--|
D|0-------0-------0-------0---0--|----0-------0-------0-------0--|
A|-------------------------------|-------------------------------|
E|-------------------------------|-------------------------------|
                  what I      could   not     say.
e/14----- ------- ------- 12-----|10----- ----\-- 5------ -------|
B|-------------------------------|-------------------------------|
G/14----------------------12-----|11----------\---7--------------|
D|-------------------------------|-------------------------------|
A|-------------------------------|-------------------------------|
E|-------------------------------|-------------------------------|

                                  X   X       x   X   X   X
  A
e|0------ ------- ------- -------|------- ------- ------- -------|
B|2------------------------------|-------------------------------|
G|2------------------------------|-------------------------------|
D|2------------------------------|-------------------------------|
A|0------------------------------|-------------------------------|
E|-------------------------------|-------------------------------|
              And so  I       quit        the police      department
                                  Aaaaaaaaaaaaaaaaaaaaaaaaaaaaaaa
e/9------ ------- ------- -------|------- ------- ------- -------|
B|-------------------------------|-------------------------------|
G/9------------------------------|-------------------------------|
D|-------------------------------|-------------------------------|
A|-------------------------------|-------------------------------|
E|-------------------------------|-------------------------------|


  D                           Dsus4                       D
e|2------ 2------ 2------ 2---3--|----3-- 3---3-- 3---3-- 2---2--|
B|3-------3-------3-------3---3--|----3---3---3---3---3---3---3--|
G|2-------2-------2-------2---2--|----2---2---2---2---2---2---2--|
D|0-------0-------0-------0---0--|----0---0---0---0---0---0---0--|
A|-------------------------------|-------------------------------|
E|-------------------------------|-------------------------------|
  ooooooooooooooooooooooooooooooooooooooooooooooooooooooooooooooo
e|------- ------- ------- -------|------- ------- ------- -------|
B|-------------------------------|-------------------------------|
G|-------------------------------|--------5---7--B8-R-7---5------|
D|-------------------------------|----7--------------------------|
A|-------------------------------|-------------------------------|
E|-------------------------------|-------------------------------|


  A
e|0------ 0------ 0------ 0---0--|0---0-- ------- 0------ 0---0--|
B|2-------2-------2-------2---2--|2---2-----------2-------2---2--|
G|2-------2-------2-------2---2--|2---2-----------2-------2---2--|
D|2-------2-------2-------2---2--|2---2-----------2-------2---2--|
A|0-------0-------0-------0---0--|0---0-----------0-------0---0--|
E|-------------------------------|-------------------------------|
              And got     myself          a       steady      job
  Aaaaaaaaaaaaaaaaaaaaaaaaaaaaaaaaaaaaaaaaaaaaaaaaaaaaaaaaaaaaaaa
e|------- ------- ------- -------|------- ------- ------- -------|
B|-------------------------------|-------------------------------|
G|6--~---------------------------|-------------------------------|
D|-------------------------------|-------------------------------|
A|-------------------------------|-------------------------------|
E|-------------------------------|-------------------------------|

                                  X   X       x       x   X   X
  D
e|2---2-- 2------ 2------ 2---2--|----2-- 2---2-- 2---2-- 2---2--|
B|3---3---3-------3-------3---3--|----3---3---3---3---3---3---3--|
G|2---2---2-------2-------2---2--|----2---2---2---2---2---2---2--|
D|0---0---0-------0-------0---0--|----0---0---0---0---0---0---0--|
A|-------------------------------|-------------------------------|
E|-------------------------------|-------------------------------|
  ooooooooooooooooooooooooooooooooooooooooooooooooooooooooooooooo
e|------- ------- ------- -------|------- ------- ------- -------|
B|-------------------------------|------------------------8-B-10---|R
G|----------------------------7--9B11R9-P-7-------7----------------|
D|--------------------7-H-9------|---------------------------------|
A|-------------------------------|---------------------------------|
E|-------------------------------|---------------------------------|


  A
e|0------ 0------ 0------ ----0--|----0-- 0------ 0------ 0---0--|
B|2-------2-------2-----------2--|----2---2-------2-------2---2--|
G|2-------2-------2-----------2--|----2---2-------2-------2---2--|
D|2-------2-------2-----------2--|----2---2-------2-------2---2--|
A|0-------0-------0-----------0--|----0---0-------0-------0---0--|
E|-------------------------------|-------------------------------|
              And though  she tried   her     best        to  help
  Aaaaaaaaaaaaaaaaaaaaaaaaaaaaaaaaaaaaaaaaaaaaaaaaaaaaaaaaaaaaaaa
e|------- ------- ------- -------|------- ------- ------- -------|
B|8--~---------------------------|-------------------------------|
G|-------------------------------|-------------------------------|
D|-------------------------------|-------------------------------|
A|-------------------------------|-------------------------------|
E|-------------------------------|-------------------------------|

                                  X   X       X       x   X   X
  D         Dsus4 D         Dsus4 D  Dsus4                D
e|2------ 2---3-- 2---2-- 2---3--|2---3-- 3---3-- 3---3-- 2---2--|
B|3-------3---3---3---3---3---3--|3---3---3---3---3---3---3---3--|
G|2-------2---2---2---2---2---2--|2---2---2---2---2---2---2---2--|
D|0-------0---0---0---0---0---0--|0---0---0---0---0---0---0---0--|
A|-------------------------------|-------------------------------|
E|-------------------------------|-------------------------------|
      me                                          She could   steal
  oooooooooooooooooooooooooooooooooooooooooooohhh
e|------- ------- ----10- -------|10----- ---10-- ------- 10-----|
B|------------------------7-H-8--|----7-H-8---7-------7----7-----|
G|------------------------7------|----7-------7------------7-----|
D|-------------------------------|-------------------------------|
A|-------------------------------|-------------------------------|
E|-------------------------------|-------------------------------|

e|2------ 2------ 2------ 2---2--|----2-- 2---2-- 2---2-- 2------|
B|3-------3-------3-------3---3--|----3---3---3---3---3---3------|
G|2-------2-------2-------2---2--|----2---2---2---2---2---2------|
D|0-------0-------0-------0---0--|----0---0---0---0---0---0------|
A|-------------------------------|-------------------------------|
E|-------------------------------|-------------------------------|
                  but     she could   not     rob
  Ooooooooooooooooooooooooooooooooooooooooooooooooooooooooooooooo
e/14----- ------- ------- 12-----|10----- ----\-- 5------ -------|
B|-------------------------------|-------------------------------|
G/14----------------------12-----|11----------\---7--------------|
D|-------------------------------|-------------------------------|
A|-------------------------------|-------------------------------|
E|-------------------------------|-------------------------------|

                                  x   x       x   X   x   x   x
  A
e|0------ ------- ------- -------|------- ------- ------- -------|
B|2------------------------------|-------------------------------|
G|2------------------------------|-------------------------------|
D|2------------------------------|-------------------------------|
A|0------------------------------|-------------------------------|
E|-------------------------------|-------------------------------|
          Didn't  anybody                                    tell
  ooooooooooooooooooooooohhh
e/9------ ------- ------- -------|------- ------- ------- -------|
B|-------------------------------|-------------------------------|
G/9------------------------------|-------------------------------|
D|-------------------------------|-------------------------------|
A|-------------------------------|-------------------------------|
E|-------------------------------|-------------------------------|


  Dm                                                      A
e|1------ ------- 1------ ----1--|1---1-- 1------ 1------ 0---0--|
B|3---------------3-----------3--|3---3---3-------3-------2---2--|
G|2---------------2-----------2--|2---2---2-------2-------2---2--|
D|0---------------0-----------0--|0---0---0-------0-------2---2--|
A|-------------------------------|------------------------0---0--|
E|-------------------------------|-------------------------------|
          her?
e|------- ------- ------- -------|------- ------- ------- -------|
B|-------------------------------|-------------------------------|
G|------------------------7------|9B10-----------9B10R9-P-7------|
D|--------------------7----------|-------------------------------|
A|-------------------------------|-------------------------------|
E|-------------------------------|-------------------------------|

e|0------ ------- 0------ ----0--|----0-- 0------ 0------ ----0--|
B|2---------------2-----------2--|----2---2-------2-----------2--|
G|2---------------2-----------2--|----2---2-------2-----------2--|
D|2---------------2-----------2--|----2---2-------2-----------2--|
A|0---------------0-----------0--|----0---0-------0-----------0--|
E|-------------------------------|-------------------------------|
          Didn't  anybody                                     see?
e|------- ------- ------- -------|------- ------- ------- -------|
B|-------------------------------|-------------------------------|
G|6--~---------------------------|-------------------------------|
D|-------------------------------|-------------------------------|
A|-------------------------------|-------------------------------|
E|-------------------------------|-------------------------------|

                                  x   x       x   X   X   x   X
  Dm                                                          G
e|1------ 1------ 1------ 1---1--|1---1-- 1------ 1------ 1---3--|
B|3-------3-------3-------3---3--|3---3---3-------3-------3---3--|
G|2-------2-------2-------2---2--|2---2---2-------2-------2---0--|
D|0-------0-------0-------0---0--|0---0---0-------0-------0---0--|
A|-------------------------------|----------------------------2--|
E|-------------------------------|----------------------------3--|

e|------- ------- ------- -------|------- ------- ------- -------|
B|-------------------------------|-------------------------------|
G|------------------------7------|9B10-----------9B10R9-P-7------|
D|--------------------7----------|-------------------------------|
A|-------------------------------|-------------------------------|
E|-------------------------------|-------------------------------|


  G
e|3------ 3------ 3------ 3---3--|----3-- 3------ 3------ 3---3--|
B|3-------3-------3-------3---3--|----3---3-------3-------3---3--|
G|0-------0-------0-------0---0--|----0---0-------0-------0---0--|
D|0-------0-------0-------0---0--|----0---0-------0-------0---0--|
A|2-------2-------2-------2---2--|----2---2-------2-------2---2--|
E|3-------3-------3-------3---3--|----3---3-------3-------3---3--|
  Sundays         on      the     phone           to      Monday,
e|------- ------- ------- -------|------- ------- ------- -------|
B|8--~---------------------------|-------------------------------|
G|-------------------------------|-------------------------------|
D|-------------------------------|-------------------------------|
A|-------------------------------|-------------------------------|
E|-------------------------------|-------------------------------|

                                  X   X       x   X   X   X   X
  C                       G
e|0------ 0------ 0------ 3------|------- 3------ 3------ 3---3--|
B|1-------1-------1-------3------|--------3-------3-------3---3--|
G|0-------0-------0-------0------|--------0-------0-------0---0--|
D|2-------2-------2-------0------|--------0-------0-------0---0--|
A|3-------3-------3-------2------|--------2-------2-------2---2--|
E|3-------3-------3-------3------|--------3-------3-------3---3--|

e|------- 8------B12R10-- 8------|------- ------- ------- -------|
B/10-----------------------------|10-\-8-------------------------|
G|-------------------------------|------------9-\-7-------5------|
D|-------------------------------|-------------------------------|
A|-------------------------------|-------------------------------|
E|-------------------------------|-------------------------------|

e|3------ ------- 3------ 3---3--|----3-- 3------ 3------ 3------|
B|3---------------3-------3---3--|----3---3-------3-------3------|
G|0---------------0-------0---0--|----0---0-------0-------0------|
D|0---------------0-------0---0--|----0---0-------0-------0------|
A|2---------------2-------2---2--|----2---2-------2-------2------|
E|3---------------3-------3---3--|----3---3-------3-------3------|
  Tuesdays        on      the     phone           to      me
e|------- ------- ------- -------|------- ------- ------- -------|
B|-------------------------------|----------------------------8-/|
G|-------------------------------|-------------------------------|
D|5------------------------------|-------------------------------|
A|-------------------------------|-------------------------------|
E|-------------------------------|-------------------------------|

                          (.
  C                       A
e|0------ 0---0-- 0------ 0------|------- ------- ------- -------|
B|1-------1---1---1-------2------|-------------------------------|
G|0-------0---0---0-------2------|-------------------------------|
D|2-------2---2---2-------2------|-------------------------------|
A|3-------3---3---3-------0------|-------------------------------|
E|3-------3---3---3--------------|-------------------------------|
                  Oh,     yeah
e|------- 8------ 12-\-8- 9--~---|------- ------- ------- -------|
B|10-----------------------------|-------------------------------|
G|-------------------------------|-------------------------------|
D|-------------------------------|-------------------------------|
A|-------------------------------|-------------------------------|
E|-------------------------------|-------------------------------|

--------------------------------------------------------------------------
                                 Golden Slumbers
--------------------------------------------------------------------------
CHORUS:


  Am7  								       Dm
|--3----3----3----3----|--3----3----3----3----|--1----1----1----1----|--1----1----3----3----|
|--1----1----1----1----|--1----1----1----1----|--3----3----3----3----|--3----3----5----5----|
|----2----2----2----2--|----2----2----2----2--|----2----2----2----2--|----2----2----2----2--|
|----------------------|----------------------|----------------------|----------------------|
|----------------------|----------------------|--0-------------------|----------------------|
|----------------------|----------------------|----------------------|----------------------|


                         G7 					       C         E7
|--5----5----3----1----|--1----1----1----1----|--1----1----1----1----|--3----3----4----4----|
|--6----6----5----3----|--0----0----0----0----|--0----0----0----0----|--5----5----3----3----|
|----2----2----2----2--|----0----0----0----0--|----0----0----0----0--|----0----0----4----4--|
|--0-------------------|----------------------|----------------------|------------2---------|
|----------------------|----------------------|----------------------|--3-------------------|
|----------------------|----------------------|--3-------------------|----------------------|


  Am			 Dm			G7		       C
|--5----5--------------|--0----0----0----0----|--1----1----1---------|----------------------|
|--5----5--------------|--3----3----3----3----|--0----1----3----0----|--1----1----1----1----|
|----5----5------------|----2----2----2----2--|----0----0----0--0----|----0----0----0----0--|
|----------------------|--0-------------------|-------------------3--|--2----2----2----2----|
|--0-------------------|----------------------|-------0----2---------|--3-------------------|
|----------------------|----------------------|--3--------------3----|----------------------|


VERSE (Strum As You Like):


  C                      Fmaj7           F       C
|--0-------------------|--0---------------1----|--0-------------------|
|--1-------------------|--1---------------1----|--1-------------------|
|--0-------------------|--2---------------2----|--0-------------------|
|--2-------------------|--3---------------3----|--2-------------------|
|--3-------------------|--3---------------3----|--3-------------------|
|----------------------|-----------------------|----------------------|


  C 			 Fmaj7           F
|--0-------------------|--0---------------1----|Then go back to where the
|--1-------------------|--1---------------1----|chord changes to "C"
|--0-------------------|--2---------------2----|
|--2-------------------|--3---------------3----|
|--3-------------------|--3---------------3----|
|----------------------|-----------------------|

---------------------------------------------------------------------------
                             Carry that Weight
                               (Lennon/McCartney)
                                  The Beatles
                               Abbey Road (1969)
---------------------------------------------------------------------------
 C                    G
Boy, you're gonna to carry that weight
                     C
carry that weight a long time.
                       G
Boy, you're gonna to carry that weight
                      C        C/B
carry that weight a long time.


Am7  Dm7(add9) Dm  G  Csus4  C  Fmaj7  Dm  E7  Am


                   Dm7(add9) Dm   G
I never give you my   pil    low
                  Csus4  C      Fmaj7
I only send you my  invitations
                         Dm  E7
And in the middle of the celebrations
   Am        G  C  G
I break down


 C                    G
Boy, you're gonna to carry that weight
                      C
carry that weight a long time.
                      G
Boy, you're gonna to carry that weight
                      C        G/B   A
carry that weight a long time.

C  G/B   A

Dm(add9)

  -0-
  -3-
  -2-
  -0-
  ---
  ---
                            SOLO
E------------------------------------------------------------------------|I
B---------------------------------------10-------------------------------|I
G------5-----7(b1/2)r(7)p5---5--7p5--/9-----7(b1/2)--7--5--7--5----------|I
D--/7-----7----------------7------------------------------------7p5h7----|I
A------------------------------------------------------------------------|I
E------------------------------------------------------------------------|I

--------------------------------------------------------------------------
                         The End
--------------------------------------------------------------------------'
Guitar1
e-----------------------------------------------------------------|
b------13b--------15b---------------------------------------------|
g--12b---------14b------------------------------------------------|
d-----------------------------------------------------------------|
a---------------------------4-----4---5--6-7---8--9------7-7------|
E---------------------------5-----5---7--8-9--10-11-----------9---|

Guitar 2
e--5---5-------7---7----------------------------------------------|
b--5---7-------7---9----------------------------------------------|
g--6---7-------8---9--------6-----6---7-8--9--10-11---------------|
d--7---7-------9---9--------7-----7---9-10-11-12-13---------------|
a--7---5-------9---7-------------------------------------5-3------|
E--5-----------7----------------------------------------------5---|

Drum fill

Guitar1
e-----------------------------------------------------------------|
b------13b--------15b---------------------------------------------|
g--12b---------14b------------------------------------------------|
d-----------------------------------------------------------------|
a---------------------------4-----4----------------------7-7------|
E---------------------------5-----5---7--8-9--10-11-----------9---|

Guitar 2
e--5---5-------7---7----------------------------------------------|
b--5---7-------7---9----------------------------------------------|
g--6---7-------8---9--------6-----6---7-8--9--10-11---------------|
d--7---7-------9---9--------7-----7---9-10-11-12-13---------------|
a--7---5-------9---7-------------------------------------5-3------|
E--5-----------7----------------------------------------------5---|

8-bar drum solo

You play these two chords during the solo and before it(after drum solo):
A7=x x x x x x  D7=x x x x x x
   5 7 5 6 8 5    101210111310
This part is the famous solo played by Paul,George, and John,in that order.

Paul

e------------------------------------------------------------------|
b------------10--------10-8----------------------------------------|
g--9-9-9--9---------9--------7/5----5h7---5------------------------|
d--------------------------------7------------7p5------------------|
a------------------------------------------------------------------|
E------------------------------------------------------------------|

George

e------------------------------------------------------------------|
b-----10----10--13b---13r--10h13p10---10----10---------------------|
g--12----12------------------------12---12----9--7--5--------------|
d--------------------------------------------------------7---------|
a------------------------------------------------------------------|
E------------------------------------------------------------------|

John

e------------------------------------------------------------------|
b--12-12--12-12p10-12--12-12p10-12p10--12--12--12-12-12\---5-------|
g--12-12--12-12----12--12-12----12-----12--12--12-12-12\5--5-------|
d----------------------------------------------------------5-------|
a------------------------------------------------------------------|
E------------------------------------------------------------------|

Paul

e-8-8-8-8---------------5--5-8\10--|
b---------5-------5-4-5---8--------|
g-----------5---5------------------|
d-------------7--------------------|
a----------------------------------|
E----------------------------------|

George

e----------------------------------------|
b---555---5555---555--7b-7r--------8b----|
g---555---5555---555--7b-7r--5h7p5-------|
d-7-----7------7-------------------------|
a----------------------------------------|
E----------------------------------------|

John

e----------------------------------------------|
b----------------------------------------------|
g----------------------------------------------|
d------------0-----0-----0---2p0-0-----0-------|
a------0--3b---3b-----3----3--------3---0------|
E-0--3-----------------------------------------|

Paul

e-------------------------------------------------------|
b-------------------------------------------------------|
g----------5-5--5-5-----------5-5--5-5------------------|
d-5-5--5-5----------5-5--5--5-----------5\2--2p0--------|
a-------------------------------------------------3p0-0-|
E-------------------------------------------------------|

George

e-----------------15b----15r-----------|
b-------------13--------------13h15p13-|
g--9/12-12/14--------------------------|
d--------------------------------------|
a--------------------------------------|
E--------------------------------------|

John

e-------------|------------------------|
b-------------|------------------------|
g------5--7p5-|-7p5-7p5-7p5-7p5-7p5-7p5|repeat
d--7---5--7p5-|-7p5-7p5-7p5-7p5-7p5-7p5|
a--7----------|------------------------|
E-------------|------------------------|


And in the end            The love you take

e-------------9/8\9-9/7\9-----------------------7/6\7-|
b-----------------------------------------------------|
g-------------9/8\9-9/7\9-----------------------9/8\9-|
d-----------------------------------------------------|
a-----------------------------------------------------|
E-----------------------------------------------------|

Is equal to the love you make
e-------------------------------------------8-10b---8--8--|
b-----------------------------------------8------------8--|
g---------------------------------------9-----------------|
d------------------------------------10-------------------|
a-------------------------------7-10----------------------|
e-----------------------------8---------------------------|
                 rake
e----------------11--13b-13--11---------------------------|
b---------------11--------------13b---13r--10h13--15b-----|
g--------------12-----------------------------------------|
d---------------------------------------------------------|
a---------------------------------------------------------|
E---------------------------------------------------------|

--------------------------------------------------------------------------
                        Her Majesty
--------------------------------------------------------------------------
Her Majesty's a pretty nice girl but she hasn't got a lot to say
   D        D/C#       D/B          D              E7          A7     D
E -2----2-2----2--2---2------2-2--------2---2---------------------------------|
B -3----3-2----3--3---3------3-3--------3---3----------3--3-----2---3---------|
G -2----2-2----2--2---2------2-3--------2---2----------1--1-----0---2---------|
D -0--0-----------------------------------------------2--2-----2---0----------|
A -0---------4--------2-----------0--------------------------0--------0-2-4---|
E -2---------------------------------------------0----------------------------|

      Her Majesty's a pretty nice girl but she changes from day to day
          D/C#       D/B          D              E7                 A
E ----2-2----2--2---2-------2-2--------2---2---------------------------------|
B ----3-2----3--3---3-------3-3--------3---3----------3--------3-----2-2-3-2-|
G ----2-2----2--2---2-------2-3--------2---2----------1--------1-----2-2-2-2-|
D --0-------------------------------------------------2--------2-----2-2-4-2-|
A ---------4---------2-----------0---------------------------------0---------|
E ----------------------------------------------0-----------0----------------|

      I wanna tell her I love her alot but I gotta get a belly fulla wine
    Bm                     Bm9                 D7                    G
E ---------------------------------------------------------------------------|
B ------3--3-----------3----------2-----2--2--------1-----------1------0---0-|
G ------4--4-----------4----------4-----4--4--------2-----------2------0---0-|
D ------4--4-----------4----------4-----4--4---0----------0------------0---0-|
A --2----------2-----------2--------2----------------------------------------|
E -------------------------------------------------------------------3---3---|

       Her Majesty's a pretty nice girl some day I'm gonna make her
  (S) Ddim               D          B7        E7            A
E -----7--7-----7----7--------2----------------------------------------------|
B -----6--6-----6----6--------3----------0------------3----------2-----------|
G ---7-7--7--7--7----7--------2----------2------------1----------2-----------|
D -----6--6-----6----6---0---------------1------------2----------2-----------|
A ----------------------------------2-----------------------0----------------|
E --------------------------------------------0------------------------------|

    Mine oh yeah some day I'm gonna make her mine.
    D         B7       E7             A7       D
E -------2-------------------------------------------------------------------|
B -------3------0---------------3---------2----------------------------------|
G -------2------2---------------1---------2----------------------------------|
D --0-----------1---------------2---------2----0-----------------------------|
A ------------2-----------------------0------------0-------------------------|
E ---------------------0-----------------------------------------------------|
comments
We did not receive enough feedback on this tab! Please rate:
print report bad tab
1 2 3 4 5
5 comments total. Showing first comments.
-2 reply
That-Funny-Guy wrote on June 2 2008, 02:53 pm

...uh...yeah...in come together...where the hell did you get 'shoot me'?

0 reply
yoda7337 wrote on June 2 2008, 03:16 pm

i didn't tab it. i guess the dude thought thats what Lennon is singing in the beginning.

0 reply
jaxtheaxe wrote on June 2 2008, 03:48 pm

PJVill might have wrote that because thats whats said

I want to post or [tab]
guest
You may want to rate the tab now too:
select rating
Please do not post tabs as comments. Select "correction" instead!