Oops, an error
Loading. Please wait.

Abbey Road Tab

ver3
ver3

Album

Interactive

More versions @911Tabs.com
45,566 views 93 this week
no commentswrite comment
1 2 3 4 5
excellent!
x 11
Autoscroll
+/-
esc
set tempo
stop
Contributor
Hey! There's an official Ultimate Guitar app which is ideal
for learning songs when you're away from computer. Get the app
WARNING: You are trying to view
                                    content from Ultimate-Guitar.com
                                    in an unauthorized application,
                                    which is prohibited.

                                    Please use an official Ultimate
                                    Guitar Tabs application for iPhone,
                                    iPad or Android to access legitimate
                                    chords, guitar, bass, and drum tabs
                                    from Ultimate-Guitar.com database.

                                    Type "ultimate guitar tabs" in Apple
                                    App Store's or Android Market's
                                    search to find the application.
                THE BEATLES - ABBEY ROAD 

             1  COME TOGETHER
             2  SOMETHING
             3  MAXWELL'S SILVER HAMMER
             4  OH DARLING
             5  OCTOPUS'S GARDEN
             6  I WANT YOU (SHE'S SO HEAVY)
             7  HERE COMES THE SUN
             8  BECAUSE
             9  YOU NEVER GIVE ME YOUR MONEY
            10  SUN KING
            11  MEAN MR MUSTARD
            12  POLYTHENE PAM
            13  SHE CAME IN THROUGH THE BATHROOM WINDOW
            14  GOLDEN SLUMBERS
            15  CARRY THAT WEIGHT
            16  THE END
            17  HER MAJESTY

  -----------------------------------------------------------------

  THE BEATLES - COME TOGETHER (Lennon & McCartney). From ABBEY ROAD
                album. Released on 26th September 1969.

  -----------------------------------------------------------------

  Tabbed by:PJVillanueva




  Here come old flattop he come grooving up slowly 
  He got joo-joo eyeball he one holly roller 
  He got hair down to his knee 
  Got to be a joker he just do what he please 

  He wear no shoeshine he got toe-jam football 
  He got monkey finger he shoot coca-cola 
  He say "I know you, you know me" 
  One thing I can tell you is you got to be free 
  Come together right now over me 

  He bag production he got walrus gumboot 
  He got Ono sideboard he one spinal cracker 
  He got feet down below his knee 
  Hold you in his armchair you can feel his disease 
  Come together right now over me 

  He roller-coaster he got early warning 
  He got muddy water he one mojo filter 
  He say "One and one and one is three" 
  Got to be good-looking 'cause he's so hard to see 
  Come together right now over me 



    INTRO                                 
    D7
  e|------- ------- ------- -------|------- ------- ------- -------|
  B|-------------------------------|-------------------------------|
  G|------------5------------------|----------------5--------------|
  D|--------5H7--------------------|--------5H7--------------------|
  A|5---5--------------------------|5---5--------------------------|
  E|-------------------------------|-------------------------------|
    Shoot me                        Shoot me




  e|------- ------- ------- -------|------- ------- ------- -------|
  B|-------------------------------|-------------------------------|
  G|------------5------------------|----------------5--------------|
  D|--------5H7--------------------|--------5H7--------------------|
  A|5---5--------------------------|5---5--------------------------|
  E|-------------------------------|-------------------------------|
    Shoot me                        Shoot me

    VERSE
    00:12
    D5      D6      D5      D6 ....
  e|------- ------- ------- -------|------- ------- ------- -------|
  B|-------------------------------|-------------------------------|
  G|-------------------------------|-------------------------------|
  D|7---7---9---9---7---7---9---9--|7---7---9---9---7---7---9---9--|
  A|5---5---5---5---5---5---5---5--|5---5---5---5---5---5---5---5--|
  E|-------------------------------|-------------------------------|
        Here  old   flattop he  come    grooving    slowly  He  got
            come                                up



  e|------- ------- ------- -------|------- ------- ------- -------|
  B|-------------------------------|-------------------------------|
  G|-------------------------------|-------------------------------|
  D|7---7---9---9---7---7---9---9--|7---7---9---9---7---7---9---9--|
  A|5---5---5---5---5---5---5---5--|5---5---5---5---5---5---5---5--|
  E|-------------------------------|-------------------------------|
        joo  -  joo eyeball he  one     holly       roller  He  got



    A5      A6      A5      A6 ....
  e|------- ------- ------- -------|------- ------- ------- -------|
  B|-------------------------------|-------------------------------|
  G|-------------------------------|-------------------------------|
  D|-------------------------------|-------------------------------|
  A|7---7---9---9---7---7---9---9--|7---7---9---9---7---7---7---7-\|
  E|5---5---5---5---5---5---5---5--|5---5---5---5---5---5---5---5-\|
        hair        down            to      his knee 


    X     X X       X     X X       X     X X       X     X X
    G5
  e|------- ------- ------- -------|------- ------- ------- -------|
  B|-------------------------------|-------------------------------|
  G|-------------------------------|-------------------------------|
  D|-------------------------------|-------------------------------|
  A|5------------------------------|-------------------------------|
  E|3------------------------------|-------------------------------|
    Got to  be  a   joker   he  just    what    please                  
                                    do      he

    00:35
    
  e|------- ------- ------- -------|------- ------- ------- -------|
  B|-------------------------------|-------------------------------|
  G|------------5------------------|----------------5--------------|
  D|--------5H7--------------------|--------5H7--------------------|
  A|5---5--------------------------|5---5--------------------------|
  E|-------------------------------|-------------------------------|
    Shoot me                        Shoot me




  e|------- ------- ------- -------|------- ------- ------- -------|
  B|-------------------------------|-------------------------------|
  G|------------5------------------|----------------5--------------|
  D|--------5H7--------------------|--------5H7--------------------|
  A|5---5--------------------------|5---5--------------------------|
  E|-------------------------------|-------------------------------|
    Shoot me                        Shoot me

    VERSE
    00:47

  e|------- ------- ------- -------|------- ------- ------- -------|
  B|-------------------------------|-------------------------------|
  G|-------------------------------|-------------------------------|
  D|7---7---9---9---7---7---9---9--|7---7---9---9---7---7---9---9--|
  A|5---5---5---5---5---5---5---5--|5---5---5---5---5---5---5---5--|
  E|-------------------------------|-------------------------------|
        He  wear    shoeshine   got     toe  -  jam football    got
                no          he                              He


  e|------- ------- ------- -------|------- ------- ------- -------|
  B|-------------------------------|-------------------------------|
  G|-------------------------------|-------------------------------|
  D|7---7---9---9---7---7---9---9--|7---7---9---9---7---7---9---7--|
  A|5---5---5---5---5---5---5---5--|5---5---5---5---5---5---5---5--|
  E|-------------------------------|-------------------------------|
        monkey      finger  he  shoot   coca    -   cola    He  say



  e|------- ------- ------- -------|------- ------- ------- -------|
  B|-------------------------------|-------------------------------|
  G|-------------------------------|-------------------------------|
  D|-------------------------------|-------------------------------|
  A|7---7---9---9---7---7---9---9--|7---7---9---9---7---7---9---7--|
  E|5---5---5---5---5---5---5---5--|5---5---5---5---5---5---5---5--|
       "I   know                    you know     me"                          
                 you,

    X     X X       X     X X       X     X X       X     X X

  e|------- ------- ------- -------|------- ------- ------- -------|
  B|-------------------------------|-------------------------------|
  G|-------------------------------|-------------------------------|
  D|-------------------------------|-------------------------------|
  A|5------------------------------|-------------------------------|
  E|3------------------------------|-------------------------------|
    One thing   can tell    is  you got to  be  free        Come 
            I           you                                     together
    REFRAIN
    01:10
    B5                              G5              A5
  e|------- ------- ------- -------|------- ------- ------- -------|
  B|-------------------------------|-------------------------------|
  G|-------------------------------|-------------------------------|
  D|9---9---9---9---9---9----------|-------------------------------|
  A|9---9---9---9---9---9---9---9--|5---5---5---5-/-7--------------|
  E|7---7---7---7---7---7---5---5--|3---3---3---3-/-5--------------|
                            right   now                     over  me    


    01:16

  e|------- ------- ------- -------|------- ------- ------- -------|
  B|-------------------------------|-------------------------------|
  G|------------5------------------|----------------5--------------|
  D|--------5H7--------------------|--------5H7--------------------|
  A|5---5--------------------------|5---5--------------------------|
  E|-------------------------------|-------------------------------|
    Shoot me                        Shoot me




  e|------- ------- ------- -------|------- ------- ------- -------|
  B|-------------------------------|-------------------------------|
  G|------------5------------------|----------------5--------------|
  D|--------5H7--------------------|--------5H7--------------------|
  A|5---5--------------------------|5---5--------------------------|
  E|-------------------------------|-------------------------------|
    Shoot me                        Shoot me

    VERSE
    01:27

  e|------- ------- ------- -------|------- ------- ------- -------|
  B|-------------------------------|-------------------------------|
  G|-------------------------------|-------------------------------|
  D|7---7---9---9---7---7---9---9--|7---7---9---9---7---7---9---9--|
  A|5---5---5---5---5---5---5---5--|5---5---5---5---5---5---5---5--|
  E|-------------------------------|-------------------------------|  
        He  bag production  he  got     walrus      gumboot He  got 




  e|------- ------- ------- -------|------- ------- ------- -------|
  B|-------------------------------|-------------------------------|
  G|-------------------------------|-------------------------------|
  D|7---7---9---9---7---7---9---9--|7---7---9---9---7---7---9---7-\|
  A|5---5---5---5---5---5---5---5--|5---5---5---5---5---5---5---5-\|
  E|-------------------------------|-------------------------------|
        Ono         sideboard   one     spinal      cracker He  got 
                            he



  e|------- ------- ------- -------|------- ------- ------- -------|
  B|-------------------------------|-------------------------------|
  G|-------------------------------|-------------------------------|
  D|-------------------------------|-------------------------------|
  A|7---7---9---9---7---7---9---9--|7---7---9---9---7---7---9---7-\|
  E|5---5---5---5---5---5---5---5--|5---5---5---5---5---5---5---5-\|
        feet        down    below           his knee

   
    X     X X       X     X X       X     X X       X     X X

  e|------- ------- ------- -------|------- ------- ------- -------|
  B|-------------------------------|-------------------------------|
  G|-------------------------------|-------------------------------|
  D|-------------------------------|-------------------------------|
  A|5------------------------------|-------------------------------|
  E|3------------------------------|-------------------------------|
    Hold    in  his armchair    can feel    disease         Come             
        you                 you         his                     together
 
    REFRAIN
    01:51

  e|------- ------- ------- -------|------- ------- ------- -------|
  B|-------------------------------|-------------------------------|
  G|-------------------------------|-------------------------------|
  D|9---9---9---9---9---9----------|-------------------------------|
  A|9---9---9---9---9---9---9---9--|5---5---5---5-/-7--------------|
  E|7---7---7---7---7---7---5---5--|3---3---3---3-/-5--------------|
                            right   now                     over  me   


                                                xxxxx x   x X X X X

  e|------- ------- ------- -------|------- ------- ------- -------|
  B|-------------------------------|-------------------------------|
  G|------------5------------------|----------------5--------------|
  D|--------5H7--------------------|--------5H7--------------------|
  A|5---5--------------------------|5---5--------------------------|
  E|-------------------------------|-------------------------------|
                                    Shoot me
  e|------- ------- ------- -------|------- ------- ------- -------|
  B|------------6------------------|----------------6--------------|
  G|------------5------------------|----------------5--------------|
  D|------------7------------------|----------------7--------------|
  A|-------------------------------|-------------------------------|
  E|-------------------------------|-------------------------------|


    INTERLUDE
    02:02
    D5      D6 ....
  e|------- ------- ------- -------|------- ------- ------- -------|
  B|-------------------------------|-------------------------------|
  G|-------------------------------|-------------------------------|
  D|7---7---9---9---7---7---9---9--|7---7---9---9---7---7---9---9--|
  A|5---5---5---5---5---5---5---5--|5---5---5---5---5---5---5---5--|
  E|-------------------------------|-------------------------------|  
      
  e|------- ------- ------- -------|------- ------- ------- -------|
  B|----6-6-6-6-6-6-6--------------|----6-6-6-6-6-6-6--------------|
  G|----5-5-5-5-5-5-5---7---5---7--|----5-5-5-5-5-5-5---7---5---7--|
  D|--------------------7---5---7--|--------------------7---5---7--|
  A|-------------------------------|-------------------------------|
  E|-------------------------------|-------------------------------|





  e|------- ------- ------- -------|------- ------- ------- -------|
  B|-------------------------------|-------------------------------|
  G|-------------------------------|-------------------------------|
  D|7---7---9---9---7---7---9---9--|7---7---9---9---7---7---9---7-\|
  A|5---5---5---5---5---5---5---5--|5---5---5---5---5---5---5---5-\|
  E|-------------------------------|-------------------------------|
                                                        Come
  e|------- ------- ------- -------|------- ------- ------- -------|
  B|----6-6-6-6-6-6-6--------------|--6-6-6-6-6-6-6----------------|
  G|----5-5-5-5-5-5-5---7---5---7--|--5-5-5-5-5-5-5-----7---5---7--|
  D|--------------------7---5---7--|--------------------7---5---7--|
  A|-------------------------------|-------------------------------|
  E|-------------------------------|-------------------------------|
      

    SOLO
    02:14
    A5      A6 ....
  e|------- ------- ------- -------|------- ------- ------- -------|
  B|-------------------------------|-------------------------------|
  G|-------------------------------|-------------------------------|
  D|-------------------------------|-------------------------------|
  A|7---7---9---9---7---7---9---9--|7---7---9---9---7---7---9---9--|
  E|5---5---5---5---5---5---5---5--|5---5---5---5---5---5---5---5--|
                Oh,                                 Come
  e|------- ------- ------- -------|------- ------- ------- -------|
  B|--------5----------------------|--------5----------------------|
  G|--------6----------------------|--------6----------------------|
  D|--------7----------------------|--------7----------------------|
  A|7---7---7----------------------|7---7---7----------------------|
  E|5---5---5----------------------|5---5---5----------------------|
    
  e|------- ------- ------- -------|------- ------- ------- -------|
  B|1517-~--------------1517151715131517-~-------------------------|
  G|-B-------------------B---B-R-P-|-B-----------------------------|
  D|-------------------------------|-------------------------------|
  A|-------------------------------|-------------------------------|
  E|-------------------------------|-------------------------------|
     
  e|1517-~- ------- ----1517151715131517-~- ------- ------- -------|
  B|-B-------------------B---B-R-P-|-B-----------------------------|
  G|-------------------------------|-------------------------------|
  D|-------------------------------|-------------------------------|
  A|-------------------------------|-------------------------------|
  E|-------------------------------|-------------------------------|





  e|------- ------- ------- -------|------- ------- ------- -------|
  B|-------------------------------|-------------------------------|
  G|-------------------------------|-------------------------------|
  D|-------------------------------|-------------------------------|
  A|7---7---9---9---7---7---9---9--|7---7---9---9---7---7----------|
  E|5---5---5---5---5---5---5---5--|5---5---5---5---5---5----------|
                    Come                            Come
  e|------- ------- ------- -------|------- ------- ------- -------|
  B|--------5----------------------|--------5----------------------|
  G|--------6----------------------|--------6----------------------|
  D|--------7----------------------|--------7----------------------|
  A|7---7---7----------------------|7---7---7----------------------|
  E|5---5---5----------------------|5---5---5----------------------|
       
  e|------- ------- ------- -------|------- ------- ------- -------|
  B|1517-~--------------151715171513-B-----------------------------|
  G|-B-------------------B---B-R-P-|1214-~--------------121412141210
  D|-------------------------------|---------------------B---B-R-P-|
  A|-------------------------------|-------------------------------|
  E|-------------------------------|-------------------------------|
      
  e|1517-~- ------- ----151715171513--B---- ------- ------- -------|
  B|-B-------------------B---B-R-P-|1517-~--------------151715171514
  G|-------------------------------|---------------------B---B-R-P-|
  D|-------------------------------|-------------------------------|
  A|-------------------------------|-------------------------------|
  E|-------------------------------|-------------------------------|




    D7
  e|------- ------- ------- -------|------- ------- ------- -------|
  B|1315-~-------------------------|-------------------------------|
  G|-B-----------------------------|-------------------------------|
  D|-------------------------------|-------------------------------|
  A|-------------------------------|-------------------------------|
  E|-------------------------------|-------------------------------|
   
  e|1517-~- ------- ------- -------|------- ------- ------- -------|
  B|-B-----------------------------|-------------------------------|
  G|-------------------------------|-------------------------------|
  D|-------------------------------|-------------------------------|
  A|-------------------------------|-------------------------------|
  E|-------------------------------|-------------------------------|
    
  e|------- ------- ------- -------|------- ------- ------- -------|
  B|-------------------------------|-------------------------------|
  G|------------5------------------|----------------5--------------|
  D|--------5H7--------------------|--------5H7--------------------|
  A|5---5--------------------------|5---5--------------------------|
  E|-------------------------------|-------------------------------|
    Piano
  e|------- ------- ------- -------|------- ------- ------- -------|
  B|--------6---3-----------1------|----0--------------------------|
  G|--------5---4-----------2------|----0-----------2--------------|
  D|----0---------------0----------|0---------------3--------------|
  A|-------------------------------|------------5------------------|
  E|-------------------------------|-------------------------------|    


    VERSE
    02:31

  e|------- ------- ------- -------|------- ------- ------- -------|
  B|-------------------------------|-------------------------------|
  G|----------------------------7--|----------------------------5--|
  D|7---7---9---9---7---7---7/9----|7---7---9---9---7---7---5H7----|
  A|5---5---5---5---5---5----------|5---5---5---5---5---5---5------|
  E|-------------------------------|-------------------------------|
        He  roller          he  got     early       warning He  got  
                coaster


  e|------- ------- ------- -------|------- ------- ------- -------|
  B|----------------------------6--|-------------------------------|
  G|----------------------------5--|7---7--------------------------|
  D|7---7---9---9---7---7---5H7----|7---7---9---9---7---7---5H7-\--|
  A|5---5---5---5---5---5---5------|5---5---5---5---5---5---5------|
  E|-------------------------------|-------------------------------|
        muddy       water   he  one     mojo        filter  He  say



  e|------- ------- ------- -------|------- ------- ------- -------|
  B|-------------------------------|-------------------------------|
  G|-------------------------------|-------------------------------|
  D|-------------------------------|-------------------------------|
  A|7---7---9---9---7---7---5-\----|7---7---9---9---7---7---5H7-7-\|
  E|5---5---5---5---5---5---5-\----|5---5---5---5---5---5---5---5-\|
       "One     and one     and one         is  three"    


    X     X X       X     X X       X     X X       X     X X

  e|------- ------- ------- -------|------- ------- ------- -------|
  B|-------------------------------|-------------------------------|
  G|-------------------------------|-------------------------------|
  D|-------------------------------|-------------------------------|
  A|5------------------------------|-------------------------------|
  E|3------------------------------|-------------------------------|
    Got     be  good       'cause   so  hard    see         Come 
        to          looking     he's        to                  together

    REFRAIN
    02:54

  e|------- ------- ------- -------|------- ------- ------- -------|
  B|-------------------------------|-------------------------------|
  G|-------------------------------|-------------------------------|
  D|9---9---9---9---9---9----------|-------------------------------|
  A|9---9---9---9---9---9---9---5--|5---5---5---5-/-7--------------|
  E|7---7---7---7---7---7---5---5--|3---3---3---3-/-5--------------|
                            right   now                     over  me           


 

  e|------- ------- ------- -------|------- ------- ------- -------|
  B|-------------------------------|-------------------------------|
  G|------------5------------------|----------------5--------------|
  D|--------5H7--------------------|--------5H7--------------------|
  A|5---5--------------------------|5---5--------------------------|
  E|-------------------------------|-------------------------------|
                                    Shoot me
  e|------- ------- ------- -------|------- ------- ------- -------|
  B|------------6------------------|----------------6--------------|
  G|------------5------------------|----------------5--------------|
  D|------------7------------------|----------------7--------------|
  A|-------------------------------|-------------------------------|
  E|-------------------------------|-------------------------------|





  e|------- ------- ------- -------|------- ------- ------- -------|
  B|-------------------------------|-------------------------------|
  G|------------5------------------|----------------5--------------|
  D|--------5H7--------------------|--------5H7--------------------|
  A|5---5--------------------------|5---5--------------------------|
  E|-------------------------------|-------------------------------|
    Shoot me                        Shoot me                    Oh!
  e|------- ------- ------- -------|------- ------- ------- -------|
  B|------------6------------------|----------------6--------------|
  G|------------5------------------|----------------5--------------|
  D|------------7------------------|----------------7--------------|
  A|-------------------------------|-------------------------------|
  E|-------------------------------|-------------------------------|   

  e|------- ------- ------- -------|------- ------- ------- -------|
  B|-------------------------------|-------------------------------|
  G|-------------------------------|-------------------------------|
  D|------------------------12-----|-------------------------------|
  A|-------------------------------|-------------------------------|
  E|-------------------------------|-------------------------------|  


    CODA
    03:12

  e|------- ------- ------- -------|------- ------- ------- -------|
  B|-------------------------------|----------------------------6--|
  G|----------------------------5--|----------------------------5--|
  D|7---7---9---9---7---7---5H7-7--|7---7---9---9---7---7---5H7-7--|
  A|5---5---5---5---5---5---5------|5---5---5---5---5---5---5------|
  E|-------------------------------|-------------------------------|

  e|------- ------- ------- -------|------- ------- ------- -------|
  B|--------6---3-----------1------|----0--------------------------|
  G|--------5---4-----------2------|----0-----------2--------------|
  D|----0---------------0----------|0---------------3--------------|
  A|-------------------------------|------------5------------------|
  E|-------------------------------|-------------------------------| 
                                                       
  e|------- ------- ------- -------|------- ------- ----1315131513-|
  B|13B15-~------------------------|---------------------B---B-R--15
  G|-------------------------------|-------------------------------|
  D|-------------------------------|-------------------------------|
  A|-------------------------------|-------------------------------|
  E|-------------------------------|-------------------------------|





  e|------- ------- ------- -------|------- ------- ------- -------|
  B|----------------------------6--|-------------------------------|
  G|----------------------------5--|----------------------------5--|
  D|7---7---9---9---7---7---5H7-7--|7---7---9---9---7---7---5H7-7--|
  A|5---5---5---5---5---5---5------|5---5---5---5---5---5---5------|
  E|-------------------------------|-------------------------------|
            Come                            Yeah
                together
  e|------- ------- ------- -------|------- ------- ------- -------|
  B|--------6---3-----------1------|----0--------------------------|
  G|--------5---4-----------2------|----0-----------2--------------|
  D|----0---------------0----------|0---------------3--------------|
  A|-------------------------------|------------5------------------|
  E|-------------------------------|-------------------------------| 

  e|------- ------- ------- -------|------- ------- ------- -------|
  B|13B15-~------------------------|-------------------------------|
  G|-------------------------------|--------------------10-B13R12P10
  D|-------------------------------|-------------------------------|
  A|-------------------------------|-------------------------------|
  E|-------------------------------|-------------------------------|





  e|------- ------- ------- -------|------- ------- ------- -------|
  B|-------------------------------|-------------------------------|
  G|--------------------------5----|--------------------------7----|
  D|7---7---9---9---7---7-5H7---5H7|7---7---9---9---7---7-7/9---9\7|
  A|5---5---5---5---5---5-5-----5--|5---5---5---5---5---5----------|
  E|-------------------------------|-------------------------------|
            Come                    Yeah
                together
  e|------- ------- ------- -------|------- ------- ------- -------|
  B|--------6---3-----------1------|----0--------------------------|
  G|--------5---4-----------2------|----0-----------2--------------|
  D|----0---------------0----------|0---------------3--------------|
  A|-------------------------------|------------5------------------|
  E|-------------------------------|-------------------------------| 

                                                             B R
  e|------- ------- ------- -------|------- ------- ------- 131513-|
  B|13B15-~------------------------|--------------------15--------15
  G|-------------------------------|-------------------------------|
  D|-------------------------------|-------------------------------|
  A|-------------------------------|-------------------------------|
  E|-------------------------------|-------------------------------|





  e|------- ------- ------- -------|------- ------- ------- -------|
  B|-------------------------------|-------------------------------|
  G|--------------------------7-7--|--------------------------7----|
  D|7---7---9---9---7---7-7/9---9\7|7---7---9---9---7---7-7/9--9\7-|
  A|5---5---5---5---5---5-5--------|5---5---5---5---5---5----------|
  E|-------------------------------|-------------------------------|
            Come                    Yeah
                together
  e|------- ------- ------- -------|------- ------- ------- -------|
  B|--------6---3-----------1------|----0--------------------------|
  G|--------5---4-----------2------|----0-----------2-----------2--|
  D|----0---------------0----------|0---------------3-----------3--|
  A|-------------------------------|------------5---------------5--|
  E|-------------------------------|-------------------------------| 

  e|------- ------- ------- -------|------- ------- ------- -------|
  B|13B15-~------------------------|-------------------------------|
  G|-------------------------------|-------------------14--B19R17P14
  D|-------------------------------|-------------------------------|
  A|-------------------------------|-------------------------------|
  E|-------------------------------|-------------------------------|





  e|------- ------- ------- -------|------- ------- ------- -------|
  B|--------------------------8----|--------------------------6-6--|
  G|--------------------------7-7--|--------------------------5-5--|
  D|7---7---9---9---7---7-7/9---9\7|7---7---9---9---7---7-5H7---7--|
  A|5---5---5---5---5---5----------|5---5---5---5---5---5-5--------|
  E|-------------------------------|-------------------------------|
            Come                    Yeah
                together 
  e|------- ------- ------- -------|------- ------- ------- -------|
  B|--------6---3-----------1------|----0--------------------------|
  G|--------5---4-----------2------|----0-----------2-----------2--|
  D|----0---------------0----------|0---------------3-----------3--|
  A|-------------------------------|------------5---------------5--|
  E|-------------------------------|-------------------------------| 
                                                      
  e|15B17-~ ------- ------- -------|------- ------- ----151715171513
  B|-------------------------------|---------------------B---B-R-P-|
  G|-------------------------------|-------------------------------|
  D|-------------------------------|-------------------------------|
  A|-------------------------------|-------------------------------|
  E|-------------------------------|-------------------------------|





  e|------- ------- ------- -------|------- ------- ------- -------|
  B|-------------------------------|-------------------------------|
  G|--------------------------5----|--------------------------5----|
  D|7---7---9---9---7---7-5H7------|7---7---9---9---7---7-5H7---7--|
  A|5---5---5---5---5---5-5--------|5---5---5---5---5---5-5-----5--|
  E|-------------------------------|-------------------------------|
            Come                    Yeah
                together
  e|------- ------- ------- -------|------- ------- ------- -------|
  B|--------6---3-----------1------|----0--------------------------|
  G|--------5---4-----------2------|----0-----------2-----------2--|
  D|----0---------------0----------|0---------------3-----------3--|
  A|-------------------------------|------------5---------------5--|
  E|-------------------------------|-------------------------------| 
                                                          
  e|15B17-~ ------- ------- -------|------- ------- ----17- 202220-|    
  B|-------------------------------|-------------------------B-R---|
  G|-------------------------------|-------------------------------|
  D|-------------------------------|-------------------------------|
  A|-------------------------------|-------------------------------|
  E|-------------------------------|-------------------------------|





  e|------- ------- ------- -------|------- ------- ------- -------|
  B|-------------------------------|----------------------------6--|
  G|--------------------------5----|--------------------------5-5--|
  D|7---7---9---9---7---7-5H7-7-7--|7---7---9---9---7---7-5H7------|
  A|5---5---5---5---5---5-5-----5--|5---5---5---5---5---5-5--------|
  E|-------------------------------|-------------------------------|
            Come                Yeah
                together
  e|------- ------- ------- -------|------- ------- ------- -------|
  B|--------6---3-----------1------|----0--------------------------|
  G|--------5---4-----------2------|----0-----------2--------------|
  D|----0---------------0----------|0---------------3--------------|
  A|-------------------------------|------------5------------------|
  E|-------------------------------|-------------------------------| 
                                                       
  e|20B22-~ ------- ------- -------|------- ------- ----17- 20222017  
  B|-------------------------------|-------------------------B-R-P-|
  G|-------------------------------|-------------------------------|
  D|-------------------------------|-------------------------------|
  A|-------------------------------|-------------------------------|
  E|-------------------------------|-------------------------------|





  e|------- ------- ------- -------|------- ------- ------- -------|
  B|--------------------------6-6--|--------------------------6-6--|
  G|--------------------------5-5--|--------------------------5-5--|
  D|7---7---9---9---7---7-5H7------|7---7---9---9---7---7-5H7------|
  A|5---5---5---5---5---5-5--------|5---5---5---5---5---5-5--------|
  E|-------------------------------|-------------------------------|
            Come                Yeah
                together
  e|------- ------- ------- -------|------- ------- ------- -------|
  B|--------6---3-----------1------|----0--------------------------|
  G|--------5---4-----------2------|----0-----------2--------------|
  D|----0---------------0----------|0---------------3--------------|
  A|-------------------------------|------------5------------------|
  E|-------------------------------|-------------------------------| 
                                                          
  e|20B22-~ ------- ------- -------|------- ------- ---13-- 15161513
  B|-------------------------------|-------------------------B-R-P-|
  G|-------------------------------|-------------------------------|
  D|-------------------------------|-------------------------------|
  A|-------------------------------|-------------------------------|
  E|-------------------------------|-------------------------------|





  e|------- ------- ------- -------|------- ------- ------- -------|
  B|--------------------------6-6--|-------------------------------|
  G|--------------------------5-5--|-------------------------------|
  D|7---7---9---9---7---7-5H7------|7---7---9---9---7---7-5H7-7-7--|
  A|5---5---5---5---5---5-5--------|5---5---5---5---5---5-5-----5--|
  E|-------------------------------|-------------------------------|
            Ah!
  e|------- ------- ------- -------|------- ------- ------- -------|
  B|--------6---3-----------1------|----0--------------------------|
  G|--------5---4-----------2------|----0-----------2--------------|
  D|----0---------------0----------|0---------------3--------------|
  A|-------------------------------|------------5------------------|
  E|-------------------------------|-------------------------------| 

  e|15B17-~ ------- ------- -------|------- ------- ------- -------|
  B|-------------------------------|-------------------------------|
  G|-------------------------------|--------------------10-B13R12P10
  D|-------------------------------|-------------------------------|
  A|-------------------------------|-------------------------------|
  E|-------------------------------|-------------------------------|





  e|------- ------- ------- -------|------- ------- ------- -------|
  B|--------------------------8----|--------------------------8----|
  G|--------------------------7-7--|--------------------------7-7--|
  D|7---7---9---9---7---7-7/9---9\7|7---7---9---9---7---7-7/9---9\7|
  A|5---5---5---5---5---5-5--------|5---5---5---5---5---5----------|
  E|-------------------------------|-------------------------------|
            Come                Yeah
                together
  e|------- ------- ------- -------|------- ------- ------- -------|
  B|--------6---3-----------1------|----0--------------------------|
  G|--------5---4-----------2------|----0-----------2--------------|
  D|----0---------------0----------|0---------------3--------------|
  A|-------------------------------|------------5------------------|
  E|-------------------------------|-------------------------------| 
                                                       
  e|------- ------- ------- -------|------- ------- ------- ---R---|
  B|13B15-~------------------------|--------------------1315131513-|
  G|-------------------------------|---------------------B---B---15|
  D|-------------------------------|-------------------------------|
  A|-------------------------------|-------------------------------|
  E|-------------------------------|-------------------------------|
    ............................. Fade ............................




  e|------- ------- ------- -------|------- ------- ------- -------|
  B|-------------------------------|-------------------------------|
  G|--------------------------7-7--|-------------------------------|
  D|7---7---9---9-------7-7/9---9--|7---7---9---9---7---7---9---9--|
  A|5---5---5---5-------5----------|5---5---5---5---5---5---5---5--|
  E|-------------------------------|-------------------------------|
            Come                Yeah
                together
  e|------- ------- ------- -------|------- ------- ------- -------|
  B|--------6---3-----------1------|----0--------------------------|
  G|--------5---4-----------2------|----0-----------2--------------|
  D|----0---------------0----------|0---------------3--------------|
  A|-------------------------------|------------5------------------|
  E|-------------------------------|-------------------------------| 

  e|------- ------- ------- -------|------- ------- ------- -------|
  B|13B15-~------------------------|-------------------------------|
  G|-------------------------------|-------------------------------|
  D|-------------------------------|-------------------------------|
  A|-------------------------------|-------------------------------|
  E|-------------------------------|-------------------------------|
    ...............................................................




        B  Bend
        R  Release
        /  Slide up
        \  Slide down
        H  Hammer-on
        P  Pull-off
        ~  Vibrato
        +  Harmonic
        x  Mute note
        .  Play note like a dot in standard notation
        ^  Ties two notes together
        (. Pause



  ---------------------------------------------------------

  THE BEATLES - SOMETHING (Harrison) From ABBEY ROAD album. 
                Released 26th September 1969.

  ---------------------------------------------------------

  Tabbed by:PJVillanueva





  Something in the way she moves
  Attracts me like no other lover
  Something in the way she woos me

  I don’t want to leave her now
  You know I believe and how

  Somewhere in her smile she knows
  That I don’t need no other lover
  Something in her style that shows me

  Don’t want to leave her now
  You know I believe and how

  You’re asking me will my love grow
  I don’t know, I don’t know
  You stick around now it may show
  I don’t know, I don’t know

  Something in the way she knows
  And all I have to do is think of her
  Something in the things she shows me

  Don’t want to leave her now
  You know I believe and how 



                            xxxxxx  x
                                    F               Eb      G
  e|------- ------- ------- -------|----5-- 5---5-- 3------ 3------|
  B|-------------------------------|----6---6---6---4-------3------|
  G|-------------------------------|----5---5---5---3-------4------|
  D|-------------------------------|3---3---3---3---5-------5------|
  A|-------------------------------|-------------------------------|
  E|-------------------------------|-------------------------------|
                                       
  e|------- ------- ------- -------|------- ------- ------- -------|
  B|-------------------------------|----10-B13R-10--11-~----12-~---|
  G|-------------------------------|-------------------------------|
  D|-------------------------------|-------------------------------|
  A|-------------------------------|-------------------------------|
  E|-------------------------------|-------------------------------|




    C                               Cmaj7
  e|0------ 0-----0 ----0-- 0------|0---0-- 0------ ------- 0------|
  B|1-------1-----1-----1---1------|0---0---0---------------0------|
  G|0-------0-----0-----0---0------|0---0---0---------------0------|
  D|2-------2-----2-----2---2------|2---2---2---------------2------|
  A|3-------3-----3-----3---3------|3---3---3---3---3---3-------3--|
  E|-------------------------------|-------------------------------|
    Something               she moves
         in  the way
  e|------- ------- ------- -------|------- ------- ------- -------|
  B|13-~---------------------------|-------------------------------|
  G|-------------------------------|-------------------------------|
  D|-------------------------------|-------------------------------|
  A|-------------------------------|-------------------------------|
  E|-------------------------------|-------------------------------|




    C7                              F
  e|0------ 0------ ----0-- 0-0-0--|1------ 1---1-- ------1 ----1--|
  B|1-------1-----------1---1-1-1--|1-------1---1---------1-----1--|
  G|3-------3-----------3---3-3-3--|2-------2---2---------2-----2--|
  D|2-------2-----------2---2-2-2--|3-------3---3---3-------2------|
  A|3-------3-----------3---3-3-3--|-------------------------------|
  E|-------------------------------|-------------------------------|
         Attracts like  no  other lover
              me 


    D               D7              G
  e|2------ --2---- 2-----2 --2---2|3------ --3---- ------- -------|
  B|3---------3-----1-----1---1---1|0-----------1--/3--------------|
  G|2---------2-----2-----2---2---2|0-------2-----2/4--------------|
  D|0---------0-----0-----0---0---0|-------------------------------|
  A|-------------------------------|-------------------------------|
  E|-------------------------------|-------------------------------|
    Something               she woos    me                        I
          in  the way



    Am              Ammaj7          Am7             Am6
  e|0------ 0------ 0------ 0------|0------ 0------ 0------ 0------|
  B|1-------1-------1-------1------|1-------1-------1-------1------|
  G|2-------2-------1-------1------|0-------0-------2-------2------|
  D|2-------2-------2-------2------|2-------2-------4-------4------|
  A|0-------0-------0-------0------|0-------0-------0-------0------|
  E|-------------------------------|-------------------------------|
    don’t      her now          You know  
      want                            I believe 
       to leave                               and how
  e|12--12- 12--12- 12--12- 12--12-|12--12- 12--12- 12--12- 12--12-|
  B|13--13--13--13--13--13--13--13-|13--13--13--13--13--13--13--13-|
  G|14--14--14--14--13--13--13--13-|12--12--12--12--11--11--11--11-|
  D|-------------------------------|-------------------------------|
  A|-------------------------------|-------------------------------|
  E|-------------------------------|-------------------------------|

  e|------- ------- ------- -------|------- ------- ------- -------|
  B|-------------------------------|-------------------------------|
  G|--------------------7-7-7/9-~--|----------------------7/9-~----|
  D|-------------------------------|-------------------------------|
  A|-------------------------------|-------------------------------|
  E|-------------------------------|-------------------------------|




    F               Eb      G
  e|----5-- 5---5-- 3------ 3------|
  B|----6---6---6---4-------3------|
  G|----5---5---5---3-------4------|
  D|----3---3---3---5-------5------|
  A|-------------------------------|
  E|-------------------------------|

  e|------- ------- ------- -------|
  B|----10-B13R-10--11-~----12-~---|
  G|-------------------------------|
  D|-------------------------------|
  A|-------------------------------|
  E|-------------------------------|       




    C                               Cmaj7
  e|0------ 0------ 0------ 0------|----0-- ----0-- 0------ 0------|
  B|1-------1-------1-------1------|----0-------0---0-------0------|
  G|0-------0-------0-------0------|----0-------0---0-------0------|
  D|2-------2-------2-------2------|----2-------2---2-------2------|
  A|3-------3-------3-------3------|----3-------3---3-------3------|
  E|-------------------------------|-------------------------------|
    Somewhere               she knows   
         in   her smile
  e|------- ------- ------- -------|------- ------- ------- -------|
  B|13-~---------------------------|-------------------------------|
  G|-------------------------------|-------------------------------|
  D|-------------------------------|-------------------------------|
  A|-------------------------------|-------------------------------|
  E|-------------------------------|-------------------------------|




    C7                              F
  e|0------ 0------ 0------ -------|1------ 1---1-- 1------ 1------|
  B|1-------1-------1--------------|1-------1---1---1-------1------|
  G|3-------3-------3--------------|2-------2---2---2-------2------|
  D|2-------2-------2--------------|3-------3---3---3-------2------|
  A|3-------3-------3--------------|-------------------------------|
  E|-------------------------------|-------------------------------|
       That   don’t need    other lover
          I             no 

                                                        x   XXXX
    D7                              G
  e|2------ 2------ ------- -------|3---3-3 ----3-3 ------- -------|
  B|1-------1----------------------|0---0-0H1---1-1/3--------------|
  G|2-------2----------------------|0---0-0H2---2-2/4--------------|
  D|0-------0----------------------|-------------------------------|
  A|-------------------------------|-------------------------------|
  E|-------------------------------|-------------------------------|
    Something           that   shows    me                       
         in  her style 


    Am              Ammaj7          Am7             Am6
  e|0------ 0------ 0------ 0------|0------ 0------ 0------ 0------|
  B|1-------1-------1-------1------|1-------1-------1-------1------|
  G|2-------2-------1-------1------|0-------0-------2-------2------|
  D|2-------2-------2-------2------|2-------2-------4-------4------|
  A|0-------0-------0-------0------|0-------0-------0-------0------|
  E|-------------------------------|-------------------------------|
    Don’t      her now          You know  
      want                            I believe 
       to leave                               in  how
  e|12--12- 12--12- 12--12- 12--12-|12--12- 12--12- 12--12- 12--12-|
  B|13--13--13--13--13--13--13--13-|13--13--13--13--13--13--13--13-|
  G|14--14--14--14--13--13--13--13-|12--12--12--12--11--11--11--11-|
  D|-------------------------------|-------------------------------|
  A|-------------------------------|-------------------------------|
  E|-------------------------------|-------------------------------|

  e|------- ------- ------- -------|------- ------- ------- -------|
  B|-------------------------------|-------------------------------|
  G|-------------------------------|------------------------7/9-5-~|
  D|-------------------------------|-------------------------------|
  A|-------------------------------|-------------------------------|
  E|-------------------------------|-------------------------------|




    F               Eb      G       A
  e|----5-- 5---5-- 3------ 3------|5------ ------- ----5-- 5---5--|
  B|----6---6---6---4-------3------|5-------------------5---5---5--|
  G|----5---5---5---3-------4------|6-------------------6---6---6--|
  D|----3---3---3---5-------5------|7-------------------7---7---7--|
  A|-------------------------------|-------------------------------|
  E|-------------------------------|-------------------------------| 

  e|------- ------- ------- -------|------- ------- ------- -------|
  B|----10-B13R-10--11-~----12-~-12/14-----------------------------|
  G|-------------------------------|-------------------------------|
  D|-------------------------------|-------------------------------|
  A|-------------------------------|-------------------------------|
  E|-------------------------------|-------------------------------|




                    Dbm                 F#m         E
  e|----5-- --5---- 4---4-- --4----|----2-- --2---2 0---0-- --0----|
  B|----5-----5-----5---5-----5----|----2-----2---2-0---0-----0----|
  G|----6-----6-----6---6-----6----|----2-----2---2-1---1-----1----|
  D|----7-----7-----6---6-----6----|----4-----4---4-2---2-----2----|
  A|----7-----7-----4---4-----4----|----4-----4---4-2---2-----2----|
  E|----5-----5--------------------|----2-----2---2-0---0-----0----|
          You’re        will  love                          I don't 
            asking        my      grow                            know
                  me


    D               G               A
  e|2-----2 ----2-- 3------ -------|------- ------- ------- -------|
  B|3-----3-----3---3--------------|2-----------2-----------2------|
  G|2-----2-----2---0--------------|2-----------2-----------2------|
  D|0-----0-----0---0--------------|2-----------2-----------2------|
  A|-------------------------------|0------------------------------|
  E|----------------3--------------|------4-----3-----2-----1---0--|
                I             don't know



                    Dbm             F#m             E
  e|----5-- --5---- 4---4-- --4---4|----2-- --2---2 0---0-- --0----|
  B|----5-----5-----5---5-----5---5|----2-----2---2-0---0-----0----|
  G|----6-----6-----6---6-----6---6|----2-----2---2-1---1-----1----|
  D|----7-----7-----6---6-----6---6|----4-----4---4-2---2-----2----|
  A|----7-----7-----4---4-----4---4|----4-----4---4-2---2-----2----|
  E|----5-----5--------------------|----2-----2---2-0---0-----0----|
         You  around    now it    show                      I don't
            stick             may                                 know


    D               G               C                           G
  e|2---2-- --2---- 3---3-- ----3--|0-----0 ----0-- --0---- -------|
  B|3---3-----3-----3---3-------3--|1-----0-----1-----1------------|
  G|2---2-----2-----0---0-------0--|0-----0-----2-----0-----0---0--|
  D|0---0-----0-----0---0-------0--|2-----2-----2-----2-----2---0--|
  A|----------------2---2-------2--|3-----3-----3-----3-----3---2--|
  E|----------------3---3-------3--|----------------------------3--|
              I               don't know



    C                               Cmaj7
  e|0------ 0------ ------0 0------|0------ 0------ ------3 0------|
  B|1-------1-------------1-1------|0-------0-------------0-0------|
  G|0-------0-------------0-0------|0-------0-------------0-0------|
  D|2-------2-------------2-2------|2-------2-------------2-2------|
  A|3-------3-------------3-3------|3-------3-------------3-3------|
  E|-------------------------------|-------------------------------|
                                            B  B R
  e|------- ------- ------- -------|------- ------- ------- -------|
  B|------------8------------------|--------8108108----------------|
  G|--------7H9-----9-~------------|----7H9---------9-~------------|
  D|-------------------------------|-------------------------------|
  A|-------------------------------|-------------------------------|
  E|-------------------------------|-------------------------------|




    C7                              F
  e|0------ 0------ 0-----0 --0-0--|1------ 1------ 1-----1 1---1--|
  B|1-------1-------1-----1---1-1--|1-------1-------1-----1-1---1--|
  G|3-------3-------3-----3---3-3--|2-------2-------2-----2-2---2--|
  D|2-------2-------2-----2---2-2--|3-------3-------3-------2------|
  A|3-------3-------3-----3---3-3--|-------------------------------|
  E|-------------------------------|-------------------------------|
            H                 B R  B R
  e|------- ------- ------- -------|------- ------- --8-8\- -------|
  B|--------810-8---11--13--13-1513|171513---------/10--------8-8\-|
  G|----7B9------------------------|--------14-~-----------/9------|
  D|-------------------------------|-------------------------------|
  A|-------------------------------|-------------------------------|
  E|-------------------------------|-------------------------------|




    D7                              G
  e|2------ 2-----2 2-----2 -------|3---3-3 3-3-3-- 3------ -------|
  B|1-------1-----1-1-----1--------|0---0-0H1-1-1-/-2--------------|
  G|2-------2-----2-2-----2--------|0---0-0H2-2-2-/-4--------------|
  D|0-------0-----0-0-----0--------|-------------------------------|
  A|-------------------------------|-------------------------------|
  E|-------------------------------|-------------------------------|
                                   B R B R
  e|------- ------- ------- -------|------- ------- 9-8-7--/12-11-10
  B|-----------------------B12-R-10|121012108----8-----------------|
  G|------------------11-11--------|-------------------------------|
  D|7-~-------B9R7-/12-------------|-------------------------------|
  A|-------------------------------|-------------------------------|
  E|-------------------------------|-------------------------------|




    Am              Ammaj7          Am7             Am6
  e|------- ----0-- 0------ ----0--|0-----0 ----0-- 0-----0 ----0--|
  B|------------1---1-----------1--|1-----1-----1---1-----1-----1--|
  G|------------2---1-----------1--|0-----0-----0---2-----2-----2--|
  D|------------2---2-----------2--|2-----2-----2---4-----4-----4--|
  A|------------0---0-----------0--|0-----0-----0---0-----0-----0--|
  E|-------------------------------|-------------------------------|

  e|12--12- 12--12- 12--12- 12--12-|12--12- 12--12- 12--12- 12--12-|
  B|13--13--13--13--13--13--13--13-|13--13--13--13--13--13--13--13-|
  G|14--14--14--14--13--13--13--13-|12--12--12--12--11--11--11--11-|
  D|-------------------------------|-------------------------------|
  A|-------------------------------|-------------------------------|
  E|-------------------------------|-------------------------------|
           (3B)            (4B)
  e|------- ------- ------- -------|------- ------- 12-10-8H10--8--|
  B|-------------------------------|--------------8----------------|
  G|---B9R7B9R7B9R75---B9R7B9R7B9R75---B9R7B9R75/9-----------------|
  D|-------------------------------|-------------------------------|
  A|-------------------------------|-------------------------------|
  E|-------------------------------|-------------------------------|




    F               Eb      G
  e|5------ 5---5-- 3------ 3------|
  B|6-------6---6---4-------3------|
  G|5-------5---5---3-------4------|
  D|3-------3---3---5-------5------|
  A|-------------------------------|
  E|-------------------------------|

  e|------- ------- ------- -------|
  B|10------13\10---11-~----12-~---|
  G|-------------------------------|
  D|-------------------------------|
  A|-------------------------------|
  E|-------------------------------|     




    C                               Cmaj7
  e|0------ 0------ ------- 0------|0------ 0-----0 0---0-- 0-0-0--|
  B|1-------1---------------1------|0-------0-----0-0---0---0-0-0--|
  G|0-------0---------------0------|0-------0-----0-0---0---0-0-0--|
  D|2-------2---------------2------|2-------2-----2-2---2---2-2-2--|
  A|3-------3---------------3------|3-------3-----3-3---3---3-3-3--|
  E|-------------------------------|-------------------------------|
    Something               she knows
         in  the way
  e|------- ------- ------- -------|------- ------- ------- -------|
  B|13-~---------------------------|-------------------------------|
  G|-------------------------------|-------------------------------|
  D|-------------------------------|-------------------------------|
  A|-------------------------------|-------------------------------|
  E|-------------------------------|-------------------------------|




    C7                              F
  e|0------ 0-----0 --0-0-- 0---0--|1------ ------- ------1 -------|
  B|1-------1-----1---1-1---1---1--|1---------------------1-1------|
  G|3-------3-----3---3-3---3---3--|2---------------------2-2------|
  D|2-------2-----2---2-2---2---2--|3---------------3-------2------|
  A|3-------3-----3---3-3---3---3--|-------------------------------|
  E|-------------------------------|-------------------------------|
      And all I have    to      is  think her 
                          do            of 
 

    D               D               G
  e|2------ 2------ 2------ -------|3---3-3 --3-3-3 --3-3-- 3------|
  B|3-------3-------1--------------|0---0-0H1-1-1-1/3-3-3---3------|
  G|2-------2-------2--------------|0---0-0H2-2-2-2/4-4-4---4------|
  D|0-------0-------0--------------|-------------------------------|
  A|-------------------------------|-------------------------------|
  E|-------------------------------|-------------------------------|
    Something           she     shows   me                        I
         in   the things



    Am              Ammaj7          Am7             Am6
  e|0------ 0------ ------- 0------|0------ 0------ ------- 0------|
  B|1-------1---------------1------|1-------1---------------1------|
  G|2-------2---------------1------|0-------0---------------2------|
  D|2-------2---------------2------|2-------2---------------4------|
  A|0-------0---------------0------|0-------0---------------0------|
  E|-------------------------------|-------------------------------|
    don’t      her now          You know  
      want                            I believe 
       to leave                               and how                 
  e|12--12- 12--12- 12--12- 12--12-|12--12- 12--12- 12--12- 12--12-|
  B|13--13--13--13--13--13--13--13-|13--13--13--13--13--13--13--13-|
  G|14--14--14--14--13--13--13--13-|12--12--12--12--11--11--11--11-|
  D|-------------------------------|-------------------------------|
  A|-------------------------------|-------------------------------|
  E|-------------------------------|-------------------------------|

  e|------- ------- ------- -------|------- ------- ------- -------|
  B|-------------------------------|----------------------------8--|
  G|-------------------------------|----------------------7/9------|
  D|-------------------------------|-------------------------------|
  A|-------------------------------|-------------------------------|
  E|-------------------------------|-------------------------------|




    F               Eb      G       A
  e|5---5-- 5---5-- 3------ 3------|5------ ------- --5-5-5 5-5-5--|
  B|6---6---6---6---4-------3------|5-----------------5-5-5-5-5-5--|
  G|5---5---5---5---3-------4------|6-----------------6-6-6-6-6-6--|
  D|3---3---3---3---5-------5------|7-----------------7-7-7-7-7-7--|
  A|-------------------------------|-------------------------------|
  E|-------------------------------|-------------------------------|

  e10/12--- ------- ------- -------|------- ------- ----16-15-14---|
  B|----10-B13R-10--11-~----12-~-12|14-~------------14--14---------|
  G|-------------------------------|-------------------------------|
  D|-------------------------------|-------------------------------|
  A|-------------------------------|-------------------------------|
  E|-------------------------------|-------------------------------|



                                   (.
    F               Eb      G       C                               
  e|5---5-- 5---5-- 3------ 3------|3------ ------- ------- -------|
  B|6---6---6---6---4-------3------|5------------------------------|
  G|5---5---5---5---3-------4------|5------------------------------|
  D|3---3---3---3---5-------5------|5------------------------------|
  A|-------------------------------|-------------------------------|
  E|-------------------------------|-------------------------------|

  e|------- ------- ------- -----7/|8------ ------- ------- -------|
  B|-----------------------------7/|8------------------------------|
  G|-----------------------------8/|9------------------------------|
  D|-----------------------------9/10------------------------------|
  A|-------------------------------|-------------------------------|
  E|-------------------------------|-------------------------------|

  e|------- ------- ------- -------|------- ------- ------- -------|
  B|----10-B13R-10--11-~----12-~-12|13--~--------------------------|
  G|-------------------------------|-------------------------------|
  D|-------------------------------|-------------------------------|
  A|-------------------------------|-------------------------------|
  E|-------------------------------|-------------------------------|




        B  Bend
        R  Release
        /  Slide up
        \  Slide down
        H  Hammer-on
        P  Pull-off
        ~  Vibrato
        +  Harmonic
        x  Mute note
        .  Play note like a dot in standard notation
        ^  Ties two notes together
        (. Pause



  -------------------------------------------------------------

  THE BEATLES - MAXWELL'S SILVER HAMMER (Lennon/McCartney) From
                ABBEY ROAD album. Released on 26th September
                1969.

  -------------------------------------------------------------

  Tabbed by:PJVillanueva





  Joan was quizzical; studied pataphysical
  Science in the home.
  Late nights all alone with a test tube.
  Oh, oh, oh, oh.

  Maxwell Edison, majoring in medicine,
  Calls her on the phone.
  "Can I take you out to the pictures,
  Joa, oa, oa, oan?"

  But as she's getting ready to go,
  A knock comes on the door.

  Bang! Bang! Maxwell's silver hammer
  Came down upon her head.
  Bang! Bang! Maxwell's silver hammer
  Made sure that she was dead.

  Back in school again Maxwell plays the fool again.       
  Teacher gets annoyed.
  Wishing to avoid and unpleasant
  Sce, e, e, ene,                                         

  She tells Max to stay when the class has gone away,
  So he waits behind
  Writing fifty times "I must not be
  So, o, o, o.."                         

  But when she turns her back on the boy,                 
  He creeps up from behind.              

  Bang! Bang! Maxwell's silver hammer
  Came down upon her head.
  Bang! Bang! Maxwell's silver hammer
  Made sure that she was dead.                        

  P. C. Thirty-one said, "We caught a dirty one."         
  Maxwell stands alone
  Painting testimonial pictures.
  Oh, oh, oh, oh.

  Rose and Valerie, screaming from the gallery   
  Say he must go free
  (Maxwell must go free)
  The judge does not agree and he tells them
  So, o, o, o.

  But as the words are leaving his lips,       
  A noise comes from behind.

  Bang! Bang! Maxwell's silver hammer
  Came down upon his head.
  Bang! Bang! Maxwell's silver hammer
  Made sure that he was dead.

  Whoa, oh, oh, oh.
  Silver hammer man 



                                    
  D                               B7
e|2------ 2------ 2------ 2------|2------ 2------ 2------ 2------|
B|3-------3-------3-------3------|4-------4-------4-------4------|
G|2-------2-------2-------2------|2-------2-------2-------2------|
D|0------------------------------|4-------4-------4-------4------|
A|----------------4--------------|2-----------------------2------|
E|-------------------------------|----------------2--------------|
  Joan    was    quizzical;       studied pataphysical



  Em
e|3------ 3------ 3------ 3------|3------ 3------ 3------ 3------|
B|5-------5-------5-------5------|5-------5-------5-------5------|
G|4-------4-------4-------4------|4-------4-------4-------4------|
D|2------------------------------|2-------0----------------------|
A|----------------2------------2-|----------------4-------2------|
E|-------------------------------|-------------------------------|
  Science         in      the home.



  A
e|0------ 0------ 0------ 0------|0------ 0------ 0------ 0------|
B|2-------2-------2-------2------|2-------2-------2-------2------|
G|2-------2-------2-------2------|2-------2-------2-------2------|
D|-------------------------------|2--------------------2---------|
A|0---------------4--------------|-------------0--4-------4------|
E|-------------------------------|-------------------------------|
  Late    nights  all     alone      with a   test    tube.
 


  D                               A
e|2------ 2------ 2------ 2------|0------ 0------ 0------ 0------|
B|3-------3-------3-------3------|2-------2-------2-------2------|
G|2-------2-------2-------2------|2-------2-------2-------2------|
D|0------------------------------|-------------------------------|
A|----------------4-------2------|0---------------2-------4------|
E|-------------------------------|-------------------------------|  
  Oh,             oh, oh,     oh.



  D                               B7
e|2------ 2------ 2------ 2------|2------ 2------ 2------ 2------|
B|3-------3-------3-------3------|4-------4-------4-------4------|
G|2-------2-------2-------2------|2-------2-------2-------2------|
D|0------------------------------|4-------4-------4-------4------|
A|----------------4--------------|2-----------------------2------|
E|-------------------------------|----------------2--------------|
  Maxwell         Edison,         majoring    in  medicine,



  Em
e|3------ 3------ 3------ 3------|3------ 3------ 3------ 3------|
B|5-------5-------5-------5------|5-------5-------5-------5------|
G|4-------4-------4-------4------|4-------4-------4-------4------|
D|2------------------------------|2-------0----------------------|
A|----------------2------------2-|----------------4-------2------|
E|-------------------------------|-------------------------------|
  Calls   her     on      the phone.



  A
e|0------ 0------ 0------ 0------|0------ 0------ 0------ 0------|
B|2-------2-------2-------2------|2-------2-------2-------2------|
G|2-------2-------2-------2------|2-------2-------2-------2------|
D|-------------------------------|2-----------------------2------|
A|0---------------4--------------|-------------0--4--------------|
E|-------------------------------|-------------------------------|
  "Can I          take    you out     to  the pictures,
 


  D                               A
e|2------ 2------ 2------ 2------|0------ 0------ 0------ 0------|
B|3-------3-------3-------3------|2-------2-------2-------2------|
G|2-------2-------2-------2------|2-------2-------2-------2------|
D|0------------------------------|------------------------2------|
A|----------------4-------2------|0---------------0-----4------4-|
E|-------------------------------|-------------------------------|   
  Joa,            oa, oa,     oan?"                            But


  X       x               x               x               x
  E
e|0------ ------- ------- -------|------- ------- ------- -------|
B|0------------------------------|-------------------------------|
G|1------------------------------|-------------------------------|
D|2------------------------------|-------------------------------|
A|-------------------------------|-------------------------------|
E|-------------------------------|-------------------------------|
  as      she's   getting     ready       to  go,              a


  X       x               x
  A
e|------- ------- ------- -------|------- ------- ------- -------|
B|-------------------------------|-------------------------------|
G|2------------------------------|-----2--2--------4------6------|
D|2------------------------------|-------------------------------|
A|0------------------------------|-----0--0--------2------4------|
E|-------------------------------|-------------------------------|
  knock   comes   on      the door.
 


  D
e|2------ 2------ 2------ 2------|2------ 2------ 2------ 2------|
B|3-------3-------3-------3------|3-------3-------3-------3------|
G|2-------2-------2-------2------|2-------2-------2-------2------|
D|0------------------------------|0---------------0-------1------|
A|----------------0--------------|-------------4-----------------|
E|-------------------------------|-------------------------------|   
  Bang!   Bang!   Maxwell's       silver      hammer      came
e|------- ------- ------- 5------|------- 2P0---- ------- -------|
B|3-----------------------7------|--------3P0-----3--------------|
G|2-------2----------------------|----------------2-------2----/-|
D|--------4----------------------|------------------------4----/-|
A|-------------------------------|-------------------------------|
E|-------------------------------|-------------------------------|    

e|------- ------- ------- -------|------- ------- ------- -------|
B|------------------------3------|--------3P0--------------------|
G|--------2---------------2------|--------2-------2--------------|
D|4-------4----------------------|----------------4-------4----/-|
A|5------------------------------|------------------------5----/-|
E|-------------------------------|-------------------------------|




  E
e|4------ 4------ 4------ 4------|4------ 4------ 4------ 4------|
B|5-------5-------5-------5------|5-------5-------3-------3------|
G|4-------4-------4-------4------|4-------4-------4-------4------|
D|2------------------------------|2------------------------------|
A|----------------2--------------|----------------2--------------|
E|-------------------------------|-------------------------------|
  down        upon    her     head.
e|------- ------- ------- 7------|------- ------- ------- -------|
B|5-------7---------------9------|--------9P7--------------------|
G|4-------4----------------------|--------9-------9--------------|
D|-------------------------------|----------------9--------------|
A|-------------------------------|-------------------------------|
E|-------------------------------|-------------------------------|

e|------- ------- ------- -------|------- ------- ------- -------|
B|-------------------------------|-------------------------------|
G|--------4---------------9------|--------9P6-----4-----H-7------|
D|6-------6---------------9------|--------6-------6--------------|
A|7------------------------------|-------------------------------|
E|-------------------------------|-------------------------------|




  A
e|0------ 0------ 0------ 0------|0------ 0------ ------- -------|
B|2-------2-------2-------2------|2-------2-------2-------2------|
G|2-------2-------2-------2------|2-------2-------2-------2------|
D|----------------2------------2-|-------------2--2-------2------|  
A|0------------------------------|0---------------0----4---------|
E|-------------------------------|-------------------------------|     
  Bang!   Bang!   Maxwell's       silver      hammer      made
e|------- ------- ------- 12-----|------- 10----- -9----- -------|
B|10------12--------------10-----|--------10------10------10---8-|
G|-9-------9---------------------|-------------------------9---7-|
D|-------------------------------|-------------------------------|
A|-------------------------------|-------------------------------|
E|-------------------------------|-------------------------------|

e|------- ------- ------- -------|------- ------- ------- -------|
B|10----------------------10-----|----------------10-------------|
G|-9-------9---------------9-----|---------9-------9-------9-----|
D|--------11---------------------|--------11--------------11-----|
A|-------------------------------|-------------------------------|
E|-------------------------------|-------------------------------|




  Em                              D       A       D
e|3------ 3------ 0------ 0------|2------ 0------ 2------ -------|
B|5-------5-------2-------2------|3-------2-------3--------------|
G|4-------4-------2-------2------|2-------2-------2--------------|
D|2------------------------------|0---------------0--------------|
A|--------2-------0-------2------|--------0----------------------|
E|-------------------------------|-------------------------------|
  sure    that    she was     dead.
e|------- ------- ------- -------|------- ------- 10-\--- -------|
B|8-------8--------8------8------|7--/------------10-\-----------|
G|7H9-----7------B10R9----7H9----|7--/---------------------------|
D|-------------------------------|-------------------------------|
A|-------------------------------|-------------------------------|
E|-------------------------------|-------------------------------|

e|------- ------- ------- -------|------- ------- ------- -------|
B|8-------8--------8------8------|7--/------------10-\-----------|
G|7-------7--------7------7------|7--/------------11-\-----------|
D|-------------------------------|-------------------------------|
A|-------------------------------|-------------------------------|
E|-------------------------------|-------------------------------|    




  D               F#              Bm              D7
e|2------ ------- 2------ -------|2------ ------- 2------ -------|
B|3---------------2--------------|3---------------1--------------|
G|2---------------3--------------|4---------------2--------------|
D|0---------------4--------------|4---------------0--------------|
A|----------------4--------------|2------------------------------|
E|----------------2--------------|-------------------------------|

e|------- ------- ------- -------|------- ------- ------- -------|
B|-------------------------------|3---------------1--------------|
G|----------------3--------------|-------------------------------|
D|4------------------------------|-------------------------------|
A|-------------------------------|-------------------------------|
E|-------------------------------|-------------------------------|

e|------- ------- ------- -------|------- ------- ------- -------|
B|-------------------------------|-------------------------------|
G|-------------------------------|4---------------2--------------|
D|4---------------4--------------|-------------------------------|
A|-------------------------------|-------------------------------|
E|-------------------------------|-------------------------------|




  G
e|3------ ------- ------- -------|------- ------- ------- -------|
B|3------------------------------|-------------------------------|
G|0------------------------------|-------------------------------|
D|0------------------------------|-------------------------------|
A|--------0-------2-------4------|5----7--4-------5-------0------|
E|3------------------------------|-------------------------------|

e|------- ------- 3------ 0------|2---3P2 0------ 2------ -------|
B|0-------3----------------------|------------------------3------|
G|-------------------------------|-------------------------------|
D|-------------------------------|-------------------------------|
A|-------------------------------|-------------------------------|
E|-------------------------------|-------------------------------|

e|------- ------- ------- -------|------- ------- ------- -------|
B|----------------0-------2------|3---5P3P2-------3--------------|
G|0-------2----------------------|------------------------2------|
D|-------------------------------|-------------------------------|
A|-------------------------------|-------------------------------|
E|-------------------------------|-------------------------------|




  D                               B7
e|2------ 2------ 2------ 2------|2------ 2------ 2------ 2------|
B|3-------3-------3-------3------|4-------4-------4-------4------|
G|2-------2-------2-------2------|2-------2-------2-------2------|
D|0------------------------------|4-------4-------4-------4------|
A|----------------4--------------|2-----------------------2------|
E|-------------------------------|----------------2--------------|    
  Back    in      school again    Maxwell plays   fool again.
                                              the
e|------- ------- 5------ -------|7------ ------- 14----- -------|
B|-------------------------------|-------------------------------|
G|2------------------------------|-------------------------------|
D|-------------------------------|-------------------------------|
A|-------------------------------|-------------------------------|
E|-------------------------------|-------------------------------|

e|------- ------- ------- -------|------- ------- ------- -------|
B|-------------------------------|-------------------------------|
G|-------------------------------|-------------------------------|
D|0------------------------------|-------------------------------|
A|-------------------------------|-------------------------------|
E|-------------------------------|-------------------------------|   




  Em
e|3------ 3------ 3------ 3------|3------ 3------ 3------ 3------|
B|5-------5-------5-------5------|5-------5-------5-------5------|
G|4-------4-------4-------4------|4-------4-------4-------4------|
D|2------------------------------|2-------0----------------------|
A|----------------2------------2-|----------------4-------2------|
E|-------------------------------|-------------------------------|
  Teacher         gets    annoyed.
e|12----- ------- ------- -------|12----- 14----- 15----- 12-----|
B|----------------12-------------|-------------------------------|
G|-------------------------------|-------------------------------|
D|-------------------------------|-------------------------------|
A|-------------------------------|-------------------------------|
E|-------------------------------|-------------------------------|




  A
e|0------ 0------ 0------ 0------|0------ 0------ 0------ 0------|
B|2-------2-------2-------2------|2-------2-------2-------2------|
G|2-------2-------2-------2------|2-------2-------2-------2------|
D|-------------------------------|2--------------------2---------|
A|0---------------4--------------|-------------0--4-------4------|
E|-------------------------------|-------------------------------|
  Wishing         to      avoid       an  unpleasant
e|------- ------- ------- -------|12----- ------- ------- -------|
B|14----------------------15-----|-------------------------------|
G|-------------------------------|----------------14-------------|
D|-------------------------------|-------------------------------|
A|-------------------------------|-------------------------------|
E|-------------------------------|-------------------------------|

 


  D                               A
e|2------ 2------ 2------ 2------|0------ 0------ 0------ 0------|
B|3-------3-------3-------3------|2-------2-------2-------2------|
G|2-------2-------2-------2------|2-------2-------2-------2------|
D|0------------------------------|-------------------------------|
A|----------------4-------2------|0---------------2-------4------|
E|-------------------------------|-------------------------------|  
  Sce,            e,  e,      ene,
e|------- ------- 14----- -------|------- ------- ------- -------|
B|15----------------------15-----|-------------------------------|
G|-------------------------------|14-----------------------------|
D|-------------------------------|-------------------------------|
A|-------------------------------|-------------------------------|
E|-------------------------------|-------------------------------|  

e|------- ------- ------- -------/5------ 5------ 5------ 3------|
B|-------------------------------/5-------5H7-----5-------3------|
G|-------------------------------|-------------------------------|
D|-------------------------------|-------------------------------|
A|-------------------------------|-------------------------------|
E|-------------------------------|-------------------------------|




  D                               B7
e|2------ 2------ 2------ 2------|2------ 2------ 2------ 2------|
B|3-------3-------3-------3------|4-------4-------4-------4------|
G|2-------2-------2-------2------|2-------2-------2-------2------|
D|0------------------------------|4-------4-------4-------4------|
A|----------------4--------------|2-----------------------2------|
E|-------------------------------|----------------2--------------|
  She     tells   Max to  stay    when the class  gone away,
                                              has
e|------- ------- ------- -------|------- ------- 14----- -------|
B|-------------------------------|12-----------------------------|
G|----------------14-------------|-------------------------------|
D|12-----------------------------|-------------------------------|
A|-------------------------------|-------------------------------|
E|-------------------------------|-------------------------------|

e|2------ ------- ------- -------|------- ------- ------- -------|
B|3------------------------------|-------------------------------|
G|-------------------------------|-------------------------------|
D|-------------------------------|-------------------------------|
A|-------------------------------|-------------------------------|
E|-------------------------------|-------------------------------|




  Em   
e|3------ 3------ 3------ 3------|3------ 3------ 3------ 3------|
B|5-------5-------5-------5------|5-------5-------5-------5------|
G|4-------4-------4-------4------|4-------4-------4-------4------|
D|2------------------------------|2-------0----------------------|
A|----------------2------------2-|----------------4-------2------|
E|-------------------------------|-------------------------------|
  So      he      waits   behind
e|12----- ------- ------- -------|12----- 14----- 15----- 12-----|
B|----------------12-------------|-------------------------------|
G|-------------------------------|-------------------------------|
D|-------------------------------|-------------------------------|
A|-------------------------------|-------------------------------|
E|-------------------------------|-------------------------------|




  A
e|0------ 0------ 0------ 0------|0------ 0------ 0------ 0------|
B|2-------2-------2-------2------|2-------2-------2-------2------|
G|2-------2-------2-------2------|2-------2-------2-------2------|
D|-------------------------------|2-----------------------2------|
A|0---------------4--------------|-------------0--4--------------|
E|-------------------------------|-------------------------------|
  Writing         fifty       times  "I   must not     be
e|------- ------- ------- -------|12----- ------- ------- -------|
B|14----------------------15-----|-------------------------------|
G|-------------------------------|----------------14-------------|
D|-------------------------------|-------------------------------|
A|-------------------------------|-------------------------------|
E|-------------------------------|-------------------------------|

 


  D                               A
e|2------ 2------ 2------ 2------|0------ 0------ 0------ 0------|
B|3-------3-------3-------3------|2-------2-------2-------2------|
G|2-------2-------2-------2------|2-------2-------2-------2------|
D|0------------------------------|------------------------2------|
A|----------------4-------2------|0---------------0-----4------4-|
E|-------------------------------|-------------------------------|   
  So,             o,  o,      o.."                             But
e|------- ------- 14----- -------|------- ------- ------- -------|
B|15------------------15---------|-------------------------------|
G|----------------------------14-|-------------------------------|
D|-------------------------------|-------------------------------|
A|-------------------------------|-------------------------------|
E|-------------------------------|-------------------------------|



  X       x               x               x               x
  E
e|0------ ------- ------- -------|------- ------- ------- -------|
B|0------------------------------|-------------------------------|
G|1------------------------------|-------------------------------|
D|2------------------------------|-------------------------------|
A|-------------------------------|-------------------------------|
E|-------------------------------|-------------------------------|
  when    she turns  her      back    on  the boy,             he


  X       x               x
  A5
e|------- ------- ------- -------|------- ------- ------- -------|
B|-------------------------------|-------------------------------|
G|2------------------------------|-----2--2--------4------6------|
D|2------------------------------|-------------------------------|
A|0------------------------------|-----0--0--------2------4------|
E|-------------------------------|-------------------------------|
  creeps  up      from    behind.
e|------- ------- ------- -------|------- ------- ------- -----2-|
B|-------------------------------|-----------------------------3-|
G|-------------------------------|-----------------------------2-|
D|-------------------------------|-----------------------------0-|
A|-------------------------------|-------------------------------|
E|-------------------------------|-------------------------------|

 


  D
e|2------ 2------ 2------ 2------|2------ 2------ 2------ 2------|
B|3-------3-------3-------3------|3-------3-------3-------3------|
G|2-------2-------2-------2------|2-------2-------2-------2------|
D|0------------------------------|0---------------0-------1------|
A|----------------0--------------|-------------4-----------------|
E|-------------------------------|-------------------------------|   
  Bang!   Bang!   Maxwell's       silver      hammer      came
e|------- ------- ------- 5------|------- 2P0---- ------- -------|
B|3-----------------------7------|--------3P0-----3--------------|
G|2-------2----------------------|----------------2-------2----/-|
D|--------4----------------------|------------------------4----/-|
A|-------------------------------|-------------------------------|
E|-------------------------------|-------------------------------|    

e|------- ------- ------- -------|------- ------- ------- -------|
B|------------------------3------|--------3P0--------------------|
G|--------2---------------2------|--------2-------2--------------|
D|4-------4----------------------|----------------4-------4----/-|
A|5------------------------------|------------------------5----/-|
E|-------------------------------|-------------------------------|

e|2------ 2------ 2------ 2------|2------ 2----2- 2----2- 2----0-|
B|3-------3-------3-------3------|3-------3----3--3----3--3----0-|
G|2-------2-------2-------2------|2-------2----2--2----2--2----1-|
D|0-------0-------0-------0------|0-------0----0--0----0--0----2-|
A|-------------------------------|-----------------------------2-|
E|-------------------------------|-----------------------------0-|




  E
e|4------ 4------ 4------ 4------|4------ 4------ 4------ 4------|
B|5-------5-------5-------5------|5-------5-------5-------5------|
G|4-------4-------4-------4------|4-------4-------4-------4------|
D|2------------------------------|2------------------------------|
A|----------------2--------------|----------------2--------------|
E|-------------------------------|-------------------------------|
  down        upon    her     head.
                                       (Dodo    dodooooooodo)
e|------- ------- ------- 7------|------- ------- ------- -------|
B|5-------7---------------9------|--------9P7--------------------|
G|4-------4----------------------|--------9-------9--------------|
D|-------------------------------|----------------9--------------|
A|-------------------------------|-------------------------------|
E|-------------------------------|-------------------------------|

e|------- ------- ------- -------|------- ------- ------- -------|
B|-------------------------------|-------------------------------|
G|--------4---------------9------|--------9P6-----4-----H-7------|
D|6-------6---------------9------|--------6-------6--------------|
A|7------------------------------|-------------------------------|
E|-------------------------------|-------------------------------|

e|0------ 0------ 0------ 0------|0------ 0------ 0------ 0------|
B|0-------0-------0-------0------|0-------0-------0-------0------|
G|1-------1-------1-------1------|1-------1-------1-------1------|
D|2-------2-------2-------2------|2-------2-------2-------2------|
A|2-------2-------2-------2------|2-------2-------2-------2------|
E|0-------0-------0-------0------|0-------0-------0-------0------|




  A
e|0------ 0------ 0------ 0------|0------ 0------ ------- -------|
B|2-------2-------2-------2------|2-------2-------2-------2------|
G|2-------2-------2-------2------|2-------2-------2-------2------|
D|----------------2------------2-|-------------2--2-------2------|  
A|0------------------------------|0---------------0----4---------|
E|-------------------------------|-------------------------------| 
  Bang!   Bang!   Maxwell's       silver      hammer      made
e|------- ------- ------- 12-----|------- 10----- -9----- -------|
B|10------12--------------10-----|--------10------10------10---8-|
G|-9-------9---------------------|-------------------------9---7-|
D|-------------------------------|-------------------------------|
A|-------------------------------|-------------------------------|
E|-------------------------------|-------------------------------|

e|------- ------- ------- -------|------- ------- ------- -------|
B|10----------------------10-----|----------------10-------------|
G|-9-------9---------------9-----|---------9-------9-------9-----|
D|--------11---------------------|--------11--------------11-----|
A|-------------------------------|-------------------------------|
E|-------------------------------|-------------------------------|

e|0------ 0------ 0------ 0------|0------ 0------ 0----0- 0----0-|
B|2-------2-------2-------2------|2-------2-------2----2--2----2-|
G|2-------2-------2-------2------|2-------2-------2----2--2----2-|
D|2-------2-------2-------2------|2-------2-------2----2--2----2-|
A|0-------0-------0-------0------|0-------0-------0----0--0----0-|
E|-------------------------------|-------------------------------|




  Em                              A
e|3------ 3------ 3------ 3------|------- ------- ------- -------|
B|5-------5-------5-------5------|-------------------------------|  
G|4-------4-------4-------4------|2-------2-------2-------2------|
D|2------------------------------|2-------2-------2-------2------|
A|----------------2--------------|0-------0-------2-------4------|
E|-------------------------------|-------------------------------|
  sure    that    she was     dead.
e|------- ------- ------- -------|------- ------- ------- -------|
B|8-------8--------8------8------|10-/---------------------------|
G|7H9-----7------B10R9----7H9----|-9-/---------------------------|
D|-------------------------------|-------------------------------|
A|-------------------------------|-------------------------------|
E|-------------------------------|-------------------------------|

e|------- ------- ------- -------|------- ------- ------- -------|
B|8-------8--------8------8------|10-/---------------------------|   
G|9-------7--------9------9------|-9-/---------------------------|
D|-------------------------------|-------------------------------|
A|-------------------------------|-------------------------------|
E|-------------------------------|-------------------------------|    

e|0------ 0----0- 0------ 0------|0------ 0------ 0------ 0----0-|
B|0-------0----0--0-------0------|2-------2-------2-------2----2-|
G|1-------1----1--1-------1------|2-------2-------2-------2----2-|
D|2-------2----2--2-------2------|2-------2-------2-------2----2-|
A|2-------2----2--2-------2------|0-------0-------0-------0----0-|
E|0-------0----0--0-------0------|-------------------------------|   




  D                
e|2------ 2------ 2------ 2------|2------ 2------ 2------ 2------|    
B|3-------3-------3-------3------|3-------3-------3-------3------|
G|2-------2-------2-------2------|2-------2-------2-------2------|
D|0------------------------------|0---------------0-------1------|
A|----------------0--------------|-------------4-----------------|
E|-------------------------------|-------------------------------|   
  
e|------- ------- ------- 5------|------- 2P0---- ------- -------|
B|3-----------------------7------|--------3P0-----3--------------|
G|2-------2----------------------|----------------2-------2----/-|
D|--------4----------------------|------------------------4----/-|
A|-------------------------------|-------------------------------|
E|-------------------------------|-------------------------------|    

e|------- ------- ------- -------|------- ------- ------- -------|
B|------------------------3------|--------3P0--------------------|
G|--------2---------------2------|--------2-------2--------------|
D|4-------4----------------------|----------------4-------4----/-|
A|5------------------------------|------------------------5----/-|
E|-------------------------------|-------------------------------|

e|2------ 2------ 2----2- 2------|2------ 2----2- 2----2- 2----0-|
B|3-------3-------3----3--3------|3-------3----3--3----3--3----0-|
G|2-------2-------2----2--2------|2-------2----2--2----2--2----1-|
D|0-------0-------0----0--0------|0-------0----0--0----0--0----2-|
A|-------------------------------|-----------------------------2-|
E|-------------------------------|-----------------------------0-|




  E
e|4------ 4------ 4------ 4------|4------ 4------ 4------ 4------|    
B|5-------5-------5-------5------|5-------5-------3-------3------|
G|4-------4-------4-------4------|4-------4-------4-------4------|  
D|2------------------------------|2------------------------------|
A|----------------2--------------|----------------2--------------|
E|-------------------------------|-------------------------------|
                                       (Dodo    dodooooooodo)
e|------- ------- ------- 7------|------- ------- ------- -------|
B|5-------7---------------9------|--------9P7--------------------|
G|4-------4----------------------|--------9-------9--------------|
D|-------------------------------|----------------9--------------|
A|-------------------------------|-------------------------------|
E|-------------------------------|-------------------------------|

e|------- ------- ------- -------|------- ------- ------- -------|
B|-------------------------------|-------------------------------|
G|--------4---------------9------|--------9P6-----4-----H-7------|
D|6-------6---------------9------|--------6-------6--------------|
A|7------------------------------|-------------------------------|
E|-------------------------------|-------------------------------|

e|0------ 0------ -----0- 0------|0----0- 0----0- 0------ 0------|
B|0-------0------------0--0------|0----0--0----0--0-------0------|
G|1-------1------------1--1------|1----1--1----1--1-------1------|
D|2-------2------------2--2------|2----2--2----2--2-------2------|
A|2-------2------------2--2------|2----2--2----2--2-------2------|
E|0-------0------------0--0------|0----0--0----0--0-------0------|




  A
e|0------ 0------ 0------ 0------|0------ 0------ 0------ -------|
B|2-------2-------2-------2------|2-------2-------2-------2------|
G|2-------2-------2-------2------|2-------2-------2-------2------|
D|----------------2------------2-|-------------2----------2------|  
A|0------------------------------|0---------------0----4---------|
E|-------------------------------|-------------------------------| 
  
e|------- ------- ------- 12-----|------- 10----- -9----- -------|
B|10------12--------------10-----|--------10------10------10---8-|
G|-9-------9---------------------|-------------------------9---7-|
D|-------------------------------|-------------------------------|
A|-------------------------------|-------------------------------|
E|-------------------------------|-------------------------------|

e|------- ------- ------- -------|------- ------- ------- -------|
B|10----------------------10-----|----------------10-------------|
G|-9-------9---------------9-----|---------9-------9-------9-----|
D|--------11---------------------|--------11--------------11-----|
A|-------------------------------|-------------------------------|
E|-------------------------------|-------------------------------|

e|0------ 0------ 0----0- 0------|0------ 0------ 0----0- 0----0-|
B|2-------2-------2----2--2------|2-------2-------2----2--2----0-|
G|2-------2-------2----2--2------|2-------2-------2----2--2----0-|
D|2-------2-------2----2--2------|2-------2-------2----2--2----2-|
A|0-------0-------0----0--0------|0-------0-------0----0--0----2-|
E|-------------------------------|-----------------------------0-|




  Em              A               D       A       D
e|3------ 3------ 0------ 0------|2------ 0------ 2------ -------|
B|5-------5-------2-------2------|3-------2-------3--------------|
G|4-------4-------2-------2------|2-------2-------2--------------|
D|2------------------------------|0---------------0--------------|
A|--------2-------0-------2------|--------0----------------------|
E|-------------------------------|-------------------------------|
 
e|------- ------- ------- -------|------- ------- 10-\--- -------|
B|8-------8--------8------8------|7--/------------10-\-----------|
G|7H9-----7------B10R9----7H9----|7--/---------------------------|
D|-------------------------------|-------------------------------|
A|-------------------------------|-------------------------------|
E|-------------------------------|-------------------------------|

e|------- ------- ------- -------|------- ------- ------- -------|
B|8-------8--------8------8------|7--/------------10-\-----------|
G|7-------7--------7------7------|7--/------------11-\-----------|
D|-------------------------------|-------------------------------|
A|-------------------------------|-------------------------------|
E|-------------------------------|-------------------------------|    

e|0------ 0----0- 0------ 0----0-|2------ ------- 2------ -------|
B|0-------0----0--2-------2----2-|3---------------3--------------|
G|0-------0----0--2-------2----2-|2---------------2--------------|
D|2-------2----2--2-------2----2-|0---------------0--------------|
A|2-------2----2--0-------0----0-|-------------------------------|
E|0-------0----0-----------------|-------------------------------|




  D               F#              Bm              D7
e|------- ------5 ------- ---2--6|------- ------7 ------- ------8|
B|-----------7------------2------|-----------7---------------7---|
G|--------7-------------3--------|--------7---------------7------|
D|---4--7------------4-----------|------9------------4--7--------|
A|5---------------4--------------|---9---------------------------|
E|-------------------------------|7---------------5--------------|

e|2------ ------- 2------ -------|2------ ------- 2------ -------|
B|3---------------2--------------|3---------------1--------------|
G|2---------------3--------------|4---------------2--------------|
D|0---------------4--------------|4---------------0--------------|
A|----------------4--------------|2------------------------------|
E|----------------2--------------|-------------------------------|




  G
e|7------ ------- ------- -------|------- ------- ------- -------|
B|8------------------------------|-------------------------------|
G|7------------------------------|-------------------------------|
D|-------------------------------|-------------------------------|
A|-------------------------------|-------------------------------|
E|-------------------------------|-------------------------------|

e|3------ ------- ------- -------|------- ------- ------- -------|
B|3------------------------------|-------------------------------|
G|0------------------------------|-------------------------------|
D|0------------------------------|-------------------------------|
A|--------0-------2-------4------|5----7--4-------5-------0------|
E|3------------------------------|-------------------------------|   




  D                               B7
e|2------ 2------ 2------ 2------|2------ 2------ 2------ 2------|
B|3-------3-------3-------3------|4-------4-------4-------4------|
G|2-------2-------2-------2------|2-------2-------2-------2------|
D|0------------------------------|4-------4-------4-------4------|
A|----------------4--------------|2-----------------------2------|
E|-------------------------------|----------------2--------------|    
  P.      C.      Thirty -one    said,"We caught a dirty  one."
e|------- ------- ------- -------|------- ------- ------- -------|
B|-------------------------------|--------4-------5-------7------|   
G|------------------------7------|4------------------------------|
D|--------4-------7--------------|-------------------------------|
A|5------------------------------|-------------------------------|
E|-------------------------------|-------------------------------|




  Em
e|3------ 3------ 3------ 3------|3------ 3------ 3------ 3------|
B|5-------5-------5-------5------|5-------5-------5-------5------|
G|4-------4-------4-------4------|4-------4-------4-------4------|
D|2------------------------------|2-------0----------------------|
A|----------------2------------2-|----------------4-------2------|
E|-------------------------------|-------------------------------|
  Maxwell         stands  alone
e|3------ ------- ------- -------|------- ------- ------- -------|
B|--------5----------------------|-------------------------------|
G|----------------4--------------|-------------------------------|
D|------------------------5------|--------4-------5--------------|
A|-------------------------------|7-----------------------7------|
E|-------------------------------|-------------------------------|




  A              
e|0------ 0------ 0------ 0------|0------ 0------ 0------ 0------|
B|2-------2-------2-------2------|2-------2-------2-------2------|
G|2-------2-------2-------2------|2-------2-------2-------2------|
D|-------------------------------|2--------------------2---------|
A|0---------------4--------------|-------------0--4-------4------|
E|-------------------------------|-------------------------------|
  Painting        testimonial                     pictures.
e|------- ------- ------- -------|------- ------- ------- -------|
B|-------------------------------|-------------------------------|
G|-------------------------------|-------------------------------|
D|------------------------7------|5-------4----------------------|
A|--------4-------7--------------|----------------7-------4------|
E|5------------------------------|-------------------------------|

 


  D                               A
e|2------ 2------ 2------ 2------|0------ 0------ 0------ 0------|
B|3-------3-------3-------3------|2-------2-------2-------2------|
G|2-------2-------2-------2------|2-------2-------2-------2------|
D|0------------------------------|-------------------------------|
A|----------------4-------2------|0---------------2-------4------|
E|-------------------------------|-------------------------------|  
  Oh,             oh, oh,     oh.
e|------- ------- ------- -------|------- ------- ------- -------|
B|-------------------------------|-------------------------------|
G|-------------------------------|-------------------------------|
D|--------4----------------------|-------------------------------|
A|5---------------4--------------|-------------------------------|
E|------------------------7------|5------------------------------|

e|------- ------- ------- -------|------- 5------ 5------ 3------|
B|-------------------------------|--------5H7-----5-------3------|
G|-------------------------------|-------------------------------| 
D|-------------------------------|-------------------------------|
A|-------------------------------|-------------------------------|
E|-------------------------------|-------------------------------|




  D                               B7
e|2------ 2------ 2------ 2------|2------ 2------ 2------ 2------|
B|3-------3-------3-------3------|4-------4-------4-------4------|
G|2-------2-------2-------2------|2-------2-------2-------2------|
D|0------------------------------|4-------4-------4-------4------|
A|----------------4--------------|2-----------------------2------|
E|-------------------------------|----------------2--------------|
  Rose    and     Valerie,      screaming from the gallery
e|------- ------- ------- -------|------- ------- ------- -------|
B|-------------------------------|--------4-------5-------7------|
G|------------------------7------|4------------------------------|
D|--------4-------7--------------|-------------------------------|
A|5------------------------------|-------------------------------|
E|-------------------------------|-------------------------------|
  
e|2------ ------- ------- -------|------- ------- ------- -------|
B|3------------------------------|-------------------------------|
G|-------------------------------|-------------------------------|
D|-------------------------------|-------------------------------|
A|-------------------------------|-------------------------------|
E|-------------------------------|-------------------------------|




  Em
e|3------ 3------ 3------ 3------|3------ 3------ 3------ 3------|
B|5-------5-------5-------5------|5-------5-------5-------5------|
G|4-------4-------4-------4------|4-------4-------4-------4------|
D|2------------------------------|2-------0----------------------|
A|----------------2------------2-|----------------4-------2------|
E|-------------------------------|-------------------------------|
  Say     he      must    go      free                         The
                                 (Maxwell         must    go 
e|3------ ------- ------- -------|------- ------- ------- -------|
B|--------5----------------------|-------------------------------|
G|----------------4--------------|-------------------------------|
D|------------------------5------|-------------------------------|
A|-------------------------------|7------------------------------|
E|-------------------------------|-------------------------------|
 




  A
e|0------ 0------ 0------ 0------|0------ 0------ 0------ 0------|
B|2-------2-------2-------2------|2-------2-------2-------2------|
G|2-------2-------2-------2------|2-------2-------2-------2------|
D|-------------------------------|2-----------------------2------|
A|0---------------4--------------|-------------0--4--------------|
E|-------------------------------|-------------------------------|
  judge   does    not     agree       and he  tells       them
  free)  
e|------- ------- ------- -------|------- ------- ------- -------|
B|-------------------------------|-------------------------------|
G|-------------------------------|-------------------------------|
D|------------------------7------|5-------4----------------------|
A|--------4-------7--------------|----------------7-------4------|
E|5------------------------------|-------------------------------|

 


  D                               A
e|2------ 2------ 2------ 2------|0------ 0------ 0------ 0------|
B|3-------3-------3-------3------|2-------2-------2-------2------|
G|2-------2-------2-------2------|2-------2-------2-------2------|
D|0------------------------------|------------------------2------|
A|----------------4-------2------|0---------------0-----4------4-|
E|-------------------------------|-------------------------------|
  so              o   o       o.                               But
e|------- ------- ------- -------|------- ------- ------- -------|
B|-------------------------------|-------------------------------|
G|-------------------------------|-------------------------------|
D|--------4----------------------|-------------------------------|
A|5---------------4--------------|-------------------------------|
E|------------------------7------|5------------------------------|   



  X       x               x               x               x
  E
e|0------ ------- ------- -------|------- ------- ------- -------|
B|0------------------------------|-------------------------------|
G|1------------------------------|-------------------------------|
D|2------------------------------|-------------------------------|
A|-------------------------------|-------------------------------|
E|-------------------------------|-------------------------------|
  as      the words       are leaving     his lips,            a


  X       x               x
  A
e|------- ------- ------- -------|------- ------- ------- -------|
B|-------------------------------|-------------------------------|
G|2------------------------------|-----2--2--------4------6------|
D|2------------------------------|-------------------------------|
A|0------------------------------|-----0--0--------2------4------|
E|-------------------------------|-------------------------------|    
  noise   comes   from    behind.
e|------- ------- ------- -------|------- ------- ------- -----2-|
B|-------------------------------|-----------------------------3-|
G|-------------------------------|-----------------------------2-|
D|-------------------------------|-----------------------------0-|
A|-------------------------------|-------------------------------|
E|-------------------------------|-------------------------------|



 
  D
e|2------ 2------ 2------ 2------|2------ 2------ 2------ 2------|      
B|3-------3-------3-------3------|3-------3-------3-------3------|
G|2-------2-------2-------2------|2-------2-------2-------2------|
D|0------------------------------|0---------------0-------1------|
A|----------------0--------------|-------------4-----------------|
E|-------------------------------|-------------------------------|   
  Bang!   Bang!   Maxwell's       silver      hammer      came
e|------- ------- ------- 5------|------- 2P0---- ------- -------|
B|3-----------------------7------|--------3P0-----3--------------|
G|2-------2----------------------|----------------2-------2----/-|
D|--------4----------------------|------------------------4----/-|
A|-------------------------------|-------------------------------|
E|-------------------------------|-------------------------------|    

e|------- ------- ------- -------|------- ------- ------- -------|
B|------------------------3------|--------3P0--------------------|
G|--------2---------------2------|--------2-------2--------------|
D|4-------4----------------------|----------------4-------4----/-|
A|5------------------------------|------------------------5----/-|
E|-------------------------------|-------------------------------|

e|2------ 2------ 2------ 2------|2------ 2------ 2----2- 2----0-|
B|3-------3-------3-------3------|3-------3-------3----3--3----0-|
G|2-------2-------2-------2------|2-------2-------2----2--2----1-|
D|0-------0-------0-------0------|0-------0-------0----0--0----2-|
A|-------------------------------|-----------------------------2-|
E|-------------------------------|-----------------------------0-|




  E
e|4------ 4------ 4------ 4------|4------ 4------ 4------ 4------|
B|5-------5-------5-------5------|5-------5-------5-------5------|
G|4-------4-------4-------4------|4-------4-------4-------4------|
D|2------------------------------|2------------------------------|
A|----------------2--------------|----------------2--------------|
E|-------------------------------|-------------------------------|
  down        upon    her     head.
                                       (Dodo    dodooooooodo)
e|------- ------- ------- 7------|------- ------- ------- -------|
B|5-------7---------------9------|--------9P7--------------------|
G|4-------4----------------------|--------9-------9--------------|
D|-------------------------------|----------------9--------------|
A|-------------------------------|-------------------------------|
E|-------------------------------|-------------------------------|

e|------- ------- ------- -------|------- ------- ------- -------|
B|-------------------------------|-------------------------------|
G|--------4---------------9------|--------9P6-----4-----H-7------|
D|6-------6---------------9------|--------6-------6--------------|
A|7------------------------------|-------------------------------|
E|-------------------------------|-------------------------------|

e|0------ 0------ -----0- 0------|0----0- 0------ 0------ 0------|
B|0-------0------------0--0------|0----0--0-------0-------0------|
G|1-------1------------1--1------|1----1--1-------1-------1------|
D|2-------2------------2--2------|2----2--2-------2-------2------|
A|2-------2------------2--2------|2----2--2-------2-------2------|
E|0-------0------------0--0------|0----0--0-------0-------0------|




  A
e|0------ 0------ 0------ 0------|0------ 0------ 0------ -------|
B|2-------2-------2-------2------|2-------2-------2-------2------|
G|2-------2-------2-------2------|2-------2-------2-------2------|
D|----------------2------------2-|-------------2----------2------|  
A|0------------------------------|0---------------0----4---------|
E|-------------------------------|-------------------------------| 
  Bang!   Bang!   Maxwell's       silver      hammer      made
e|------- ------- ------- 12-----|------- 10----- -9----- -------|
B|10------12--------------10-----|--------10------10------10---8-|
G|-9-------9---------------------|-------------------------9---7-|
D|-------------------------------|-------------------------------|
A|-------------------------------|-------------------------------|
E|-------------------------------|-------------------------------|

e|------- ------- ------- -------|------- ------- ------- -------|
B|10----------------------10-----|----------------10-------------|
G|-9-------9---------------9-----|---------9-------9-------9-----|
D|--------11---------------------|--------11--------------11-----|
A|-------------------------------|-------------------------------|
E|-------------------------------|-------------------------------|

e|0------ 0------ 0------ 0------|0------ 0------ 0----0- 0----0-|
B|2-------2-------2-------2------|2-------2-------2----2--2----2-|
G|2-------2-------2-------2------|2-------2-------2----2--2----2-|
D|2-------2-------2-------2------|2-------2-------2----2--2----2-|
A|0-------0-------0-------0------|0-------0-------0----0--0----0-|
E|-------------------------------|-------------------------------|




  Em                              A5
e|3------ 3------ 3------ 3------|------- ------- ------- -------|    
B|5-------5-------5-------5------|-------------------------------|
G|4-------4-------4-------4------|2-------2-------2-------2------|
D|2------------------------------|2-------2-------2-------2------|
A|----------------2------------0-|0----0--0----0--0-------0------|
E|-------------------------------|-------------------------------|
  sure    that    she was     dead.       Whoa,   oh,     oh, 
e|------- ------- ------- -------|------- ------- ------- -------|
B|8-------8--------8------8------|10-----------------------------|
G|7H9-----7------B10R9----7H9----|-9-----------------------------|
D|-------------------------------|-------------------------------|
A|-------------------------------|-------------------------------|
E|-------------------------------|-------------------------------|

e|------- ------- ------- -------|------- ------- ------- -------|
B|8-------8--------8------8------|10-----------------------------|   
G|9-------7--------9------9------|-9-----------------------------|
D|-------------------------------|-------------------------------|
A|-------------------------------|-------------------------------|
E|-------------------------------|-------------------------------|    

e|0------ 0------ 0----0- 0------|0------ 0------ 0--0--0 0----0-|
B|0-------0-------0----0--0------|2-------2-------2--2--2-2----2-|
G|1-------1-------1----1--1------|2-------2-------2--2--2-2----2-|
D|2-------2-------2----2--2------|2-------2-------2--2--2-2----2-|
A|2-------2-------2----2--2------|0-------0-------0--0--0-0----0-|
E|0-------0-------0----0--0------|-------------------------------| 




  D
e|2------ 2------ 2------ 2------|2------ 2------ 2------ 2------|      
B|3-------3-------3-------3------|3-------3-------3-------3------|
G|2-------2-------2-------2------|2-------2-------2-------2------|
D|0------------------------------|0---------------0-------1------|
A|----------------0--------------|-------------4-----------------|
E|-------------------------------|-------------------------------|    
  
e|------- ------- ------- 5------|------- 2P0---- ------- -------|
B|3-----------------------7------|--------3P0-----3--------------|
G|2-------2----------------------|----------------2-------2----/-|
D|--------4----------------------|------------------------4----/-|
A|-------------------------------|-------------------------------|
E|-------------------------------|-------------------------------|    

e|------- ------- ------- -------|------- ------- ------- -------|
B|------------------------3------|--------3P0--------------------|
G|--------2---------------2------|--------2-------2--------------|
D|4-------4----------------------|----------------4-------4----/-|
A|5------------------------------|------------------------5----/-|
E|-------------------------------|-------------------------------|

e|2------ 2------ 2----2- 2----2-|2------ 2------ 2----2- 2----0-|
B|3-------3-------3----3--3----3-|3-------3-------3----3--3----0-|
G|2-------2-------2----2--2----2-|2-------2-------2----2--2----1-|
D|0-------0-------0----0--0----0-|0-------0-------0----0--0----2-|
A|-------------------------------|-----------------------------2-|
E|-------------------------------|-----------------------------0-|

e|-----5-/10----- -----9- 7\5----|7/9\7-- ------- ------- 5------|
B|-------------------------------|-------------------------------|
G|-------------------------------|-------------------------------|
D|-------------------------------|-------------------------------|
A|-------------------------------|-------------------------------|
E|-------------------------------|-------------------------------|




  E
e|4------ 4------ 4------ 4------|4------ 4------ 4------ 4------|
B|5-------5-------5-------5------|5-------5-------5-------5------|
G|4-------4-------4-------4------|4-------4-------4-------4------|
D|2------------------------------|2------------------------------|
A|----------------2--------------|----------------2--------------|
E|-------------------------------|-------------------------------|
                                       (Dodo    dodooooooodo)
e|------- ------- ------- 7------|------- ------- ------- -------|
B|5-------7---------------9------|--------9P7--------------------|
G|4-------4----------------------|--------9-------9--------------|
D|-------------------------------|----------------9--------------|
A|-------------------------------|-------------------------------|
E|-------------------------------|-------------------------------|

e|------- ------- ------- -------|------- ------- ------- -------|
B|-------------------------------|-------------------------------|
G|--------4---------------9------|--------9P6-----4-----H-7------|
D|6-------6---------------9------|--------6-------6--------------|
A|7------------------------------|-------------------------------|
E|-------------------------------|-------------------------------|

e|0------ 0------ -----0- 0------|0----0- 0------ -----0- 0--0--0|
B|0-------0------------0--0------|0----0--0------------0--0--0--0|
G|1-------1------------1--1------|1----1--1------------1--1--1--1|
D|2-------2------------2--2------|2----2--2------------2--2--2--2|
A|2-------2------------2--2------|2----2--2------------2--2--2--2|
E|0-------0------------0--0------|0----0--0------------0--0--0--0|

e|-----5-/12----- -----9- 7\5----|7/9\7-- ------- ------- 5------|
B|-------------------------------|-------------------------------|
G|-------------------------------|-------------------------------|
D|-------------------------------|-------------------------------|
A|-------------------------------|-------------------------------|
E|-------------------------------|-------------------------------|




  A
e|0------ 0------ 0------ 0------|0------ 0------ 0------ -------|
B|2-------2-------2-------2------|2-------2-------2-------2------|
G|2-------2-------2-------2------|2-------2-------2-------2------|
D|----------------2------------2-|-------------2----------2------|  
A|0------------------------------|0---------------0----4---------|
E|-------------------------------|-------------------------------| 
  
e|------- ------- ------- 12-----|------- 10----- -9----- -------|
B|10------12--------------10-----|--------10------10------10---8-|
G|-9-------9---------------------|-------------------------9---7-|
D|-------------------------------|-------------------------------|
A|-------------------------------|-------------------------------|
E|-------------------------------|-------------------------------|

e|------- ------- ------- -------|------- ------- ------- -------|
B|10----------------------10-----|----------------10-------------|
G|-9-------9---------------9-----|---------9-------9-------9-----|
D|--------11---------------------|--------11--------------11-----|
A|-------------------------------|-------------------------------|
E|-------------------------------|-------------------------------|

e|0------ 0------ 0----0- 0------|0------ 0------ 0----0- 0----0-|
B|2-------2-------2----2--2------|2-------2-------2----2--2----2-|
G|2-------2-------2----2--2------|2-------2-------2----2--2----2-|
D|2-------2-------2----2--2------|2-------2-------2----2--2----2-|
A|0-------0-------0----0--0------|0-------0-------0----0--0----0-|
E|-------------------------------|-------------------------------|

e|-----5-/15----- -----9-\5------|7/9\7-- ------- ------- -------|
B|-------------------------------|------------------------10--10-|
G|-------------------------------|-------------------------------|
D|-------------------------------|-------------------------------|
A|-------------------------------|-------------------------------|
E|-------------------------------|-------------------------------|




  Em              A               D       A       D
e|3------ 3------ 0------ 0------|2------ ------- 2------ -------|    
B|5-------5-------2-------2------|3-------2-------3--------------|
G|4-------4-------2-------2------|2-------2-------2--------------|
D|2------------------------------|0-------2-------0--------------|
A|----------------0--------------|--------0----------------------|
E|-------------------------------|-------------------------------|
  
e|------- ------- ------- -------|------- ------- 10-\--- -------|
B|8-------8--------8------8------|7--/------------10-\-----------|
G|7H9-----7------B10R9----7H9----|7--/---------------------------|
D|-------------------------------|-------------------------------|
A|-------------------------------|-------------------------------|
E|-------------------------------|-------------------------------|

e|------- ------- ------- -------|------- ------- ------- -------|
B|8-------8--------8------8------|7--/------------10-\-----------|
G|7-------7--------7------7------|7--/------------11-\-----------|
D|-------------------------------|-------------------------------|
A|-------------------------------|-------------------------------|
E|-------------------------------|-------------------------------|    

e|0------ 0----0- 0------ 0----0-|2------ ------- 2------ -------|
B|0-------0----0--2-------2----2-|3---------------3--------------|
G|0-------0----0--2-------2----2-|2---------------2--------------|
D|2-------2----2--2-------2----2-|0---------------0--------------|
A|2-------2----2--0-------0----0-|-------------------------------|
E|0-------0----0-----------------|-------------------------------|  

e|10\9--- 7\5---- 7\5---- -------|------- ------- ------- -------|
B|------------------------7\5----|2-------2----------------------|
G|-------------------------------|-------------------------------|
D|-------------------------------|-------------------------------|
A|-------------------------------|-------------------------------|
E|-------------------------------|-------------------------------|




  D               F#              Bm              D7
e|2------ ------- 2------ -------|2------ ------- 2------ -------|
B|3---------------2--------------|3---------------1--------------|
G|2---------------3--------------|4---------------2--------------|
D|0---------------4--------------|4---------------0--------------|
A|----------------4--------------|2------------------------------|
E|----------------2--------------|-------------------------------|
  Silver                          hammer 
e|------- ------- ------- -------|------- ------- ------- -------|
B|-------------------------------|-----------------------------7H|
G|-------------------------------|-----------------------------7H|
D|-------------------------------|-------------------------------|
A|-------------------------------|-------------------------------|
E|-------------------------------|-------------------------------|

e|------- ------- ------- -------|------- ------- ------- -------|
B|-------------------------------|-----------------------------7H|
G|-------------------------------|-----------------------------7-|
D|-------------------------------|-------------------------------|
A|-------------------------------|-------------------------------|
E|-------------------------------|-------------------------------|

e|------- ------- ------- -------|------- ------- ------- -----17/
B|-------------------------------|-------------------------------|
G|-------------------------------|-------------------------------|
D|-------------------------------|-------------------------------|
A|-------------------------------|-------------------------------|
E|-------------------------------|-------------------------------|



                                          x       x
  G                                       A       D
e|3------ ------- ------- -------|------- ------- 2------ -------|
B|3------------------------------|--------2-------3--------------|
G|0------------------------------|--------2-------2--------------|
D|0------------------------------|0----2--2-------0--------------|
A|--------0-------2-------4------|--------4----------------------|
E|3------------------------------|-------------------------------|
  man
e|------- ------- ------- -------|------- ------- 10-\--- -------|
B|8-------8--------8------8------|7--/------------10-\-----------|
G|7H9-----7------B10R9----7H9----|7--/---------------------------|
D|-------------------------------|-------------------------------|
A|-------------------------------|-------------------------------|
E|-------------------------------|-------------------------------|

e|------- ------- ------- -------|------- ------- ------- -------|
B|8-------8--------8------8------|7--/------------10-\-----------|
G|7-------7--------7------7------|7--/------------11-\-----------|
D|-------------------------------|-------------------------------|
A|-------------------------------|-------------------------------|
E|-------------------------------|-------------------------------|    

e|22----- 19\17-- ------- -------|------- ------- ------- -------|
B|----------------18\17---15/17--|15-----------------------------|
G|-------------------------------|-------------------------------|
D|-------------------------------|-------------------------------|
A|-------------------------------|-------------------------------|
E|-------------------------------|-------------------------------|




        B  Bend
        R  Release
        /  Slide up
        \  Slide down
        H  Hammer-on
        P  Pull-off
        ~  Vibrato
        +  Harmonic
        x  Mute note
        .  Play note like a dot in standard notation
        ^  Ties two notes together
        (. Pause



  --------------------------------------------------------------

  THE BEATLES - OH! DARLING (Lennon & McCartney) From ABBEY ROAD 
                album. Released 26th September 1969.

  --------------------------------------------------------------

  Tabbed by:PJVillanueva





  Oh! Darling, please believe me
  I'll never do you no harm
  Believe me when I tell you
  I'll never do you no harm

  Oh! Darling, if you leave me
  I'll never make it alone
  Believe me when I beg you
  Don't ever leave me alone

  When you told me you didn't need me anymore
  Well you know I nearly broke down and cried
  When you told me you didn't need me anymore
  Well you know I nearly broke down and died

  Oh! Darling, if you leave me
  I'll never make it alone
  Believe me when I tell you
  I'll never do you no harm

  Oh! Darling, please believe me
  I'll never let you down
  Believe me when I tell you
  I'll never do you no harm 



  12/8

                                            (.
                                            E+5
e|------ ------ ------ ------|------ ------ 8----- ------|
B|---------------------------|--------------9------------|
G|---------------------------|--------------9------------|
D|---------------------------|-------------10------------|
A|---------------------------|---------------------------|
E|---------------------------|--------------0------------|
                                                   Oh!



  
e|5-5-5- 5-5-5- 5-5-5- 5-5-5-|4-4-4- 4-4-4- 4-4-4- 4-4-4-|
B|5-5-5--5-5-5--5-5-5--5-5-5-|5-5-5--5-5-5--5-5-5--5-5-5-|
G|6-6-6--6-6-6--6-6-6--6-6-6-|4-4-4--4-4-4--4-4-4--4-4-4-|
D|---------------------------|---------------------------|
A|---------------------------|---------------------------|
E|---------------------------|---------------------------|

e|------ 9--\-- ------ 9-----|------ 7-\--- ------ 7-----|
B|-------10-\----------10----|-------9-\-----------9-----|
G|-------9--\----------9-----|-------9-\-----------9-----|
D|---------------------------|---------------------------|
A|---------------------------|---------------------------|
E|---------------------------|---------------------------|
  Darling,             please 
                           believe me



  
e|5-5-5- 5-5-5- 5-5-5- 5-5-5-|5-5-5- 5-5-5- 5-5-5- 5-5-5-|
B|7-7-7--7-7-7--7-7-7--7-7-7-|7-7-7--7-7-7--7-7-7--7-7-7-|
G|6-6-6--6-6-6--6-6-6--6-6-6-|7-7-7--7-7-7--7-7-7--7-7-7-|
D|---------------------------|---------------------------|
A|---------------------------|---------------------------|
E|---------------------------|---------------------------|

e|------ 5----- ------ 5-----|------ 5----- ------ 5-\---|
B|-------7-------------7-----|-------7-------------7-\---|
G|-------6-------------6-----|-------7-------------7-\---|
D|---------------------------|---------------------------|
A|---------------------------|---------------------------|
E|---------------------------|---------------------------|
  I'll   never  do  you    no harm                     Believe
                              Aaaaaaaaaaaaaaaaaaaaaaaaahh



  
e|2-2-2- 2-2-2- 2-2-2- 2-2-2-|2-2-2- 2-2-2- 2-2-2- 2-2-2-|
B|3-3-3--3-3-3--3-3-3--3-3-3-|3-3-3--3-3-3--3-3-3--3-3-3-|
G|2-2-2--2-2-2--1-1-1--1-1-1-|2-2-2--2-2-2--1-1-1--1-1-1-|
D|---------------------------|---------------------------|
A|---------------------------|---------------------------|
E|---------------------------|---------------------------|

e|------ 7----- ------ 7-----|------ 7----- ------ 7-----|
B|-------7-------------9-----|-------7-------------9-----|
G|-------7-------------9-----|-------7-------------9-----|
D|---------------------------|---------------------------|
A|---------------------------|---------------------------|
E|---------------------------|---------------------------|
      me when     you         I'll   never  do  you    no 
           I tell
  Aaaaaaaaaaaaaaaahhhh        Aaaaaaaaaaaaaaaaaahhhh

                                            (.
  
e|0-0-0- 0-0-0- 2-2-2- 2-2-2-|0-0-0- 0-0-0- 0----- ------|
B|2-2-2--2-2-2--3-3-3--3-3-3-|2-2-2--2-2-2--0------------|
G|2-2-2--2-2-2--2-2-2--2-2-2-|2-2-2--2-2-2--1------------|
D|---------------------------|---------------------------|
A|---------------------------|---------------------------|
E|---------------------------|---------------------------|

e|------ 5-\--- ------ 5-\---|------ 5-\--- ------ ------|
B|-------5-\-----------7-\---|-------5-\-----------------|
G|-------6-\-----------7-\---|-------6-\-----------------|
D|---------------------------|---------------------------|
A|---------------------------|---------------------------|
E|---------------------------|---------------------------|  
  harm                                                 Oh!





e|5-5-5- 5-5-5- 5-5-5- 5-5-5-|4-4-4- 4-4-4- 4-4-4- 4-4-4-|
B|5-5-5--5-5-5--5-5-5--5-5-5-|5-5-5--5-5-5--5-5-5--5-5-5-|
G|6-6-6--6-6-6--6-6-6--6-6-6-|4-4-4--4-4-4--4-4-4--4-4-4-|
D|---------------------------|---------------------------|
A|---------------------------|---------------------------|
E|---------------------------|---------------------------|

e|------ 5----- ------ 5-----|------ 7----- ------ 7-\---|
B|-------5-------------5-----|-------9-------------9-\---|
G|-------6-------------6-----|-------9-------------9-\---|
D|---------------------------|---------------------------|
A|---------------------------|---------------------------|
E|---------------------------|---------------------------|
  Darling,             if you leave me
  Oooooooooooooooooooooohhhhhhoooooooooooooooooooooooohhhh



  
e|5-5-5- 5-5-5- 5-5-5- 5-5-5-|5-5-5- 5-5-5- 5-5-5- 5-5-5-|
B|7-7-7--7-7-7--7-7-7--7-7-7-|7-7-7--7-7-7--7-7-7--7-7-7-|
G|6-6-6--6-6-6--6-6-6--6-6-6-|7-7-7--7-7-7--7-7-7--7-7-7-|
D|---------------------------|---------------------------|
A|---------------------------|---------------------------|
E|---------------------------|---------------------------|

e|------ 5----- ------ 5-----|------ 5-\--- ------ 5-\---|
B|-------7-------------7-----|-------7-\-----------7-\---|
G|-------6-------------6-----|-------7-\-----------7-\---|
D|---------------------------|---------------------------|
A|---------------------------|---------------------------|
E|---------------------------|---------------------------|
  I'll   never  make it    alone                       Believe 
  Ooooooooooooooooooooooohhhhhaaaaaaaaaaaaaaaaaaaaaaahhhh



  
e|2-2-2- 2-2-2- 2-2-2- 2-2-2-|2-2-2- 2-2-2- 2-2-2- 2-2-2-|
B|3-3-3--3-3-3--3-3-3--3-3-3-|3-3-3--3-3-3--3-3-3--3-3-3-|
G|2-2-2--2-2-2--1-1-1--1-1-1-|2-2-2--2-2-2--1-1-1--1-1-1-|
D|---------------------------|---------------------------|
A|---------------------------|---------------------------|
E|---------------------------|---------------------------|

e|------ 7----- ------ 7-\---|------ 7-\--- ------ 7-----|
B|-------7-------------9-\---|-------7-\-----------9-----|
G|-------7-------------9-\---|-------7-\-----------9-----|
D|---------------------------|---------------------------|
A|---------------------------|---------------------------|
E|---------------------------|---------------------------|
      me when    you ooooooh  Don't  ever   leave me   alone
           I beg
  Aaaaaaaaaaaaaaaaahhhh       Aaaaaaaaaaaaaaaaahhhh
 
                                         
  
e|0-0-0- 0-0-0- 2-2-2- 2-222-|000000 000000 333333 333333|
B|2-2-2--2-2-2--3-3-3--3-333-|222222-222222-222222-222222|
G|2-2-2--2-2-2--2-2-2--2-222-|222222-222222-222222-222222|
D|---------------------------|---------------------------|
A|---------------------------|---------------------------|
E|---------------------------|---------------------------| 

e|------ 5-\--- ------ 5-\---|------ 5-\--- ------ 5-\---|
B|-------5-\-----------7-\---|-------5-\-----------5-\---|
G|-------6-\-----------7-\---|-------6-\-----------6-\---|
D|---------------------------|---------------------------|
A|---------------------------|---------------------------|
E|---------------------------|---------------------------|
                                                     When 
                                                       you




e|5-5-5- 5-5-5- 5-5-5- 5-5-5-|8-8-8- 8-8-8- 8-8-8- 8-8-8-|
B|7-7-7--7-7-7--7-7-7--7-7-7-|101010-101010-101010-101010|
G|7-7-7--7-7-7--7-7-7--7-7-7-|101010-101010-101010-101010|
D|---------------------------|---------------------------|
A|---------------------------|---------------------------|
E|---------------------------|---------------------------|

e|--10-- ------ --10-- ------|--13-- ------ --13-- ------|
B|----10---10-------10---10--|----13-101310-----13-101310|
G|-------11--11--------11--11|10------------10-----------|
D|--------------12-----------|---------------------------|
A|---------------------------|---------------------------|
E|---------------------------|---------------------------|
  told me             you didn't     anymore         Oh, 
                              need me                 well,
                                                        you


  
e|9-9-9- 9-9-9- 9-9-9- 9-9-9-|9-9-9- 9-9-9- 9-9-9- 9-9-9-|
B|101010-101010-101010-101010|8-8-8--8-8-8--8-8-8--8-8-8-|
G|9-9-9--9-9-9--9-9-9--9-9-9-|9-9-9--9-9-9--9-9-9--9-9-9-|
D|---------------------------|---------------------------|
A|---------------------------|---------------------------|
E|---------------------------|---------------------------|

e|------ ------ ------ ------|------ ------ ------ ------|
B|--10------------10---------|--10------------10---------|
G|----9----9--------9----9---|----9----9--------9----9---|
D|-------11--11--------11--11|-------11--11--------11--11|
A|12------------12-----------|12------------12-----------|
E|---------------------------|---------------------------|
  know I nearly broke down and cried                 When 
                                                       you



  
e|111111 111111 111111 111111|111111 111111 111111 111111|
B|121212-121212-121212-121212|121212-121212-121212-121212|
G|111111-111111-111111-111111|111111-111111-111111-111111|
D|---------------------------|---------------------------|
A|---------------------------|---------------------------|
E|---------------------------|---------------------------|

e|------ ------ ------ ------|------ ------ ------ ------|
B|--12------------12---------|--12------------12---------|
G|----11---11-------11---11--|----11---11-------11---11--|
D|-------13--13--------13--13|-------13--13--------13--13|
A|14------------14-----------|14------------14-----------|
E|---------------------------|---------------------------|
  told me              you didn't    anymore         Oh.
                              need me                 well,
                                                     you

                                            (. 

e|77--77 77--77 88--88 88--88|7----- ------ 0----- ------|
B|99--99-99--99-66--66-66--66|9-------------1------------|
G|99--99-99--99-55--55-55--55|9-------------1------------|
D|---------------------------|--------------2------------|
A|---------------------------|---------------------------|
E|---------------------------|---------------------------|

e|--12-- ------ --13-- ------|------ ------ ------ ------|
B|----12---12-------13---13--|---------------------------|
G|-------13--13--------14--14|---------------------------|
D|14------------15-----------|14-\-----------------------|
A|---------------------------|---------------------------|
E|---------------------------|---------------------------|
  know I nearly broke down and died                    Oh! 
     




e|5-5-5- 5-5-5- 5-5-5- 5-5-5-|4-4-4- 4-4-4- 4-4-4- 4-4-4-|
B|5-5-5--5-5-5--5-5-5--5-5-5-|5-5-5--5-5-5--5-5-5--5-5-5-|
G|6-6-6--6-6-6--6-6-6--6-6-6-|4-4-4--4-4-4--4-4-4--4-4-4-|
D|---------------------------|---------------------------|
A|---------------------------|---------------------------|
E|---------------------------|---------------------------|

e|------ 9----- ------ 9--\--|------ 7----- ------ 7-\---|
B|-------10------------10-\--|-------9-------------9-\---|
G|-------9-------------9--\--|-------9-------------9-\---|
D|---------------------------|---------------------------|
A|---------------------------|---------------------------|
E|---------------------------|---------------------------|
  Darling,             if you leave me




  
e|5-5-5- 5-5-5- 5-5-5- 5-5-5-|5-5-5- 5-5-5- 5-5-5- 5-5-5-|
B|7-7-7--7-7-7--7-7-7--7-7-7-|7-7-7--7-7-7--7-7-7--7-7-7-|
G|6-6-6--6-6-6--6-6-6--6-6-6-|7-7-7--7-7-7--7-7-7--7-7-7-|
D|---------------------------|---------------------------|
A|---------------------------|---------------------------|
E|---------------------------|---------------------------|

e|------ 5----- ------ 5-\---|------ 5-\--- ------ 5-----|
B|-------7-------------7-\---|-------7-\-----------7-----|
G|-------6-------------6-\---|-------7-\-----------7-----|
D|---------------------------|---------------------------|
A|---------------------------|---------------------------|
E|---------------------------|---------------------------|
  I'll   never  make it    alone                       Believe 
  Ooooooooooooooooooooooohhhhhaaaaaaaaaaaaaaaaaaaahhhh



  
e|2-2-2- 2-2-2- 2-2-2- 2-2-2-|2-2-2- 2-2-2- 2-2-2- 2-2-2-|
B|3-3-3--3-3-3--3-3-3--3-3-3-|3-3-3--3-3-3--3-3-3--3-3-3-|
G|2-2-2--2-2-2--1-1-1--1-1-1-|2-2-2--2-2-2--1-1-1--1-1-1-|
D|---------------------------|---------------------------|
A|---------------------------|---------------------------|
E|---------------------------|---------------------------|

e|------ 7----- ------ 7-----|------ 7----- ------ 7-----|
B|-------7-------------9-----|-------7-------------9-----|
G|-------7-------------9-----|-------7-------------9-----|
D|---------------------------|---------------------------|
A|---------------------------|---------------------------|
E|---------------------------|---------------------------|
      me when     you         I'll   never  do  you    no 
           I tell
  Aaaaaaaaaaaaaaaaahhh        Aaaaaaaaaaaaaaaaahhh

                                          
  
e|0-0-0- 0-0-0- 2-2-2- 2-2-2-|000000 000000 333333 3-333-|
B|2-2-2--2-2-2--3-3-3--3-3-3-|222222-222222-222222-2-222-|
G|2-2-2--2-2-2--2-2-2--2-2-2-|222222-222222-222222-2-222-|
D|---------------------------|---------------------------|
A|---------------------------|---------------------------|
E|---------------------------|---------------------------| 

e|------ 5-\--- ------ 5-\---|------ 5-\--- ------ 5-\---|
B|-------5-\-----------7-\---|-------5-\-----------5-\---|
G|-------6-\-----------7-\---|-------6-\-----------6-\---|
D|---------------------------|---------------------------|
A|---------------------------|---------------------------|
E|---------------------------|---------------------------|   
  harm                                               When   
                                                       you




e|5-5-5- 5-5-5- 5-5-5- 5-5-5-|8-8-8- 8-8-8- 8-8-8- 8-8-8-|
B|7-7-7--7-7-7--7-7-7--7-7-7-|101010-101010-101010-101010|
G|7-7-7--7-7-7--7-7-7--7-7-7-|101010-101010-101010-101010|
D|---------------------------|---------------------------|
A|---------------------------|---------------------------|
E|---------------------------|---------------------------|

e|--10-- ------ --10-- ------|--13-- ------ --13-- ------|
B|----10---10-------10---10--|----13-101310-----13-101310|
G|-------11--11--------11--11|10------------10-----------|
D|--------------12-----------|---------------------------|
A|---------------------------|---------------------------|
E|---------------------------|---------------------------|
  told me oooooh       you didn't     anymore         Oh, 
                              need me                 well,
                                                        you


  
e|9-9-9- 9-9-9- 9-9-9- 9-9-9-|9-9-9- 9-9-9- 9-9-9- 9-9-9-|
B|101010-101010-101010-101010|8-8-8--8-8-8--8-8-8--8-8-8-|
G|9-9-9--9-9-9--9-9-9--9-9-9-|9-9-9--9-9-9--9-9-9--9-9-9-|
D|---------------------------|---------------------------|
A|---------------------------|---------------------------|
E|---------------------------|---------------------------|

e|------ ------ ------ ------|------ ------ ------ ------|
B|--10------------10---------|--10------------10---------|
G|----9----9--------9----9---|----9----9--------9----9---|
D|-------11--11--------11--11|-------11--11--------11--11|
A|12------------12-----------|12------------12-----------|
E|---------------------------|---------------------------|
  know I nearly broke down and cried              Oh,when 
                                                       you



  
e|111111 111111 111111 111111|111111 111111 111111 111111|
B|121212-121212-121212-121212|121212-121212-121212-121212|
G|111111-111111-111111-111111|111111-111111-111111-111111|
D|---------------------------|---------------------------|
A|---------------------------|---------------------------|
E|---------------------------|---------------------------|

e|------ ------ ------ ------|------ ------ ------ ------|
B|--12------------12---------|--12------------12---------|
G|----11---11-------11---11--|----11---11-------11---11--|
D|-------13--13--------13--13|-------13--13--------13--13|
A|14------------14-----------|14------------14-----------|
E|---------------------------|---------------------------|
  told me              you didn't    anymore         Oh,
                              need me                 well,
                                                      you

                                            (.

e|77--77 77--77 88--88 88--88|7----- ------ 0----- ------|
B|99--99-99--99-66--66-66--66|9-------------1------------|
G|99--99-99--99-55--55-55--55|9-------------1------------|
D|---------------------------|--------------2------------|
A|---------------------------|---------------------------|
E|---------------------------|---------------------------|

e|--12-- ------ --13-- ------|------ ------ ------ ------|
B|----12---12-------13---13--|---------------------------|
G|-------13--13--------14--14|---------------------------|
D|14------------15-----------|14-\-----------------------|
A|---------------------------|---------------------------|
E|---------------------------|---------------------------|
  know I nearly broke down and died                    Oh!
   




e|5-5-5- 5-5-5- 5-5-5- 5-5-5-|4-4-4- 4-4-4- 4-4-4- 4-4-4-|
B|5-5-5--5-5-5--5-5-5--5-5-5-|5-5-5--5-5-5--5-5-5--5-5-5-|
G|6-6-6--6-6-6--6-6-6--6-6-6-|4-4-4--4-4-4--4-4-4--4-4-4-|
D|---------------------------|---------------------------|
A|---------------------------|---------------------------|
E|---------------------------|---------------------------|

e|------ 9----- ------ 9--\--|------ 7----- ------ 7-\---|
B|-------10------------10-\--|-------9-------------9-\---|
G|-------9-------------9--\--|-------9-------------9-\---|
D|---------------------------|---------------------------|
A|---------------------------|---------------------------|
E|---------------------------|---------------------------|
  Darling,             please 
                           believe me
  Ooooooooooooooooooooooohhhhhooooooooooooooooooooooohhhh


  
e|5-5-5- 5-5-5- 5-5-5- 5-5-5-|5-5-5- 5-5-5- 5-5-5- 5-5-5-|
B|7-7-7--7-7-7--7-7-7--7-7-7-|7-7-7--7-7-7--7-7-7--7-7-7-|
G|6-6-6--6-6-6--6-6-6--6-6-6-|7-7-7--7-7-7--7-7-7--7-7-7-|
D|---------------------------|---------------------------|
A|---------------------------|---------------------------|
E|---------------------------|---------------------------|

e|------ 5----- ------ 5-----|------ 5-\--- ------ 5-\---|
B|-------7-------------7-----|-------7-\-----------7-\---|
G|-------6-------------6-----|-------7-\-----------7-\---|
D|---------------------------|---------------------------|
A|---------------------------|---------------------------|
E|---------------------------|---------------------------|
  I'll   never  let       you               Oh,    darling        
                            down             believe
                                                 me,    Believe
  Ooooooooooooooooooooooohhhhhaaaaaaaaaaaaaaaaaaaaaaahhhh

  
e|2-2-2- 2-2-2- 2-2-2- 2-2-2-|2-2-2- 2-2-2- 2-2-2- 2-2-2-|
B|3-3-3--3-3-3--3-3-3--3-3-3-|3-3-3--3-3-3--3-3-3--3-3-3-|
G|2-2-2--2-2-2--1-1-1--1-1-1-|2-2-2--2-2-2--1-1-1--1-1-1-|
D|---------------------------|---------------------------|
A|---------------------------|---------------------------|
E|---------------------------|---------------------------|

e|------ 7----- ------ 7-----|------ 7----- ------ 7-\---|
B|-------7-------------9-----|-------7-------------9-\---|
G|-------7-------------9-----|-------7-------------9-\---|
D|---------------------------|---------------------------|
A|---------------------------|---------------------------|
E|---------------------------|---------------------------|
      me when     you    ooooh   I'll       do  you    no 
           I tell                    never
  Aaaaaaaaaaaaaaaaahhh        Aaaaaaaaaaaaaaaaahhh

                                       (.
  
e|0-0-0- 0-0-0- 2-2-2- 2-2-2-|0----- ------ ------ ------|
B|2-2-2--2-2-2--3-3-3--3-3-3-|2------6---5---------------|
G|2-2-2--2-2-2--2-2-2--2-2-2-|2------7---6---------------|
D|---------------------------|-------6---5---------------|
A|---------------------------|---------------------------|
E|---------------------------|---------------------------|
                                                +   +  +
e|------ 5-\--- ------ 5-\---|------ 6---5- ---14- ------|
B|-------5-\-----------7-\---|-------6---7---------14----|
G|-------6-\-----------7-\---|-------7---6------------14-|
D|---------------------------|-------6---5---------------|
A|---------------------------|---------------------------|
E|---------------------------|---------------------------|  
  harm                                                


 

  +  +   + 
e|------ ------ ------ ------|------ ------ ------ ------|
B|---------------------------|---------------------------|
G|---------------------------|---------------------------|
D|9--------------------------|---------------------------|
A|---9---5-------------------|---------------------------|
E|---------------------------|---------------------------|




        B  Bend
        R  Release
        /  Slide up
        \  Slide down
        H  Hammer-on
        P  Pull-off
        ~  Vibrato
        +  Harmonic
        x  Mute note
        .  Play note like a dot in standard notation
        ^  Ties two notes together
        (. Pause



  ---------------------------------------------------------------

  THE BEATLES - OCTOPUS'S GARDEN (Starkey) From ABBEY ROAD album. 
                Released 26th September 1969.

  ---------------------------------------------------------------

  Tabbed by:PJVillanueva





  I'd like to be under the sea
  In an octopus' garden in the shade
  He'd let us in, knows where we've been  
  In his octopus's garden in the shade      

  I'd ask my friends to come and see
  An octopus' garden with me
  I'd like to be under the sea
  In an octopus' garden in the shade.

  We would be warm below the storm
  In our little hideaway beneath the waves
  Resting our head on the sea bed
  In an octopus' garden near a cave

  We would sing and dance around
  because we know we can't be found
  I'd like to be under the sea
  In an octopus' garden in the shade

  Solo

  We would shout and swim about
  The coral that lies beneath the waves
  (Lies beneath the ocean waves)
  Oh what joy for every girl and boy
  Knowing they're happy and they're safe
  (Happy and they're safe)

  We would be so happy you and me
  No one there to tell us what to do
  I'd like to be under the sea
  In an octopus' garden with you.
  In an octopus' garden with you.
  In an octopus' garden with you.


                                     
  
e|------- ------- ------- -------|------- ------- ------- -------|
B|-------------------------------|-------------------------------|
G|-------------------------------|------------------------9-H-11-/
D|-------------------------------|----------------9-H-11---------|
A|-------------------------------|-------------------------------|
E|-------------------------------|-------------------------------|




e|------- ------- ------- -------|------- ------- ------- -------|
B|----12-H14-P12-----------------|-------------------------------|
G|13--------------13--11-\9----11/13----------------------9-H-11-/
D|-------------------------------|----------------9-H-11---------|
A|-------------------------------|-------------------------------|
E|-------------------------------|-------------------------------|

e|------- ------- ------- -------|------- ------- ------- -------|
B|-------------------------------|-------------------------------|
G|-----------------------------12|13-----------------------------|
D|-----------------------------13|14-----------------------------|
A|-------------------------------|-------------------------------|
E|-------------------------------|-------------------------------|




e|----12- ------- ------- -------|------- -------|
B|--------14--12-----------------/10-----/11-----/
G|13--------------13-P11-\9------/11-----/12-----/
D|-------------------------------|---------------|
A|-------------------------------|---------------|
E|-------------------------------|---------------|



  E                               C#m
e|0------ ------- ------- -------|4------ ------- ------- -------|
B|--------------------0----------|--------------------5----------|
G|------------1------------------|------------6------------------|
D|--------2---------------2------|--------6---------------6------|
A|----------------2--------------|4------------------------------|
E|0------------------------------|----------------4--------------|

e|------- ------- ------- -------|------- ------- ------- -------|
B|12--------------14-------------|-------------------------------|
G|13----------------------13-\11-|9-------9-------11-P9----------|
D|-------------------------------|------------------------11-P9--|
A|-------------------------------|-------------------------------|
E|-------------------------------|-------------------------------|




  A                               B
e|5------ ------- ------- -------|7------ ------- ------- -------|
B|--------------------5----------|--------------------7----------|
G|------------6------------------|------------8------------------|
D|--------7---------------7------|--------9---------------9------|
A|----------------7--------------|----------------9--------------|
E|5------------------------------|7------------------------------|

e|------- ------- ------- -------|------- ------- ------- -------|
B|-------------------------------|-------------------------------|
G|-------------------------------|-------------------------------|
D|-------------------------------|-------------------------------|
A|11-P9-\-7-------7-------9------|-------------------------------|
E|-------------------------------|--------7-------7--------------|




  E
e|0------ ------- ------- -------|0------ ------- ------- -------|
B|--------------------0----------|--------------------0----------|
G|------------1------------------|------------1------------------|
D|--------2---------------2------|--------2---------------2------|
A|----------------2--------------|----------------2--------------|
E|0------------------------------|0------------------------------|
          I'd     like    to  be                 
e|------- ------- ------- -------|------- ------- ------- -------|
B|-------------------------------|-------------------------------|
G|-------------------------------|-------------------------------|
D|-------------------------------|-------------------------------|
A|7------------------------------|-------------------------------|
E|-------------------------------|-------------------------------|




  C#m
e|4------ ------- ------- -------|4------ ------- ------- -------|
B|--------------------5----------|--------------------5----------|
G|------------6------------------|------------6------------------|
D|--------6---------------6------|--------6---------------6------|
A|4------------------------------|4------------------------------|
E|----------------4--------------|----------------4--------------|
          Under           the sea                         In  an

  A              
e|5------ ------- ------- -------|5------ ------- ------- -------|
B|--------------------5----------|--------------------5----------|
G|------------6------------------|------------6------------------|
D|--------7---------------7------|--------7---------------7------|
A|----------------7--------------|----------------7--------------|
E|5------------------------------|5------------------------------|
   octopus's                  garden                  in  the shade

  B
e|7------ ------- ------- -------|7------ ------- ------- -------|
B|--------------------7----------|--------------------7----------|
G|------------8------------------|------------8------------------|
D|--------9---------------9------|--------9---------------9------|
A|----------------9--------------|----------------9--------------|
E|7------------------------------|7------------------------------|


  E
e|0------ ------- ------- -------|0------ ------- ------- -------|
B|--------------------0----------|--------------------0----------|
G|------------1------------------|------------1------------------|
D|--------2---------------2------|--------2---------------2------|
A|----------------2--------------|----------------2--------------|
E|0------------------------------|0------------------------------|
          He'd    let us      in                 

  C#m
e|4------ ------- ------- -------|4------ ------- ------- -------|
B|--------------------5----------|--------------------5----------|
G|------------6------------------|------------6------------------|
D|--------6---------------6------|--------6---------------6------|
A|4------------------------------|4------------------------------|
E|----------------4--------------|----------------4--------------|
          Knows   where  we've been                       in his

  A
e|5------ ------- ------- -------|5------ ------- ------- -------|
B|--------------------5----------|--------------------5----------|
G|------------6------------------|------------6------------------|
D|--------7---------------7------|--------7---------------7------|
A|----------------7--------------|----------------7--------------|
E|5------------------------------|5------------------------------|
   octopus's                  garden                  in  the shade

  B
e|7------ ------- ------- -------|7------ ------- ------- -------|
B|--------------------7----------|--------------------7----------|
G|------------8------------------|------------8------------------|
D|--------9---------------9------|--------9---------------9------|
A|----------------9--------------|----------------9--------------|
E|7------------------------------|7------------------------------|

e|------- ------- ------- ------9/11----- ------- 7------ -------|
B|-------------------------------|-------------------------------|
G|------------------------------9/11--------------8--------------|
D|-------------------------------|-------------------------------|
A|-------------------------------|-------------------------------|
E|-------------------------------|-------------------------------|




  C#m
e|4------ ------- ------- -------|------- ------- ------- -------|
B|5------------------------------|-------------------------------|
G|6------------------------------|-------------------------------|
D|6------------------------------|-------------------------------|
A|4------------------------------|-------------------------------|
E|-------------------------------|-------------------------------|
          I'd     ask     my      friends                 to 
e|9------ ------- ------- -------|------- ------- ------- -------|
B|-------------------------------|-------------------------------|
G|9------------------------------|-------------------------------|
D|-------------------------------|-------------------------------|
A|-------------------------------|-------------------------------|
E|-------------------------------|-------------------------------|

e|0------ 0------ 0------ 0------|0------ 0------ 0------ 0------|
B|2-------2-------2-------2--P--0|2-------2-------2--P--0-2------|
G|1-------1-------1-------1------|1-------1-------1-------1------|
D|-------------------------------|-------------------------------|
A|-------------------------------|-------------------------------|
E|-------------------------------|-------------------------------|




                                                  B
e|------- ------- ------- -------|4------ ------- 2------ -------|
B|-------------------------------|5---------------4--------------|
G|-------------------------------|6---------------4--------------|
D|-------------------------------|6---------------4--------------|
A|-------------------------------|4---------------2--------------|
E|-------------------------------|-------------------------------|
  come            and     see
e|0------ 0------ 0------ 0------|0------ 0------ 4------ 4------|
B|2-------2--P--0-2-------2--P--0|2-------2-------4--H--5P4------|
G|1-------1-------1-------1------|1-------1-------4--H--6P4------|
D|-------------------------------|----------------6-------6------|
A|-------------------------------|-------------------------------|
E|-------------------------------|-------------------------------|



  A
e|0------ ------- ------- -------|------- ------- ------- -------|
B|2------------------------------|-------------------------------|
G|2------------------------------|-------------------------------|
D|2------------------------------|-------------------------------|
A|0------------------------------|-------------------------------|
E|-------------------------------|-------------------------------|
          An      octopus's 
e|------- ------- ------- -------|------- ------- ------- -------|
B|5-------5-------5-------5------|5-------5-------5-------5------|
G|6-------6-------6-------6------|6-------6-------6-------6------|
D|------------------------------7|--------------7----------------|
A|-------------------------------|-------------------------------|
E|-------------------------------|-------------------------------|
          


  B
e|2------ 2------ 2------ 2------|------- 2------ 2------ -------|
B|4-------4-------4-------4------|--------4-------4--------------|
G|4-------4-------4-------4------|--------4-------4--------------|
D|4-------4-------4-------4------|--------4-------4--------------|
A|2-------2-------2-------2------|--------2-------2--------------|
E|-------------------------------|-------------------------------|
  garden          with    me
e|------- ------- ------- -------|------- ------- ------- -------|
B|7-------7-------9-------7------|-------------------------------|
G|8-------8-------8-------8------|-------------------------------|
D|9-------9-------9-------9------|-------------------------------|
A|-------------------------------|-------------------------------|
E|-------------------------------|-------------------------------|



  E
e|0------ ------- ------- -------|0------ ------- ------- -------|
B|--------------------0----------|--------------------0----------|
G|------------1------------------|------------1------------------|
D|--------2---------------2------|--------2---------------2------|
A|----------------2--------------|----------------2--------------|
E|0------------------------------|0------------------------------|
          I'd     like    to  be                 
         (I'd     like    to  be                 

  C#m
e|4------ ------- ------- -------|4------ ------- ------- -------|
B|--------------------5----------|--------------------5----------|
G|------------6------------------|------------6------------------|
D|--------6---------------6------|--------6---------------6------|
A|4------------------------------|4------------------------------|
E|----------------4--------------|----------------4--------------|
          Under           the sea                         In  an
          Under           the sea                         In  an

  A                               B
e|5------ ------- ------- -------|7------ ------- ------- -------|
B|--------------------5----------|--------------------7----------|
G|------------6------------------|------------8------------------|
D|--------7---------------7------|--------9---------------9------|
A|----------------7--------------|----------------9--------------|
E|5------------------------------|7------------------------------|
   octopus's                  garden                  in  the shade
   octopus's                  garden                  in  the shade)

  E
e|0------ ------- ------- -------|0------ ------- ------- -------|
B|--------------------0----------|--------------------0----------|
G|------------1------------------|------------1------------------|
D|--------2---------------2------|--------2---------------2------|
A|----------------2--------------|----------------2--------------|
E|0------------------------------|0------------------------------|

e|------- ------- 9------ 7------|------- ------- ------- -------|
B|------------9------------------|9------------------------------|
G|--------9-------9-------8------|9------------------------------|
D|-------------------------------|--------------------9-/-11-----|
A|-------------------------------|----------------11-------------|
E|-------------------------------|-------------------------------|



  E
e|0------ ------- ------- -------|0------ ------- ------- -------|
B|--------------------0----------|--------------------0----------|
G|------------1------------------|------------1------------------|
D|--------2---------------2------|--------2---------------2------|
A|----------------2--------------|----------------2--------------|
E|0------------------------------|0------------------------------|
          We      would   be warm
                                                 (Oooooooooooooo..
e|------- ------- ------- -------|------- ------- ------- -------|
B|-------------------------------|-------------------------------|
G|9------------------------------|-------------------------------|
D|-------------------------------|-------------------------------|
A|-------------------------------|-------------------------------|
E|-------------------------------|-------------------------------|

                

  C#m
e|4------ ------- ------- -------|4------ ------- ------- -------|
B|--------------------5----------|--------------------5----------|
G|------------6------------------|------------6------------------|
D|--------6---------------6------|--------6---------------6------|
A|4------------------------------|4------------------------------|
E|----------------4--------------|----------------4--------------|
          below           the storm                       In  a
  ooooooooooooooh                                  Oooooooooooooo..

  A
e|5------ ------- ------- -------|5------ ------- ------- -------|
B|--------------------5----------|--------------------5----------|
G|------------6------------------|------------6------------------|
D|--------7---------------7------|--------7---------------7------|
A|----------------7--------------|----------------7--------------|
E|5------------------------------|5------------------------------|
   litlle         hide    away                beneath     the waves
  oooooooooooooooh

  B
e|7------ ------- ------- -------|7------ ------- ------- -------|
B|--------------------7----------|--------------------7----------|
G|------------8------------------|------------8------------------|
D|--------9---------------9------|--------9---------------9------|
A|----------------9--------------|----------------9--------------|
E|7------------------------------|7------------------------------| 

  Aaaaaaaaaaaaaaaaaaaaaaaaaaaaaaaaaaaaaaaaaaaaaaaaaaaaaaaaaaaaaaa

  E
e|0------ ------- ------- -------|0------ ------- ------- -------|
B|--------------------0----------|--------------------0----------|
G|------------1------------------|------------1------------------|
D|--------2---------------2------|--------2---------------2------|
A|----------------2--------------|----------------2--------------|
E|0------------------------------|0------------------------------|
          Resting     our         head 
  aaaaaaaaaaaaaaaaaaaaaaaaaaaaaaah                 Oooooooooooooo..

e|------- ------- ------- -------|------- ------- 12----- -------|
B|-------------------------------|--------------------14--12-----|
G|-------------------------------|-------------------------------|
D|-------------------------------|-------------------------------|
A|-------------------------------|-------------------------------|
E|-------------------------------|-------------------------------|              



  C#m
e|4------ ------- ------- -------|4------ ------- ------- -------|
B|--------------------5----------|--------------------5----------|
G|------------6------------------|------------6------------------|
D|--------6---------------6------|--------6---------------6------|
A|4------------------------------|4------------------------------|
E|----------------4--------------|----------------4--------------|
          on      the sea         bed                     in  an
  oooooooooooooooh                                 Oooooooooooooo..
e|------- ------- ------- -------|14B16-- ----14- ------- 12-----|
B|-------------------------------|-------------------------------|
G|13-----------------------------|-------------------------------|
D|-------------------------------|-------------------------------|
A|-------------------------------|-------------------------------|
E|-------------------------------|-------------------------------|



  A
e|5------ ------- ------- -------|5------ ------- ------- -------|
B|--------------------5----------|--------------------5----------|
G|------------6------------------|------------6------------------|
D|--------7---------------7------|--------7---------------7------|
A|----------------7--------------|----------------7--------------|
E|5------------------------------|5------------------------------|
   octopus's                  garden                  near a  cave
  oooooooooooooooh
e|------- ------- ------- -------|------- ------- ------- -------|
B|14-----------------------------|-------------------------------|
G|-------------------------------|-------------------------------|
D|-------------------------------|-------------------------------|
A|-------------------------------|-------------------------------|
E|-------------------------------|-------------------------------|



  B
e|7------ ------- ------- -------|7------ ------- ------- -------|
B|--------------------7----------|--------------------7----------|
G|------------8------------------|------------8------------------|
D|--------9---------------9------|--------9---------------9------|
A|----------------9--------------|----------------9--------------|
E|7------------------------------|7------------------------------| 

  Aaaaaaaaaaaaaaaaaaaaaaaaaaaaaaaaaaaaaaaaaaaaaaaaaaaaaaaaaaaaaaa

  C#m
e|4------ ------- ------- -------|------- ------- ------- -------|
B|5------------------------------|-------------------------------|
G|6------------------------------|-------------------------------|
D|6------------------------------|-------------------------------|
A|4------------------------------|-------------------------------|
E|-------------------------------|-------------------------------|
          We      would           sing                    and 
  aaaaaaaaaaaaaaaaaaaaaaaaaaaaaah)
e|0------ 0------ 0------ 0------|0------ 0------ 0------ 0------|
B|2-------2-------2-------2--P--0|2-------2-------2--P--0-2------|
G|1-------1-------1-------1------|1-------1-------1-------1------|
D|-------------------------------|-------------------------------|
A|-------------------------------|-------------------------------|
E|-------------------------------|-------------------------------|



                                                  B
e|------- ------- ------- -------|4------ ------- 2------ -------|
B|-------------------------------|5---------------4--------------|
G|-------------------------------|6---------------4--------------|
D|-------------------------------|6---------------4--------------|
A|-------------------------------|4---------------2--------------|
E|-------------------------------|-------------------------------|
  dance           around 
e|0------ 0------ 0------ 0------|0------ 0------ 4------ 4------|
B|2-------2--P--0-2-------2--P--0|2-------2-------4--H--5P4------|
G|1-------1-------1-------1------|1-------1-------4--H--6P4------|
D|-------------------------------|----------------6-------6------|
A|-------------------------------|-------------------------------|
E|-------------------------------|-------------------------------|




  A
e|0------ ------- ------- -------|------- ------- ------- -------|
B|2------------------------------|-------------------------------|
G|2------------------------------|-------------------------------|
D|2------------------------------|-------------------------------|
A|0------------------------------|-------------------------------|
E|-------------------------------|-------------------------------|
          Because         we      know                    we
e|------- ------- ------- -------|------- ------- ------- -------|
B|5-------5-------5-------5------|5-------5-------5-------5------|
G|6-------6-------6-------6------|6-------6-------6-------6------|
D|--------------7----------------|------7---------------7--------|
A|-------------------------------|-------------------------------|
E|-------------------------------|-------------------------------|
          

 

  B
e|2------ 2------ 2------ -------|------- ------- ------- -------|
B|4-------4-------4--------------|-------------------------------|
G|4-------4-------4--------------|-------------------------------|
D|4-------4-------4--------------|-------------------------------|
A|2-------2-------2--------------|-------------------------------|
E|-------------------------------|-------------------------------|
  can't be found
e|------- ------- ------- -------|------- ------- ------- -------|
B|7-------7-------9--------------|-------------------------------|
G|8-------8-------8--------------|-------------------------------|
D|9-------9-------9--------------|-------------------------------|
A|-------------------------------|-------------------------------|
E|-------------------------------|-------------------------------|



  E
e|0------ ------- ------- -------|0------ ------- ------- -------|
B|--------------------0----------|--------------------0----------|
G|------------1------------------|------------1------------------|
D|--------2---------------2------|--------2---------------2------|
A|----------------2--------------|----------------2--------------|
E|0------------------------------|0------------------------------|
          I'd     like    to  be  
         (I'd     like    to  be     

  C#m
e|4------ ------- ------- -------|4------ ------- ------- -------|
B|--------------------5----------|--------------------5----------|
G|------------6------------------|------------6------------------|
D|--------6---------------6------|--------6---------------6------|
A|4------------------------------|4------------------------------|
E|----------------4--------------|----------------4--------------|
          Under           the sea                         In  an
          Under           the sea                         In  an

  A                               B
e|5------ ------- ------- -------|7------ ------- ------- -------|
B|--------------------5----------|--------------------7----------|
G|------------6------------------|------------8------------------|
D|--------7---------------7------|--------9---------------9------|
A|----------------7--------------|----------------9--------------|
E|5------------------------------|7------------------------------|
   octopus's                  garden                  in  the shade
   octopus's                  garden                  in  the shade)


                                  Solo
  E
e|0------ ------- ------- -------|0------ ------- ------- -------|
B|--------------------0----------|--------------------0----------|
G|------------1------------------|------------1------------------|
D|--------2---------------2------|--------2---------------2------|
A|----------------2--------------|----------------2--------------|
E|0------------------------------|0------------------------------|

e|------- ------- ------- -------|------- ------- ------- -------|
B|-------------------------------|------------------------12-----|
G|-------------------------------|-------------11/13-------------|
D|-------------------------------|-------------------------------|
A|-------------------------------|-------------------------------|
E|-------------------------------|-------------------------------|


  A
e|5------ ------- ------- -------|5------ ------- ------- -------|
B|--------------------5----------|--------------------5----------|
G|------------6------------------|------------6------------------|
D|--------7---------------7------|--------7---------------7------|
A|----------------7--------------|----------------7--------------|
E|5------------------------------|5------------------------------|

e|------- ------- ------- 14-----|------- ------- ------- -------|
B|--------13B14------------------|14--12--10------10----------12/|
G|-------------------------------|-------------------------------|
D|-------------------------------|-------------------------------|
A|-------------------------------|-------------------------------|
E|-------------------------------|-------------------------------|



  F#m
e|2------ ------- ------- -------|2------ ------- ------- -------|
B|--------------------2----------|--------------------2----------|
G|------------2------------------|------------2------------------|
D|--------4---------------4------|--------4---------------4------|
A|----------------4--------------|----------------4--------------|
E|2------------------------------|2------------------------------|

e|----12- 12----- 12\---- ----12-|----12- 12----- ----12- ----12-|
B|14-------------------12/14-----|-------------12/14-------------|
G|-------------------------------|-------------------------------|
D|-------------------------------|-------------------------------|
A|-------------------------------|-------------------------------|
E|-------------------------------|-------------------------------|



  D           
e|------- ------- ------- -------|------- ------- ------- -------|
B|10-----------------------------|10-----------------------------|
G|--------------------11---------|--------------------11---------|
D|------------12-----------------|------------12-----------------|
A|--------12--------------12-----|--------12--------------12-----|
E|10--------------10-------------|10--------------10-------------|

e|19B21-- ------- 17----- 17-----|------- 19B21-- ------- 17-----|
B|-------------------------------|-------------------------------|
G|-------------------------------|-------------------------------|
D|-------------------------------|-------------------------------|
A|-------------------------------|-------------------------------|
E|-------------------------------|-------------------------------|



  E
e|------- ------- ------- -------|------- ------- ------- -------|
B|12-----------------------------|12-----------------------------|
G|--------------------13---------|--------------------13---------|
D|------------14-----------------|------------14-----------------|
A|--------14--------------14-----|--------14--------------14-----|
E|12--------------12-------------|12--------------12-------------|

e|17----- ------- ------- -------|------- ------- ------- -------|
B|----------------17------17-----|--------17------17B19---17-----|
G|-------------------------------|-------------------------------|
D|-------------------------------|-------------------------------|
A|-------------------------------|-------------------------------|
E|-------------------------------|-------------------------------|



  A
e|5------ ------- ------- -------|5------ ------- ------- -------|
B|--------------------5----------|--------------------5----------|
G|------------6------------------|------------6------------------|
D|--------7---------------7------|--------7---------------7------|
A|----------------7--------------|----------------7--------------|
E|5------------------------------|5------------------------------|

e|------- ------- ------- -------|----14- ------- ------- -------|
B|-------------------------------|------------------------12-----|
G|14----------------------14--16-B18------16------14-------------|
D|----------------14--16---------|-------------------------------|
A|-------------------------------|-------------------------------|
E|-------------------------------|-------------------------------|



  F#m
e|2------ ------- ------- -------|2------ ------- ------- -------|
B|--------------------2----------|--------------------2----------|
G|------------2------------------|------------2------------------|
D|--------4---------------4------|--------4---------------4------|
A|----------------4--------------|----------------4--------------|
E|2------------------------------|2------------------------------|

e|----12- ----12- 12----- ----12-|----12- 12----- ----12- ----12-|
B|---------------------12/14-----|-------------12/14-------------|
G|-------------------------------|-------------------------------|
D|-------------------------------|-------------------------------|
A|-------------------------------|-------------------------------|
E|-------------------------------|-------------------------------|



  D                               E
e|------- ------- ------- -------|------- ------- ------- -------|
B|10-----------------------------|12-----------------------------|
G|--------------------11---------|--------------------12---------|
D|------------12-----------------|------------14-----------------|
A|--------12--------------12-----|--------14--------------14-----|
E|10--------------10-------------|12--------------12-------------|

e|19B21-- ------- 19B21-- -------|21B19-- 17----- 17----- 19-----|
B|-------------------------------|-------------------------------|
G|-------------------------------|-------------------------------|
D|-------------------------------|-------------------------------|
A|-------------------------------|-------------------------------|
E|-------------------------------|-------------------------------|



  A                               B
e|5------ ------- ------- -------|7------ ------- ------- -------|
B|--------------------5----------|--------------------7----------|
G|------------6------------------|------------8------------------|
D|--------7---------------7------|--------9---------------9------|
A|----------------7--------------|----------------9--------------|
E|5------------------------------|7------------------------------|

e|17----- ------- ------- -------|------- ------- ------- -------|
B|-------------------------------|----12------12--12------10-----|
G|-------------------------------|----11------11--11------11-----|
D|-------------------------------|----13------13--13------13-----|
A|-------------------------------|-------------------------------|
E|-------------------------------|-------------------------------|


  E
e|0------ ------- ------- -------|0------ ------- ------- -------|
B|--------------------0----------|--------------------0----------|
G|------------1------------------|------------1------------------|
D|--------2---------------2------|--------2---------------2------|
A|----------------2--------------|----------------2--------------|
E|0------------------------------|0------------------------------|
                  We  would   shout          
                                                  (Aaaaaaaaaaaaaa

  C#m
e|4------ ------- ------- -------|4------ ------- ------- -------|
B|--------------------5----------|--------------------5----------|
G|------------6------------------|------------6------------------|
D|--------6---------------6------|--------6---------------6------|
A|4------------------------------|4------------------------------|
E|----------------4--------------|----------------4--------------|
          And     swim    about                               the
  aaaaaaaaaaaaaaah                                 Ooooooooooooooo

  A   
e|5------ ------- ------- -------|5------ ------- ------- -------|
B|--------------------5----------|--------------------5----------|
G|------------6------------------|------------6------------------|
D|--------7---------------7------|--------7---------------7------|
A|----------------7--------------|----------------7--------------|
E|5------------------------------|5------------------------------|
   coral                  that    lies        beneath     the waves
  oooooooooooooooh
 
  B
e|7------ ------- ------- -------|7------ ------- ------- -------|
B|--------------------7----------|--------------------7----------|
G|------------8------------------|------------8------------------|
D|--------9---------------9------|--------9---------------9------|
A|----------------9--------------|----------------9--------------|
E|7------------------------------|7------------------------------| 

  Lies            beneath                 the     ocean 

  E
e|0------ ------- ------- -------|0------ ------- ------- -------|
B|--------------------0----------|--------------------0----------|
G|------------1------------------|------------1------------------|
D|--------2---------------2------|--------2---------------2------|
A|----------------2--------------|----------------2--------------|
E|0------------------------------|0------------------------------|
                  Oh, what    joy                             for              
  waves                                           Aaaaaaaaaaaaaaa 

  C#m
e|4------ ------- ------- -------|4------ ------- ------- -------|
B|--------------------5----------|--------------------5----------|
G|------------6------------------|------------6------------------|
D|--------6---------------6------|--------6---------------6------|
A|4------------------------------|4------------------------------|
E|----------------4--------------|----------------4--------------|
  every           girl and    boy
  aaaaaaaaaaaaaaah                                 Ooooooooooooooo

  A
e|5------ ------- ------- -------|5------ ------- ------- -------|
B|--------------------5----------|--------------------5----------|
G|------------6------------------|------------6------------------|
D|--------7---------------7------|--------7---------------7------|
A|----------------7--------------|----------------7--------------|
E|5------------------------------|5------------------------------|
  Knowing                 they're happy           and     they're 
  oooooooooooooooooooooooooooooh

  B
e|7------ ------- ------- -------|7------ ------- ------- -------|
B|--------------------7----------|--------------------7----------|
G|------------8------------------|------------8------------------|
D|--------9---------------9------|--------9---------------9------|
A|----------------9--------------|----------------9--------------|
E|7------------------------------|7------------------------------| 
  safe
  Happy                           and             they're 

  C#m
e|4------ ------- ------- -------|------- ------- ------- -------|
B|5------------------------------|-------------------------------|
G|6------------------------------|-------------------------------|
D|6------------------------------|-------------------------------|
A|4------------------------------|-------------------------------|
E|-------------------------------|-------------------------------|  
                  We      would   be                      so
  safe)
e|0------ 0------ 0------ 0------|0------ 0------ 0------ 0------|
B|2-------2--P--0-2-------2--P--0|2-------2-----0-2-------2--P--0|
G|1-------1-------1-------1------|1-------1-------1-------1------|
D|-------------------------------|-------------------------------|
A|-------------------------------|-------------------------------|
E|-------------------------------|-------------------------------|



                                                  B
e|------- ------- ------- -------|4------ ------- 2------ -------|
B|-------------------------------|5---------------4--------------|
G|-------------------------------|6---------------4--------------|
D|-------------------------------|6---------------4--------------|
A|-------------------------------|4---------------2--------------|
E|-------------------------------|-------------------------------|
  happy           you and     me
e|0------ 0------ 0------ 0------|0------ 0------ 4------ 4------|
B|2-------2--P--0-2-------2--P--0|2-------2-------4--H--5P4------|
G|1-------1-------1-------1------|1-------1-------4--H--6P4------|
D|-------------------------------|----------------6-------6------|
A|-------------------------------|-------------------------------|
E|-------------------------------|-------------------------------|



  A
e|0------ ------- ------- -------|------- ------- ------- -------|
B|2------------------------------|-------------------------------|
G|2------------------------------|-------------------------------|
D|2------------------------------|-------------------------------|
A|0------------------------------|-------------------------------|
E|-------------------------------|-------------------------------|
  No      one    there        to  tell us         what    to do 
e|------- ------- ------- -------|------- ------- ------- -------|
B|5-------5-------5-------5------|5-------5-------5-------5------|
G|6-------6-------6-------6------|6-------6-------6-------6------|
D|------------------------------7|--------------7----------------|
A|-------------------------------|-------------------------------|
E|-------------------------------|-------------------------------|
          



  B
e|2------ 2------ 2------ 2------|------- 2------ 2------ -------|
B|4-------4-------4-------4------|--------4-------4--------------|
G|4-------4-------4-------4------|--------4-------4--------------|
D|4-------4-------4-------4------|--------4-------4--------------|
A|2-------2-------2-------2------|--------2-------2--------------|
E|-------------------------------|-------------------------------|

e|------- ------- ------- -------|------- ------- ------- -------|
B|7-------7-------9-------7------|-------------------------------|
G|8-------8-------8-------8------|-------------------------------|
D|9-------9-------9-------9------|-------------------------------|
A|-------------------------------|-------------------------------|
E|-------------------------------|-------------------------------|
  


  E
e|0------ ------- ------- -------|0------ ------- ------- -------|
B|--------------------0----------|--------------------0----------|
G|------------1------------------|------------1------------------|
D|--------2---------------2------|--------2---------------2------|
A|----------------2--------------|----------------2--------------|
E|0------------------------------|0------------------------------|
          I'd     like    to  be 
         (I'd     like    to  be                  
                                                  Aaaaaaaaaaaaaaa
e|------- ------- ------- -------|------- ------- 12----- -------|
B|-------------------------------|--------14--12------14--12-----|
G|-------------------------------|-------------------------------|
D|-------------------------------|-------------------------------|
A|-------------------------------|-------------------------------|
E|-------------------------------|-------------------------------|

                

  C#m
e|4------ ------- ------- -------|4------ ------- ------- -------|
B|--------------------5----------|--------------------5----------|
G|------------6------------------|------------6------------------|
D|--------6---------------6------|--------6---------------6------|
A|4------------------------------|4------------------------------|
E|----------------4--------------|----------------4--------------|
          Under           the sea                         In  an
          Under           the sea                         In  an
  aaaaaaaaaaaaaah                                 Aaaaaaaaaaaaaaa
e|------- ------- ------- -------|14--12- ----14- 12----- -------|
B|-------------------------------|--------14--------------12-----|
G|13-----------------------------|-------------------------------|
D|-------------------------------|-------------------------------|
A|-------------------------------|-------------------------------|
E|-------------------------------|-------------------------------|



  A                               B
e|5------ ------- ------- -------|7------ ------- ------- -------|
B|--------------------5----------|--------------------7----------|
G|------------6------------------|------------8------------------|
D|--------7---------------7------|--------9---------------9------|
A|----------------7--------------|----------------9--------------|
E|5------------------------------|7------------------------------|
   octopus's                  garden                  with    you 
   octopus's                  garden                  with    you
  aaaaaaaaaaaaaaaaaaaaaaaaaaaaaaaaaaaaaaaaaaaaaaaaaaaaaaaaaaaaaah  
e|------- ------- ------- -------|------- ------- ------- -------|
B|14-----------------------------|12-----------------------------|
G|-------------------------------|-------------------------------|
D|-------------------------------|-------------------------------|
A|-------------------------------|-------------------------------|
E|-------------------------------|-------------------------------|



  C#m
e|------- ------- ------- -------|------- ------- ------- -------|
B|5-------------------6----------|5-------------------6----------|
G|------------6------------------|-----------4-------------------|
D|--------6---------------6------|--------6---------------6------|
A|4------------------------------|4------------------------------|
E|----------------4--------------|----------------4--------------|
                                                          In  an
                                                          In  an
  Ooooooooooooooooooooooooooooooooooooooh          Aaaaaaaaaaaaaa
e|------- ------- ------- -------|----9-- ------- ------- -------|
B|-------------------------------|-------------------------------|
G|--------9-------9-----------11B|13------11------9-------8------|
D|11-----------------------------|-------------------------------|
A|-------------------------------|-------------------------------|
E|-------------------------------|-------------------------------|



  A                               B
e|5------ ------- ------- -------|7------ ------- ------- -------|
B|--------------------5----------|--------------------7----------|
G|------------6------------------|------------8------------------|
D|--------7---------------7------|--------9---------------9------|
A|----------------7--------------|----------------9--------------|
E|5------------------------------|7------------------------------|
   octopus's                  garden                  with    you
   octopus's                  garden                  with    you
  aaaaaaaaaaaaaaaaaaaaaaaaaaaaaaaaaaaaaaaaaaaaaaaaaaaaaaaaaaaaaah   
e|------- ------- ------- -------|------- ------- ------- -------|
B|-------------------------------|-------------------------------|
G|-------------------------------|-------------------------------|
D|11-----------------------------|-------------------------------|
A|-------------------------------|-------------------------------|
E|-------------------------------|-------------------------------|



  C#m
e|------- ------- ------- -------|------- ------- ------- -------|
B|5-------------------6----------|5-------------------6----------|
G|------------6------------------|-----------4-------------------|
D|--------6---------------6------|--------6---------------6------|
A|4------------------------------|4------------------------------|
E|----------------4--------------|----------------4--------------|
                                                          In  an
                                                          In  an
  Ooooooooooooooooooooooooooooooooooooooh         Aaaaaaaaaaaaaaa
e|14B16-- ----12- ------- 14B15--|------- 12----- 12----- 14-----|
B|-------------------------------|-------------------------------|
G|-------------------------------|-------------------------------|
D|-------------------------------|-------------------------------|
A|-------------------------------|-------------------------------|
E|-------------------------------|-------------------------------|



  A                               B
e|5------ ------- ------- -------|7------ ------- ------- -------|
B|--------------------5----------|--------------------7----------|
G|------------6------------------|------------8------------------|
D|--------7---------------7------|--------9---------------9------|
A|----------------7--------------|----------------9--------------|
E|5------------------------------|7------------------------------|
   octopus's                  garden                  with    you
   octopus's                  garden                  with    you)
  aaaaaaaaaaaaaaaaaaaaaaaaaaaaaaaaaaaaaaaaaaaaaaaaaaaaaah)   
e|------- ------- ------- -------|------- ------- ------- -------|
B|14-----------------------------|12-----------------------------|
G|-------------------------------|-------------------------------|
D|-------------------------------|-------------------------------|
A|-------------------------------|-------------------------------|
E|-------------------------------|-------------------------------|



  E                                       D#      E
e|0------ ------- ------- -------|------- ------- ------- -------|
B|-------------------------------|--------8-------9--------------|
G|-------------------------------|--------8-------9--------------|
D|-------------------------------|--------8-------9--------------|
A|-------------------------------|--------6-------7--------------|
E|0------------------------------|-------------------------------|
                                                 (.
e|14B1512 ------- ------- -------|------- ------- ------- -------|
B|--------14------12-------------|------------/---9--------------|
G|------------------------13-P-11\9----11-8---/---9--------------|
D|-------------------------------|-------------------------------|
A|-------------------------------|-------------------------------|
E|-------------------------------|-------------------------------|




        B  Bend
        R  Release
        /  slide up
        \  slide down
        H  hammer-on
        P  pull-off
        ~  vibrato
        +  harmonic
        x  Mute note
        . - play note like a dot in standard notation
        ^ - ties two notes together
        (. Pause



  --------------------------------------------------------------

  THE BEATLES - I WANT YOU (SHE'S SO HEAVY) (Lennon & McCartney)
                From ABBEY ROAD album. Released 26th September 
                1969.

  --------------------------------------------------------------

      Tabbed by:PJVillanueva




  I want you
  I want you so bad
  I want you,
  I want you so bad
  It’s driving me mad, it’s driving me mad.
  I want you
  I want you so bad, babe
  I want you,
  I want you so bad
  It’s driving me mad, it’s driving me mad.
  Yeah.
  I want you
  I want you so bad, babe
  I want you,
  I want you so bad
  It’s driving me mad, it’s driving me mad.
  I want you
  I want you so bad
  I want you,
  I want you so bad
  It’s driving me mad, it’s driving me mad.
  Yeah.
  She’s so heavy heavy.





                Tune 2nd guitar's low E to D. 


                  
    6/8



e|--------------- 1--------------|--------------- 1--------------|  1
B|----------3----------3---------|----------3----------3---------|
G|-----2--------------------2----|-----2--------------------2----|
D|0------------------------------|3------------------------------|
A|-------------------------------|-------------------------------|
E|-------------------------------|-------------------------------|

e|--------------- ---------------|--------------- ---------------|  2
B|-------------------------------|-------------------------------|
G|--------------------------2----|--------------------------2----|
D|0------------------------------|3------------------------------|
A|-------------------------------|-------------------------------|
D|-------------------------------|-------------------------------|

e|--------------- ---------------|--------------- ----B15---R----|  3
B|-------------------------------|-------------------------------|
G|----------------------------7-/|10---------12-/-10-------------|
D|-------------------------------|-------------------------------|
A|-------------------------------|-------------------------------|
E|-------------------------------|-------------------------------|






e|--------------- 1--------------|--------------- 1--------------|
B|----------3----------3---------|---------------------3---------|
G|-----1--------------------1----|----------1---------------1----|
D|2------------------------------|-----2-------------------------|
A|-------------------------------|1------------------------------|
E|-------------------------------|-------------------------------|

e|--------------- ---------------|--------------- ---------------|
B|-------------------------------|-------------------------------|
G|-------------------------------|--------------------------1----|
D|2------------------------------|-------------------------------|
A|---------------------3----2----|1------------------------------|
D|-------------------------------|-------------------------------|

e|--------------- ---------------|17B18---------- 18-R-----------|
B|12-------------------15---12---|--------------------------18---|
G|-------------------------------|-------------------------------|
D|-------------------------------|-------------------------------|
A|-------------------------------|-------------------------------|
E|-------------------------------|-------------------------------|



                                  
                                   4/4
                  (.

e|--------------- 1--------------|------- ------- ------- -------|
B|----------2--------------------|-------------------------------|
G|-----2-------------------------|------------------------5------|
D|-------------------------------|--------------------7----------|
A|0------------------------------|-------------------------------|
E|-------------------------------|-------------------------------|
                                                      I   want
e|--------------- ---------------|--------------- ---------------|
B|-------------------------------|-------------------------------|
G|-------------------------------|-------------------------------|
D|-------------------------------|-------------------------------|
A|0------------------------------|-------------------------------|
D|-------------------------------|-------------------------------|

e|--------------- 17-------------|--------------- ---------------|
B|-----18---------18-------------|-------------------------------|
G|18---18------------------------|-------------------------------|
D|19-----------------------------|-------------------------------|
A|-------------------------------|-------------------------------|
E|-------------------------------|-------------------------------|





                  x   x   x

e|------- ------- ------- -------|------- ------- ------- -------|
B|-------------------------------|-------------------------------|
G|7-B-9--------R7P5--------------|----------------5---7---7-B-9-9R
D|--------------------7----------|------------7------------------|
A|-------------------------------|-------------------------------|
E|-------------------------------|-------------------------------|
  you                                         I   want you so


                                  x   x   x   x

e|------- ------- ------- -------|------- ------- ------- -------|
B|-------------------------------|-------------------------------|
G|7---5-----------5-------7-P-5--|------------------------5------|
D|--------7----------------------|--------------------7----------|
A|-------------------------------|-------------------------------|
E|-------------------------------|-------------------------------|
  bad                                                 I   want


                                  x   x   x

e|------- ------- ------- -------|------- ------- ------- -------|
B|-------------------------------|-------------------------------|
G|7-B-9-R-7-B-9-R-7-B-9-R-7P5----|----------------5---7---7-B-9-9R
D|----------------------------7--|------------7------------------|
A|-------------------------------|-------------------------------|
E|-------------------------------|-------------------------------|
  you                                         I   want you so




e|------- ------- ------- -------|------- ------- ------- -------|
B|-------------------------------|-------------------------------|
G|7-P-5-----------5--------------|--------5-------5--------------|
D|--------7---------------7------|5-------5-------5H7-----5------|
A|-------------------------------|----7--------------------------|
E|-------------------------------|-------------------------------|
  bad                     It’s    driving me      mad,    it's          


   2/4                                                   

e|------- -------|
B|---------------|
G|---------------|
D|---------------|
A|7---5---3B4----|
E|---------------|
  driving me     


   4/4
                                          x x x x x  x x  x x x

e|------- ------- ------- -------|------- ------- ------- -------|
B|-------------------------------|-------------------------------|
G|-------------------------------|------------------------10-----|
D|-------------------------------|--------------------12---------|
A|-------------------------------|-------------------------------|
E|5------------------------------|-------------------------------|
  mad                                                 I   want
e|------- ------- ------- -------|------- ------- ------- -------|
B|-------------------------------|-------------------------------|
G|--------5---5---5-----------5--|-------------------------------|
D|--------5---5---5-----------5--|-------------------------------|
A|--------------------7\5/7------|7---7---7----------------------|
D|-------------------------------|7---7---7----------------------|



  

e|------- ------- ------- -------|------- ------- ------- -------|
B|-------------------------------|-------------------------------|
G|12B14-12-----------------------|----------------10--12--12-B-14|
D|-------------------------------|------------12-----------------|
A|-------------------------------|-------------------------------|
E|-------------------------------|-------------------------------|
  you                                         I   want you so
e|------- ------- ------- -------|------- ------- ------- -------|
B|-------------------------------|-------------------------------|
G|------------------------10-----|-------------------------------|
D|----------------12--12--10-----|-------------------------------|
A|----------------12--12---------|-------------------------------|
D|-------------------------------|-------------------------------|




                           B P
e|------- ------- ------- -------|------- ------- ------- -------|
B|-------------------------------|-------------------------------|
G|14R1210---------10------121410-|------------------------10-----|
D|--------12-------------------12|--------------------12---------|
A|-------------------------------|-------------------------------|
E|-------------------------------|-------------------------------|
  bad,                    babe                        I   want
e|------- ------- ------- -------|------- ------- ------- -------|
B|-------------------------------|----------------10-------------|
G|-------------------------------|--------10--10--10-------------|
D|-------------------------------|--------10--10------12---------|
A|-------------------------------|-------------------------------|
D|-------------------------------|-------------------------------|





e|------- ------- ------- -------|------- ------- ------- -------|
B|12-B-13R12-B-13R12-B-13R12-----|-------------------------------|
G|12-B-13R12-B-13R12-B-13R12-----|----------------10--12--12-B-14|
D|-------------------------------|------------12-----------------|
A|-------------------------------|-------------------------------|
E|-------------------------------|-------------------------------|
  you                                         I   want you so
e|------- ------- ------- -------|------- ------- ------- -------|
B|-------------------------------|-------------------------------|
G|-------------------------------|10--10--10---------------------|
D|-------------------------------|10--10--10---------------------|
A|-------------------------------|-------------------------------|
D|-------------------------------|-------------------------------|





e|------- ------- ------- -------|------- ------- ------- -------|
B|-------------------------------|-------------------------------|
G|14R1210---------10-------------|-------------------------------|
D|--------12--------------12-----|10------10---10H12------10-----|
A|-------------------------------|----12-------------------------|
E|-------------------------------|-------------------------------|  
  bad                     it's    driving me      mad     it's
e|------- ------- ------- -------|------- ------- ------- -------|
B|-------------------------------|-------------------------------|
G|-------------------------------|-------------------------------|
D|-------------------------------|10------10------8--------------|
A|-------------------------------|10------10------8--------------|
D|-------------------------------|-------------------------------|



   2/4

e|------- -------|
B|---------------|
G|---------------|
D|---------------|
A|10----11----12-|
E|---------------|
  driving     me
e|------- -------|
B|---------------|
G|---------------|
D|---------------|
A|5-----6-----7--|
D|---------------|



   4/4

e|------- ------- ------- -------|------- ------- ------- -------|
B|--------6---6---6---6-------6--|6---6--------------------------|
G|--------7---7---7---7-------7--|7---7--------------------------|
D|--------6---6---6---6-------6--|6---6--------------------------|
A|--------7---7---7---7-------7--|7---7--------------------------|
E|0-------0---0---0---0-------0--|0---0--------------------------|





e|------- ------- ------- -------|------- ------- ------- -------|
B|--------6---6---6---6-------6--|6---6--------------------------|
G|--------7---7---7---7-------7--|7---7--------------------------|
D|--------6---6---6---6-------6--|6---6--------------------------|
A|--------7---7---7---7-------7--|7---7--------------------------|
E|0-------0---0---0---0-------0--|0---0--------------------------|



                                          x

e|------- ------- ------- -------|------- ------- ------- -------|
B|--------6---6---6---6-------6--|6------------------------------|
G|--------7---7---7---7-------7--|7-----------------------5------|
D|--------6---6---6---6-------6--|6-------------------7----------|
A|--------7---7---7---7-------7--|7------------------------------|
E|0-------0---0---0---0-------0--|0------------------------------|
                                                      I   want




e|------- ------- ------- -------|------- ------- ------- -------|
B|-------------------------------|-------------------------------|
G|7-B-9-----------7B9R7----------|----------------5---7---7-B-9-9R
D|-------------------------------|------------7------------------|
A|-------------------------------|-------------------------------|
E|-------------------------------|-------------------------------|
  you                                         I   want you so
e|------- ------- ------- -------|------- ------- ------- -------|
B|-------------------------------|-------------------------------|
G|------------------------5---5--|5------------------------------|
D|------------------------5---5--|5------------------------------|
A|-------------------------------|-------------------------------|
D|-------------------------------|-------------------------------|





e|------- ------- ------- -------|------- ------- ------- -------|
B|-------------------------------|-------------------------------|
G|7-P-5-----------5-------7P5----|------------------------5------|
D|--------7-------------------7--|--------------------7----------|
A|-------------------------------|-------------------------------|
E|-------------------------------|-------------------------------|
  bad                                                 I   want
e|------- ------- ------- -------|------- ------- ------- -------|
B|-------------------------------|-------------------------------|
G|-------------------------------|5---5---5---5------------------|
D|-------------------------------|7---7---5---5------------------|
A|-------------------------------|7---7--------------------------|
D|-------------------------------|-------------------------------|






e|------- ------- ------- -------|------- ------- ------- -------|
B|-------------------------------|-------------------------------|
G|7-B-9-R-7-B-9-R-7P5------------|----------------5---7---7-B-9-9R
D|--------------------7----------|------------7------------------|
A|-------------------------------|-------------------------------|
E|-------------------------------|-------------------------------|
  you                                         I   want you so
e|------- ------- ------- -------|------- ------- ------- -------|
B|-------------------------------|-------------------------------|
G|-------------------------------|----5---5----------------------|
D|-------------------------------|----5---5----------------------|
A|----------------------------5-H|7------------------------------|
D|-------------------------------|-------------------------------|





e|------- ------- ------- -------|------- ------- ------- -------|
B|-------------------------------|-------------------------------|
G|7-P-5-----------5--------------|----------------5--------------|
D|--------7---------------7------|5-------5-------5H7-----5------|
A|-------------------------------|----7--------------------------|
E|-------------------------------|-------------------------------|
  bad                     it's    driving me      mad     it's
e|------- ------- ------- -------|------- ------- ------- -------|
B|-------------------------------|-------------------------------|
G|----------------5--------------|5-------5-------5--------------|
D|5---------------5--------------|7-------7-------5--------------|
A|7------------------------------|-------------------------------|
D|-------------------------------|-------------------------------|



   2/4

e|------- -------|
B|---------------|
G|---------------|
D|---------------|
A|7---5---3B4----|
E|---------------|
  driving me


    4/4

e|------- ------- ------- -------|------- ------- ------- -------|
B|-------------------------------|------------------------10-----|
G|-------------------------------|------------------------10-----|
D|-------------------------------|--------------------12---------|
A|-------------------------------|-------------------------------|
E|5-~----------------------------|-------------------------------|   
  mad                                                 I   want
e|------- ------- ------- -------|------- ------- ------- -------|
B|-------------------------------|-------------------------------|
G|--------------------5---5------|5------------------------------|
D|--------------------5---5------|5------------------------------|
A|--------------5/7-----------7--|-------------------------------|
D|-------------------------------|-------------------------------|




   B R P                                                   B
e|------- ------- ------- -------|------- ------- ------- -------|
B|-------------------------------|-------------------------------|
G|12141210-----------------------|----------------10--12--1214-14R
D|--------12---------------------|------------12-----------------|
A|-------------------------------|-------------------------------|
E|-------------------------------|-------------------------------|
  you                                         I   want you so
e|------- ------- ------- -------|------- ------- ------- -------|
B|------------------------8/10---|-------------------------------|
G|----------------10--10--8/10---|10-----------------------------|
D|----------------10--10---------|10-----------------------------|
A|-------------------------------|-------------------------------|
D|-------------------------------|-------------------------------|




                          B R P
e|------- ------- ------- -------|------- ------- ------- -------|
B|--------------------10---------|-------------------------------|
G|12--10----------10--10H12141210|------------------------10-----|
D|--------12--------------------12--------------------12---------|
A|-------------------------------|-------------------------------|
E|-------------------------------|-------------------------------|
  bad                                                 I   want
e|------- ------- ------- -------|------- ------- ------- -------|
B|-------------------------------|-------------------------------|
G|-------------------------------|10--10--10----------10---------|
D|-------------------------------|10--10--10----------10---------|
A|-------------------------------|-----------12\10/12------------|
D|-------------------------------|-------------------------------|




                                                           B
e|------- ------- ------- -------|------- ------- ------- -------|
B|12-B-13R12-B-13R12-------------|-------------------------------|
G|12-B-13R12-B-13R12-------------|----------------10--12--1214-14R
D|-------------------------------|------------12-----------------|
A|-------------------------------|-------------------------------|
E|-------------------------------|-------------------------------|
  you                                         I   want you so
e|------- ------- ------- -------|------- ------- ------- -------|
B|------------------------10--10-|-------------------------------|
G|------------------------10--10-12/13\12-10---------------------|
D|-------------------------------12/13\12-10---------------------|
A|-------------------------------|-------------------------------|
D|-------------------------------|-------------------------------|





e|------- ------- ------- -------|------- ------- ------- -------|
B|-------------------------------|-------------------------------|
G|12--10----------10-------------|--------10------10------10-----|
D|--------12--------------12-----|10------10------10H12---10-----|
A|-------------------------------|----12-------------------------|
E|-------------------------------|-------------------------------| 
  bad                     it's    driving me      mad     it's
e|------- ------- ------- -------|------- ------- ------- -------|
B|-------------------------------|-------------------------------|
G|-------------------------------|-------------------------------|
D|----------------10----------10-|10--10----------8--------------|
A|12---------------8-----------8-|10--10----------8--------------|
D|12-----------------------------|-------------------------------|



   2/4

e|------- -------|
B|---------------|
G|---------------|
D|---------------|
A|10----11----12-|
E|---------------|                                
  driving     me
e|------- -------|
B|---------------|
G|---------------|
D|---------------|
A|5-----6-----7--|
D|---------------|



   4/4

e|------- ------- ------- -------|------- ------- ------- -------|
B|--------6---6---6---6---6---6--|6---6--------------------------|
G|--------7---7---7---7---7---7--|7---7--------------------------|
D|--------6---6---6---6---6---6--|6---6--------------------------|
A|--------7---7---7---7---7---7--|7---7--------------------------|
E|0-------0---0---0---0---0---0--|0---0--------------------------|





e|------- ------- ------- -------|------- ------- ------- -------|
B|--------6---6---6---6-------6--|6---6--------------------------|
G|--------7---7---7---7-------7--|7---7--------------------------|
D|--------6---6---6---6-------6--|6---6--------------------------|
A|--------7---7---7---7-------7--|7---7--------------------------|
E|0-------0---0---0---0-------0--|0---0--------------------------|



                                          x

e|------- ------- ------- -------|------- ------- ------- -------|
B|--------6---6---6---6---6---6--|6------------------------------|
G|--------7---7---7---7---7---7--|7------------------------------|
D|--------6---6---6---6---6---6--|6------------------------------|
A|--------7---7---7---7---7---7--|7------------------------------|
E|0-------0---0---0---0---0---0--|0------------------------------|
                                                  She's   so          


    6/8

e|--------------- 1--------------|--------------- 1--------------|
B|----------3----------3---------|----------3----------3---------|
G|-----2--------------------2----|-----2--------------------2----|
D|0------------------------------|3------------------------------|
A|-------------------------------|-------------------------------|
E|-------------------------------|-------------------------------|

e|--------------- ---------------|--------------- ---------------|
B|-------------------------------|-------------------------------|
G|--------------------------2----|--------------------------2----|
D|0------------------------------|3------------------------------|
A|-------------------------------|-------------------------------|
D|-------------------------------|-------------------------------|





e|--------------- 1--------------|--------------- 1--------------|
B|----------3----------3---------|---------------------3---------|
G|-----1--------------------1----|----------1---------------1----|
D|2------------------------------|-----2-------------------------|
A|-------------------------------|1------------------------------|
E|-------------------------------|-------------------------------|
                                  heavy
e|--------------- ---------------|--------------- ---------------|
B|-------------------------------|-------------------------------|
G|-------------------------------|--------------------------1----|
D|2------------------------------|-------------------------------|
A|---------------------3----2----|1------------------------------|
D|-------------------------------|-------------------------------|





e|--------------- 1--------------|
B|----------2----------2---------|
G|-----2--------------------2----|
D|-------------------------------|
A|0------------------------------|
E|-------------------------------|
                                                 
e|--------------- ---------------|
B|-------------------------------|
G|--------------------------2----|
D|-------------------------------|
A|0------------------------------|
D|-------------------------------|





e|--------------- 1--------------|--------------- 1--------------|
B|----------3----------3---------|----------3----------3---------|
G|-----2--------------------2----|-----2--------------------2----|
D|0------------------------------|3------------------------------|
A|-------------------------------|-------------------------------|
E|-------------------------------|-------------------------------|
  Heavy
                 (Heavy           Heavy)          
e|--------------- ---------------|--------------- ---------------|
B|-------------------------------|-------------------------------|
G|--------------------------2----|-------------------------------|
D|0------------------------------|3-------------------------3----|
A|-------------------------------|-------------------------------|
D|-------------------------------|-------------------------------|





e|--------------- 1--------------|--------------- 1--------------|
B|----------3----------3---------|---------------------3---------|
G|-----1--------------------1----|----------1---------------1----|
D|2------------------------------|-----2-------------------------|
A|-------------------------------|1------------------------------|
E|-------------------------------|-------------------------------|
                            
e|--------------- ---------------|--------------- ---------------|
B|-------------------------------|-------------------------------|
G|-------------------------------|--------------------------1----|
D|2------------------------------|-------------------------------|
A|---------------------3----2----|1------------------------------|
D|-------------------------------|-------------------------------|


                                   4/4
                  (.

e|--------------- 1--------------|------- ------- ------- -------|
B|----------2--------------------|-------------------------------|
G|-----2-------------------------|------------------------5------|
D|-------------------------------|------------------/-7----------|
A|0------------------------------|-------------------------------|
E|-------------------------------|-------------------------------|
                                                
e|--------------- ---------------|--------------- ---------------|
B|-------------------------------|-------------------------------|
G|-------------------------------|-------------------------------|
D|-------------------------------|-------------------------------|
A|0------------------------------|-------------------------------|
D|-------------------------------|-------------------------------|





e|------- ------- ------- -------|------- ------- ------- -------|   
B|-------------------------------|-------------------------------|
G|7-B-9------R7B9R7------B8-R-7--|5---------------5---7---7-B-9--|
D|-------------------------------|----7-----/-7------------------|
A|-------------------------------|-------------------------------|
E|-------------------------------|-------------------------------|





e|------- ------- ------- -------|------- ------- ------- -------|
B|-------------------------------|-------------------------------|
G|9R8--5----------5-------7B8P5--|------------------------5------|
D|--------7--------------------7-|--------------------7----------|
A|-------------------------------|-------------------------------|
E|-------------------------------|-------------------------------|  

e|------- ------- ------- -------|------- ------- ------- -------|
B|-------------------------------|-------------------------------|
G|----------------------------5-5|--5-----5----------------------|
D|----------------------------5-5|--5-----5----------------------|
A|-------------------------------|7---7--------------------------|
D|-------------------------------|-------------------------------|





e|------- ------- ------- -------|------- ------- ------- -------|
B|-------------------------------|-------------------------------|
G|7-B-9-R-7-B-9-R-7-B-9-R-7P5----|5---7B9---------5---7---7-B-9-9R
D|----------------------------7--|-------------------------------|
A|-------------------------------|-------------------------------|
E|-------------------------------|-------------------------------|

e|------- ------- ------- -------|------- ------- ------- -------|
B|-------------------------------|-------------------------------|
G|-------------------------------|5------------------------------|
D|-------------------------------|5------------------------------|
A|--------------------------5/7--|----7--------------------------|
D|-------------------------------|-------------------------------|





e|------- ------- ------- -------|------- ------- ------- -------|
B|-------------------------------|-------------------------------|
G|7---5-----------5--------------|-------------------------------|
D|--------7---------------7------|5-------5---5-H-7-------5------|
A|-------------------------------|----7--------------------------|
E|-------------------------------|-------------------------------|

e|------- ------- ------- -------|------- ------- ------- -------|
B|-------------------------------|-------------------------------|
G|-------------------------------|----------------5--------------|
D|----------------5--------------|7-------7-------3--------------|
A|7---------------3--------------|5-------5----------------------|
D|7------------------------------|-------------------------------|



   2/4

e|------- -------|
B|---------------|
G|---------------|
D|---------------|
A|7---5---3B4-~--|
E|---------------|                                     



   4/4

e|------- ------- ------- -------|------- ------- ------- -------|
B|------------------------5---5--|------------------------10-----|
G|------------------------5---5B6|------------------------10-----|
D|------------------5----7-------|--------------------12---------|
A|----------------7--------------|-------------------------------|
E|5-~----------------------------|-------------------------------|     

e|------- ------- ------- -------|------- ------- ------- -------|
B|-------------------------------|-------------------------------|
G|--------5----7/8--------5------|--------5----------------------|
D|--------5----7/8--------5------|--------5----------------------|
A|-------------------------------|-------------------------------|
D|-------------------------------|-------------------------------|




                               B R P H
e|------- ------- ------- -------|------- ------- ------- -------|
B|12---B--13---13R121012------1214121012----------10--12--12B1313R
G|12---B--13---13R121012-B14--1214121012----------10--12--12B1313R
D|-------------------------------|-------------------------------|
A|-------------------------------|-------------------------------|
E|-------------------------------|-------------------------------|

e|------- ------- ------- -------|------- ------- ------- -------|
B|------------------------6------|-------------------------------|
G|----------5-------------5------|7-------5----------------------|
D|----------5--------------------|7-------5----------------------|
A|-------------------------------|-------------------------------|
D|-------------------------------|-------------------------------|




                           B P H
e|------- ------- ------- -------|------- ------- ------- -------|
B|12-P-10---------10------12131012------------------------10-----|
G|12-P-10---------10------12131012--------------------12--10-----|
D|--------12---------------------|--------------------12---------|
A|-------------------------------|-------------------------------|
E|-------------------------------|-------------------------------|

e|------- ------- ------- -------|------- ------- ------- -------|
B|-------------------------------|-------------------------------|
G|-------------------------------|----10--10------10-------------|
D|-------------------------------|----11--10------10-------------|
A|-------------------------------|------------12-----------------|
D|-------------------------------|-------------------------------|





e|------- ------- ------- -------|------- ------- ------- -------|
B|121312131213121312-~-----------|----------------10--12--12B1313R
G|121312131213121312-~-----------|-----------12---10--12--12B1313R
D|-------------------------------|-----------12------------------|
A|-------------------------------|-------------------------------|
E|-------------------------------|-------------------------------|

e|------- ------- ------- -------|------- ------- ------- -------|
B|-------------------------------|-------------------------------|
G|-------------------------------|--------10---------------------|
D|------------------10-----------|--------10---------------------|
A|-------------10/12--12\10/12---|12-----------------------------|
D|-------------------------------|----12-------------------------|





e|------- ------- ------- -------|------- ------- ------- -------|
B|12--10----------10-------------|-------------------------------|
G|12--10--12------10------12-----|10------10---10H12------10-----|
D|--------12--------------12-----|10------10---10H12------10-----|
A|-------------------------------|----12-------------------------|
E|-------------------------------|-------------------------------|    

e|------- ------- ------- -------|------- ------- ------- -------|
B|-------------------------------|-------------------------------|
G|----------------10-------------|10-------8------8-------8------|
D|-----------------8-------------|10-------8------8-------8------|
A|12-----------------------------|-------------------------------|
D|12-----------------------------|-------------------------------|



   2/4

e|------- -------|
B|---------------|
G|---------------|
D|---------------|
A|10----11----12-|
E|---------------|

e|------- -------|
B|---------------|
G|---------------|
D|---------------|
A|5-----6-----7--|
D|---------------|



   4/4

e|------- ------- ------- -------|------- ------- ------- -------|
B|--------6-------6---6-------6--|6---6---6-/----0---------------|
G|--------7-------7---7-------7--|7---7---7-/--------------------|
D|--------6-------6---6-------6--|6---6---6-/--------------------|
A|--------7-------7---7-------7--|7---7---7-/--------------------|
E|0-------0-------0---0-------0--|0---0---0----------------------|





e|------- ------- ------- -------|------- ------- ------- -------|
B|--------6---6---6---6-------6--|6---6-/------------------------|
G|--------7---7---7---7-------7--|7---7-/------------------------|
D|--------6---6---6---6-------6--|6---6-/------------------------|
A|--------7---7---7---7-------7--|7---7-/------------------------|
E|0-------0---0---0---0-------0--|0---0--------------------------|



                                          x

e|------- ------- ------- -------|------- ------- ------- -------|
B|--------6---6---6---6---6---6--|6------------------------------|
G|--------7---7---7---7---7---7--|7------------------------------|
D|--------6---6---6---6---6---6--|6------------------------------|
A|--------7---7---7---7---7---7--|7------------------------------|
E|0-------0---0---0---0---0---0--|0------------------------------|
                                                  She's   so          


    6/8

e|--------------- 1--------------|--------------- 1--------------|
B|----------3----------3---------|----------3----------3---------|
G|-----2--------------------2----|-----2--------------------2----|
D|0------------------------------|3------------------------------|
A|-------------------------------|-------------------------------|
E|-------------------------------|-------------------------------|

e|--------------- ---------------|--------------- ---------------|
B|-------------------------------|-------------------------------|
G|--------------------------2----|--------------------------2----|
D|0------------------------------|3------------------------------|
A|-------------------------------|-------------------------------|
D|-------------------------------|-------------------------------|





e|--------------- 1--------------|--------------- 1--------------|
B|----------3----------3---------|---------------------3---------|
G|-----1--------------------1----|----------1---------------1----|
D|2------------------------------|-----2-------------------------|
A|-------------------------------|1------------------------------|
E|-------------------------------|-------------------------------|
  heavy
e|--------------- ---------------|--------------- ---------------|
B|-------------------------------|-------------------------------|
G|-------------------------------|--------------------------1----|
D|2------------------------------|-------------------------------|
A|---------------------3----2----|1------------------------------|
D|-------------------------------|-------------------------------|





e|--------------- 1--------------|
B|----------2----------2---------|
G|-----2--------------------2----|
D|-------------------------------|
A|0------------------------------|
E|-------------------------------|
                       She's so                              
e|--------------- ---------------|
B|-------------------------------|
G|-------------------------------|
D|--------------------------2----|
A|0------------------------------|
D|-------------------------------|                        





e|--------------- 1--------------|--------------- 1--------------|
B|----------3----------3---------|----------3----------3---------|
G|-----2--------------------2----|-----2--------------------2----|
D|0------------------------------|3------------------------------|
A|-------------------------------|-------------------------------|
E|-------------------------------|-------------------------------|
  heavy
                   Heavy          Heavy
e|--------------- ---------------|--------------- ---------------|
B|-------------------------------|-------------------------------|
G|--------------------------2----|--------------------------2----|
D|0------------------------------|3------------------------------|
A|-------------------------------|-------------------------------|
D|-------------------------------|-------------------------------|





e|--------------- 1--------------|--------------- 1--------------|
B|----------3----------3---------|---------------------3---------|
G|-----1--------------------1----|----------1---------------1----|
D|2------------------------------|-----2-------------------------|
A|-------------------------------|1------------------------------|
E|-------------------------------|-------------------------------|
                         
e|--------------- ---------------|--------------- ---------------|
B|-------------------------------|-------------------------------|
G|-------------------------------|--------------------------1----|
D|2------------------------------|-------------------------------|
A|---------------------3----2----|1------------------------------|
D|-------------------------------|-------------------------------|


                                   4/4
                  (.

e|--------------- 1--------------|------- ------- ------- -------|
B|-------------------------------|-------------------------------|
G|-----2----2--------------------|------------------------5------|
D|-------------------------------|--------------------/-7--------|
A|0------------------------------|-------------------------------|
E|-------------------------------|-------------------------------|
                                                        I want
e|--------------- ---------------|--------------- ---------------|
B|-------------------------------|-------------------------------|
G|-------------------------------|-------------------------------|
D|-------------------------------|-------------------------------|
A|0------------------------------|-------------------------------|
D|-------------------------------|-------------------------------|


                     


e|------- ------- ------- -------|------- ------- ------- -------|
B|-------------------------------|-------------------------------|
G7B9R7P5-------------------------|----------------5---7---7-B-9-8R
D|------7------------------------|------------7------------------|
A|-------------------------------|-------------------------------|
E|-------------------------------|-------------------------------|
  you                                         I   want you so
e|------- ------- ------- -------|------- ------- ------- -------|
B|-------------------------------|-------------------------------|
G|------------------------5---5--|--------5----------------------|
D|------------------------5---5--|7-------5----------------------|
A|--------------------7----------|7------------------------------|
D|-------------------------------|-------------------------------|





e|------- ------- ------- -------|------- ------- ------- -------|
B|-------------------------------|7---5--------------------------|
G|7-P-5-----------5-------7P5----|--------5---------------5------|
D|--------7-------------------7--|------7------------------------|
A|-------------------------------|-------------------------------|
E|-------------------------------|-------------------------------|
  bad                                                     want
e|------- ------- ------- -------|------- ------- ------- -------|
B|-------------------------------|--------5-------7/8-----5------|
G|-------------------------------|--------5-------7/8-----5------|
D|-------------------------------|-------------------------------|
A|-------------------------------|-------------------------------|
D|-------------------------------|-------------------------------|





e|------- ------- ------- -------|------- ------- ------- -------|
B|-------------------------------|----------------5---7---7-/-8--|
G|7B8R7B8R7P5--------------------|------------7---5---7---7-/-8--|
D|------------7------------------|------------7------------------|
A|-------------------------------|-------------------------------|
E|-------------------------------|-------------------------------|
  you                                         I   want you so
e|------- ------- ------- -------|------- ------- ------- -------|
B|-------------------------------|-------------------------------|
G|------------------------5---5--|5-------5----------------------|
D|--------------------7---5---5--|5-------5----------------------|
A|--------------------7----------|-------------------------------|
D|-------------------------------|-------------------------------|





e|------- ------- ------- -------|------- ------- ------- -------|
B|7---5--------------------------|-------------------------------|
G|7---5-----------5--------------|5-------5-------5-------5------|
D|--------7---------------7------|5-------5-------5H7-----5------|
A|-------------------------------|----7--------------------------|
E|-------------------------------|-------------------------------|
  bad                     it's    driving me      mad     it's
e|------- ------- ------- -------|------- ------- ------- -------|
B|-------------------------------|-------------------------------|
G|-------------------------------|5-------5-------5-------5------|
D|----------------5--------------|5-------5-------5-------5------|
A|7---------------3--------------|-------------------------------|
D|7------------------------------|-------------------------------|



   2/4

e|------- -------|
B|---------------|
G|---------------|
D|---------------|
A|7---5---3B4----|
E|---------------|
  driving me
e|------- -------|
B|---------------|
G|--------5---5--|
D|--------5---5--|
A|---------------|
D|---------------|



   4/4

e|------- ------- ------- -------|------- ------- ------- -------|
B|-------------------------------|-------------------------------|
G|------------------------5---5--|------------------------10-----|
D|------------------5---7--------|--------------------12---------|
A|--------------5/7--------------|-------------------------------|
E|5-~----------------------------|-------------------------------|
  mad                                                    I   want
e|------- ------- ------- -------|------- ------- ------- -------|
B|-------------------------------|-------------------------------|
G|------------5---5--------------|5------------------------------|
D|------------5---5--------------|5------------------------------|
A|-------------------------------|-------------------------------|
D|-------------------------------|-------------------------------|




  B R P
e|------- ------- ------- -------|------- ------- ------- -------|
B|-------------------------------|----------------10-------------|
G12141210------------------------|----------------10--12--12-B-14|
D|-------12----------------------|----12--12--12-----------------|
A|-------------------------------|-------------------------------|
E|-------------------------------|-------------------------------|
  you                                 you know I  want you so
e|------- ------- ------- -------|------- ------- ------- -------|
B|-------------------------------|-------------------------------|
G|----------------10--10--10--10-|10--\--------------------------|
D|----------------10--10--10--10-|10--\--------------------------|
A|-------------------------------|-------------------------------|
D|-------------------------------|-------------------------------|





e|------- ------- ------- -------|------- ------- ------- -------|
B|-------------------------------|------------------------10-----|
G|12-P-10---------10-------------|------------------------10-----|
D|--------12---------------------|--------------------12---------|
A|-------------------------------|-------------------------------|
E|-------------------------------|-------------------------------|
  bad,                    babe                        I   want
e|------- ------- ------- -------|------- ------- ------- -------|
B|-------------------------------|-------------------------------|
G|---------------------------10--|--------10------12/13---10-----|
D|---------------------------10--|--------10------12/13---10-----|
A|---------------------10/12---12\10/12--------------------------|
D|-------------------------------|-------------------------------|





e|------- ------- ------- -------|------- ------- ------- -------|
B|12-B-13R12-B-13R12-\-----------|----------------10--12--12-B-13|
G|12-B-13R12-B-13R12-------------|----------------10--12--12-B-13|
D|-------------------------------|------------12-----------------|
A|-------------------------------|-------------------------------|
E|-------------------------------|-------------------------------|
  you                                 you know I want you so
e|------- ------- ------- -------|------- ------- ------- -------|
B|-----------------------------10|--10----10---------------------|
G|-----------------------------10|--10----10---------------------|
D|---------------------------12--|----12-------------------------|
A|-------------------------------|-------------------------------|
D|-------------------------------|-------------------------------|





e|------- ------- ------- -------|------- ------- ------- -------|
B|12-P-10---------10-------------|-------------------------------|
G|12-P-10---------10-------------|----------------10------10-----|
D|------------------------12-----|10------10------10H12---10-----|
A|-------------------------------|----12-------------------------|
E|-------------------------------|-------------------------------|    
  bad                     it's    driving me      mad     it's
e|------- ------- ------- -------|------- ------- ------- -------|
B|-------------------------------|-------------------------------|
G|-------------------------------|-------------------------------|
D|----------------10-------------|10--------------8--------------|
A|-----------------8-------------|10--------------8--------------|
D|-------------------------------|-------------------------------|


 
  2/4

e|------- -------|
B|---------------|
G|---------------|
D|---------------|
A|10----11----12-|
E|---------------| 
  driving me
e|------- -------|
B|---------------|
G|---------------|
D|---------------|
A|5-----6-----7--|
D|---------------|



   4/4

e|------- ------- ------- -------|------- ------- ------- -------|
B|--------6---6---6---6-------6--|6---6---6-/--------------------|
G|--------7---7---7---7-------7--|7---7---7-/--------------------|
D|--------6---6---6---6-------6--|6---6---6-/--------------------|
A|--------7---7---7---7-------7--|7---7---7-/--------------------|
E|0-------0---0---0---0-------0--|0---0---0----------------------|
  mad                                          Yeah!




e|------- ------- ------- -------|------- ------- ------- -------|
B|------------6---6---6---6---6--|6---6--------------------------|
G|------------7---7---7---7---7--|7---7--------------------------|
D|------------6---6---6---6---6--|6---6--------------------------|
A|------------7---7---7---7---7--|7---7--------------------------|
E|0-----------0---0---0---0---0--|0---0--------------------------|



                                          x

e|------- ------- ------- -------|------- ------- ------- -------|
B|--------6---6---6---6---6---6--|6------------------------------|
G|--------7---7---7---7---7---7--|7------------------------------|
D|--------6---6---6---6---6---6--|6------------------------------|
A|--------7---7---7---7---7---7--|7------------------------------|
E|0-------0---0---0---0---0---0--|0------------------------------|
                                                  She's   so          


         CODA

    6/8

e|--------------- 1--------------|--------------- 1--------------|
B|----------3----------3---------|----------3----------3---------|
G|-----2--------------------2----|-----2--------------------2----|
D|0------------------------------|3------------------------------|
A|-------------------------------|-------------------------------|
E|-------------------------------|-------------------------------|

e|--------------- ---------------|--------------- ---------------|
B|-------------------------------|-------------------------------|
G|-------------------------------|-------------------------------|
D|-------------------------------|-------------------------------|
A|-------------------------------|--------------------------0----|
D|0---------------2--------------|3---------------5--------------|





e|--------------- 1--------------|--------------- 1--------------|
B|----------3----------3---------|---------------------3---------|
G|-----1--------------------1----|----------1---------------1----|
D|2------------------------------|-----2-------------------------|
A|-------------------------------|1------------------------------|
E|-------------------------------|-------------------------------|
                             
e|--------------- ---------------|--------------- ---------------|
B|-------------------------------|-------------------------------|
G|-------------------------------|-------------------------------|
D|-------------------------------|--------------------------0----|
A|---------------------3----2----|1--------------------3---------|
D|2------------------------------|-------------------------------|





e|--------------- 1--------------|
B|----------2----------2---------|
G|-----2--------------------2----|
D|-------------------------------|
A|0------------------------------|
E|-------------------------------|
                                                   
e|--------------- ---------------|
B|-------------------------------|
G|-------------------------------|
D|-------------------------------|
A|0------------------------------|
D|---------------------3----2----|                        





e|--------------- 1--------------|--------------- 1--------------|
B|----------3----------3---------|----------3----------3---------|
G|-----2--------------------2----|-----2--------------------2----|
D|0------------------------------|3------------------------------|
A|-------------------------------|-------------------------------|
E|-------------------------------|-------------------------------|

e|--------------- ---------------|--------------- ---------------|
B|-------------------------------|-------------------------------|
G|-------------------------------|-------------------------------|
D|-------------------------------|-------------------------------|
A|-------------------------------|--------------------------0----|
D|0---------------2--------------|3---------------5--------------|





e|--------------- 1--------------|--------------- 1--------------|
B|----------3----------3---------|---------------------3---------|
G|-----1--------------------1----|----------1---------------1----|
D|2------------------------------|-----2-------------------------|
A|-------------------------------|1------------------------------|
E|-------------------------------|-------------------------------|
                          
e|--------------- ---------------|--------------- ---------------|
B|-------------------------------|-------------------------------|
G|-------------------------------|-------------------------------|
D|-------------------------------|--------------------------0----|
A|---------------------3----2----|1--------------------3---------|
D|2------------------------------|-------------------------------|





e|--------------- 1--------------|
B|----------2----------2---------|
G|-----2--------------------2----|
D|-------------------------------|
A|0------------------------------|
E|-------------------------------|
                                                  
e|--------------- ---------------|
B|-------------------------------|
G|-------------------------------|
D|-------------------------------|
A|0------------------------------|
D|---------------------3----2----|                        


                         


e|--------------- 1--------------|--------------- 1--------------|
B|----------3----------3---------|----------3----------3---------|
G|-----2--------------------2----|-----2--------------------2----|
D|0------------------------------|3------------------------------|
A|-------------------------------|-------------------------------|
E|-------------------------------|-------------------------------|

e|--------------- ---------------|--------------- ---------------|
B|-------------------------------|-------------------------------|
G|-------------------------------|-------------------------------|
D|-------------------------------|-------------------------------|
A|-------------------------------|--------------------------0----|
D|0---------------2--------------|3---------------5--------------|





e|--------------- 1--------------|--------------- 1--------------|
B|----------3----------3---------|---------------------3---------|
G|-----1--------------------1----|----------1---------------1----|
D|2------------------------------|-----2-------------------------|
A|-------------------------------|1------------------------------|
E|-------------------------------|-------------------------------|
                             
e|--------------- ---------------|--------------- ---------------|
B|-------------------------------|-------------------------------|
G|-------------------------------|-------------------------------|
D|-------------------------------|--------------------------0----|
A|---------------------3----2----|1--------------------3---------|
D|2------------------------------|-------------------------------|





e|--------------- 1--------------|
B|----------2----------2---------|
G|-----2--------------------2----|
D|-------------------------------|
A|0------------------------------|
E|-------------------------------|
                                                   
e|--------------- ---------------|
B|-------------------------------|
G|-------------------------------|
D|-------------------------------|
A|0------------------------------|
D|---------------------3----2----|       





        B  Bend
        R  Release
        /  Slide up
        \  Slide down
        H  Hammer-on
        P  Pull-off
        ~  Vibrato
        +  Harmonic
        x  Mute note
        .  Play note like a dot in standard notation
        ^  Ties two notes together
        (. Pause



  -----------------------------------------------------------
  
  THE BEATLES - HERE COMES THE SUN (Harrison) From ABBEY ROAD 
                album. Released on 26th September 1969.

  -----------------------------------------------------------

  Tabbed by:PJVillanueva





  Here comes the sun, here comes the sun,
  And I say it's all right

  Little darling, it's been a long cold lonely winter
  Little darling, it feels like years since it's been here
  Here comes the sun, here comes the sun
  And I say it's all right

  Little darling, the smiles returning to the faces
  Little darling, it seems like years since it's been here
  Here comes the sun, here comes the sun
  And I say it's all right

  Sun, sun, sun, here it comes
  Sun, sun, sun, here it comes
  Sun, sun, sun, here it comes
  Sun, sun, sun, here it comes
  Sun, sun, sun, here it comes

  Little darling, I feel that ice is slowly melting
  Little darling, it seems like years since it's been clear
  Here comes the sun, here comes the sun,
  And I say it's all right
  It's all right



                 (Use a capo on the seventh fret)



  INTRO
                                    
  D             Dsus2 D                       Dsus2   D       G
e|------- 2------ 0---2-- -------|------- 2---0-- ------- -------|
B|--------3---3---------------3--|--------3-----------3-------0--|
G|--------2-------------------2--|--------2-----------2-------0--|
D|--------0-------0-------0------|0-------0-------0-------0------|
A|-------------------------------|-------------------------------|
E|-------------------------------|-------------------------------|




              G6      G           A Asus2 A Asus4     A       D
e|------- ----0-- ------- -------|------- ------- ----0-- -------|
B|----3-------0-------3-------0--|2---0---2---3---------------3--|
G|----0-------0-------0-------0--|2-------2-------2-------2---2--|
D|0-------0-------0-------0------|2-------2-------2-------2------|
A|2-------2-------2-------2------|0-------0-------0-------0------|
E|3-------3-------3-------3------|-------------------------------|




                Dsus2 D                      Dsus2    D       G
e|------- 2------ 0---2-- -------|------- 2---0-- ------- -------|
B|--------3---3---------------3--|--------3-----------3-------0--|
G|--------2-------------------2--|--------2-----------2-------0--|
D|0-------0-------0-------0------|0-------0-------0-------0------|
A|-------------------------------|-------------------------------|
E|-------------------------------|-------------------------------|




      Gmaj7   G6      G       A
e|----2-- ----0-- ------- -------|------- ------- ------- -------|
B|----0-------0-------3-------2--|-------------------------------|
G|----0-------0-------0-------2--|-------------------------------|
D|0-------0-------0-------0---2--|-------------------------------|
A|2-------2-------2-------2---0--|-------------------------------|
E|3-------3-------3-------3------|-------------------------------|



  00:15
  D         Dsus2     D                                       G
e|------- 2---0-- ----2-- -------|------- 2------ 0---2-- -------|
B|--------3-----------3-------3--|--------3---3---3-------3---0--|
G|--------2-----------2-------2--|----2---2-------2-------2---0--|
D|0-------0-------0-------0------|0-------0-------0-------0------|
A|-------------------------------|-------------------------------|
E|-------------------------------|-------------------------------|
          Here        the     sun         doo doo doo doo
              comes



        Gmaj7 G6    Gmaj7     E7
e|------- 2---0-- ----2-- -------|------- ------- ------- -------|
B|--------0---0-------0-------3--|----3---3-------3-------3------|
G|--------0---0-------0-------1--|----1---1-------1-------1------|
D|0-------0-------0-------0---2--|----2---2-------2-------2------|
A|2-------2-------2-------2---2--|----2---2-------2-------2------|
E|3-------3-------3-------3------|0-------0-------0-------0------|
          Here        the     sun             I       say
              comes



  D           Dsus2   D
e|----2-- ----0-- ------- -------|------- 0------ ----0-- -------|
B|----3-------3-------3----------|----3-----------3-----------3--|
G|----2-------2-------2-------2-/|4-----------2-----------0------|
D|0-------0-------0--------------|-------------------------------|
A|-------------------------------|-------------------------------|
E|-------------------------------|-------------------------------|
      It's    allright
  

                                  00:27
                                  VERSE
                                  D             Dsus2 D
e|0------ ----0-- ------- -------|------- 2------ 0---2-- -------|
B|--------3-------3---2---0------|--------3---3---------------3--|
G|----2-----------2-------2---2--|--------2-------------------2--|
D|-------------------------------|0-------0-------0-------0------|
A|----------------0-------0------|-------------------------------|
E|-------------------------------|-------------------------------|
                                          Little  darling



                              G             
e|------- 2---0-- ------- -------|------- ----0-- ------- -------|
B|--------3-----------3-------0--|----3-------0-------3-------0--|
G|--------2-------------------0--|----0-------0-------0-------0--|
D|0-------0-------0-------0------|0-------0-------0-------0------|
A|-------------------------------|2-------2-------2-------2------|
E|-------------------------------|3-------3-------3-------3------|
       it's    been  a        long    cold    lonely          winter




  A Asus2 A Asus4     A           D             Dsus2 D
e|------- ------- ----0-- -------|------- 2------ 0---2-- -------|
B|2---0---2---3-------2----------|--------3---3---------------3--|
G|2-------2-------2--------------|--------2-------------------2--|
D|2-------2-------2--------------|0-------0-------0-------0------|
A|0-------0-------0-------0------|-------------------------------|
E|-------------------------------|-------------------------------|
                                          Little darling




                              G         Gmaj7 G6      G       A
e|------- 2---0-- ------- -------|------- 2---0-- ------- -------|
B|--------3-----------3-------0--|--------0---0-------3-------2--|
G|--------2-------------------0--|------------0-------0-------2--|
D|0-------0-------0-------0------|0-------0-------0-------0---2--|
A|-------------------------------|2-------2-------2-------2---0--|
E|-------------------------------|3-------3-------3-------3------|
      it      feels   like    years       since       been    here
                                              it's
                                  
                                  CHORUS
                                  00:42
                                  D         Dsus2     D
e|------- ------- ------- -------|------- 2---0-- ----2-- -------|
B|----2-------2---2---2---2---2--|--------3-----------3-------3--|
G|----2-------2---2---2---2---2--|--------2-----------2-------2--|
D|2---2---2---2---2---2---2---2--|0-------0-------0-------0------|
A|0-------0-------0-------0------|-------------------------------|
E|-------------------------------|-------------------------------|
                                          Here        the     sun
                                              comes


                                  
                Dsus2 D           G     Gmaj7 G6    Gmaj7     E7
e|------- 2------ 0---2-- -------|------- 2---0-- ----2-- -------|
B|--------3---3---3-------3------|--------0---0-------0-------3--|
G|----2---2-------2-------2------|--------0---0-------0-------1--|
D|0-------0-------0-------0------|0-------0-------0-------0---2--|
A|-------------------------------|2-------2-------2-------2---2--|
E|-------------------------------|3-------3-------3-------3------|
          Doo doo doo doo                 Here        the     sun
                                              comes



                                  D         Dsus2     D
e|------- ------- ------- -------|----2-- ----0-- ------- -------|
B|----3---3-------3-------3------|----3-------3-------3----------|
G|----1---1-------1-------1------|----2-------2-------2-------2--|
D|----2---2-------2-------2------|0-------0-------0-------0------|
A|----2---2-------2-------2------|-------------------------------|
E|0-------0-------0-------0------|-------------------------------|
              I      say                  it's 
                                              allright



                                                Asus4 A Asus2 A
e|------- 0------ ----0-- -------|0------ ----0-- ------- -------|
B|----3-----------3-----------3--|--------3-------3---2---0------|
G|4-----------2-----------0------|----2-----------2-------2---2--|
D|-------------------------------|-------------------------------|
A|-------------------------------|----------------0-------0------|
E|-------------------------------|-------------------------------|




  D             Dsus2 D       D6  A Asus2 A Asus4     A
e|------- 2------ 0---2-- -------|------- ------- ----0-- -------|
B|--------3---3---------------0--|2---0---2---3-------2----------|
G|--------2-------------------2--|2-------2-------2-------2------|
D|0-------0-------0-------0---0--|2-------2-------2-------2------|
A|-------------------------------|0-------0-------0-------0------|
E|-------------------------------|-------------------------------|


  VERSE
  00:59
               
e|------- 2------ 0---2-- -------|------- 2---0-- ------- -------|
B|--------3---3---------------3--|--------3-----------3-------0--|
G|--------2-------------------2--|--------2-------------------0--|
D|0-------0-------0-------0------|0-------0-------0-------0------|
A|-------------------------------|-------------------------------|
E|-------------------------------|-------------------------------|
          Little  darling                 the smiles      returning




e|------- ----0-- ------- -------|------- ------- ----0-- -------|
B|----3-------0-------3-------0--|2---0---2---3-------2----------|
G|----0-------0-------0-------0--|2-------2-------2-------2------|
D|0-------0-------0-------0------|2-------2-------2-------2------|
A|2-------2-------2-------2------|0-------0-------0-------0------|
E|3-------3-------3-------3------|-------------------------------|
              to      the     faces




e|------- 2------ 0---2-- -------|------- 2---0-- ------- -------|
B|--------3---3---------------3--|--------3-----------3-------0--|
G|--------2-------------------2--|--------2-------------------0--|
D|0-------0-------0-------0------|0-------0-------0-------0------|
A|-------------------------------|-------------------------------|
E|-------------------------------|-------------------------------|
          Little  darling                 it  seems   like    years




e|----2-- ----0-- ------- -------|------- ------- ------- -------|
B|----0-------0-------3-------2--|2-------2---2---3---3-------3--|
G|----0-------0-------0-------2--|2-------2---2---2---2---2---2--|
D|0-------0-------0-------0---2--|2-------2---2---2---2---2------|
A|2-------2-------2-------2------|0-------0-------0-------0------|
E|3-------3-------3-------3------|-------------------------------|
          since       been    here
              it's

  CHORUS
  01:14

e|------- 2---0-- ----2-- -------|------- 2------ 0---2-- -------|
B|--------3-----------3-------3--|--------3---3---------------0--|
G|--------2-------------------2--|----2---2-------------------0--|
D|0-------0-------0-------0------|0-------0-------0-------0------|
A|-------------------------------|-------------------------------|
E|-------------------------------|-------------------------------|
          Here        the     sun
              comes



e|------- 2---0-- ----2-- -------|------- ------- ------- -------|
B|--------0---0-------0-------3--|----3---3-------3-------3------|
G|--------0---0-------0-------1--|----1---1-------1-------1------|
D|0-------0-------0-------0---2--|----2---2-------2-------2------|
A|2-------2-------2-------2---2--|----2---2-------2-------2------|
E|3-------3-------3-------3------|0-------0-------0-------0------|
          Here        the     sun             I       say
              comes



e|----2-- ----0-- ------- -------|------- 0------ ----0-- -------|
B|----3-------3-------3----------|----3-----------3-----------3--|
G|----2-------2-------2-------2-/|4-----------2-----------0------|
D|0-------0-------0-------0------|-------------------------------|
A|-------------------------------|-------------------------------|
E|-------------------------------|-------------------------------|
      it's    allright
   
        


e|0------ ----0-- ------- -------|------- 2------ 0---2-- -------|
B|--------3-------3---2---0------|--------3---3---------------0--|
G|----2-----------2-------2---2--|--------2-------------------0--|
D|----------------2-------2------|0-------0-------0-------0------|
A|----------------0-------0------|-------------------------------|
E|-------------------------------|-------------------------------|


  01:29
  7/8 Time                     11/8 
  A                            F           C           G              
e|------- ------- ------- ----|------- ------- ------- ------- ------- ---|
B|2-------2-------------------|--------1----------------------------------|
G|2-------2-------------------|----2---------------0-----------0----------|
D|2-------2---------------2---|3---------------2-----------0--------------|
A|0-------0-------0---4-------|------------3-----------2---------------2--|
E|----------------------------|------------------------------------3------|



  4/4 
  D
e|2------ 2---2-- 2------ 2------|
B|3-------3---3---3-------3------|
G|2-------2---2---2-------2------|
D|0-------0-------0-------0------|
A|-------------------------------|
E|-------------------------------|



   

e|------- ------- ------- ----|------- ------- ------- ------- ------- ---|
B|2-------2-------------------|--------1----------------------------------|
G|2-------2-------------------|----2---------------0-----------0----------|
D|2-------2---------------2---|3---------------2-----------0--------------|
A|0-------0-------0---4-------|------------3-----------2---------------2--|
E|----------------------------|------------------------------------3------|
                               Sun         sun         sun         here 
                                                                       it



e|2------ 2------ 2------ 2------|
B|3-------3-------3-------3------|
G|2-------2-------2-------2------|
D|0-------0-------0-------0------|
A|-------------------------------|
E|-------------------------------|
  comes





e|------- ------- ------- ----|------- ------- ------- ------- ------- ---|
B|2-------2-------------------|--------1----------------------------------|
G|2-------2-------------------|----2---------------0-----------0----------|
D|2-------2---------------2---|3---------------2-----------0--------------|
A|0-------0-------0---4-------|------------3-----------2---------------2--|
E|----------------------------|------------------------------------3------|
                               Sun         sun         sun         here 
                                                                       it



e|2------ 2------ ----2-- -------|
B|3-------3-----------3-------2--|
G|2-------2-----------2-------2--|
D|0-------0-------------------2--|
A|-------------------------------|
E|-------------------------------|
  comes



  

e|------- ------- ------- ----|------- ------- ------- ------- ------- ---|
B|----0---2-------------------|--------1----------------------------------|
G|----2---2-------------------|----2---------------0-----------0----------|
D|----2---2---------------2---|3---------------2-----------0--------------|
A|0-------0-------0---4-------|------------3-----------2---------------2--|
E|----------------------------|------------------------------------3------|
                               Sun         sun         sun         here        
                                                                       it



e|2------ 2------ ----2-- -------|
B|3-------3-----------3-------2--|
G|2-------2-----------2-------2--|
D|0-------0-------0-------0---2--|
A|-------------------------------|
E|-------------------------------|
  comes



 

e|------- ------- ------- ----|------- ------- ------- ------- ------- ---|
B|----0---2-------------------|--------1----------------------------------|
G|----2---2-------------------|----2---------------0-----------0----------|
D|----2---2---------------2---|3---------------2-----------0--------------|
A|0-------0-------0---4-------|------------3-----------2---------------2--|
E|----------------------------|------------------------------------3------|
                               Sun         sun         sun         here 
                                                                       it



e|2------ 2------ ----2-- -------|
B|3-------3-----------3-------2--|
G|2-------2-----------2-------2--|
D|0-------0-------0-------0---2--|
A|-------------------------------|
E|-------------------------------|
  comes



  

e|------- ------- ------- ----|------- ------- ------- ------- ------- ---|
B|----0---2-------------------|--------1----------------------------------|
G|----2---2-------------------|----2---------------0-----------0----------|
D|----2---2---------------2---|3---------------2-----------0--------------|
A|0-------0-------0---4-------|------------3-----------2---------------2--|
E|----------------------------|------------------------------------3------|
                               Sun         sun         sun         here 
                                                                       it

   4/4
                                  02:04
  D                           A                     Asus2 A  Asus4
e|2------ 2------ 2------ 2------|------- ------- ------- -------|
B|3-------3-------3-------3---2--|--------2-------2---0---2---3--|
G|2-------2-------2-------2---2--|--------2-------2---2---2---2--|
D|0-------0-------0-------0---2--|--------2-------2---2---2---2--|
A|-------------------------------|0-------0-------0-------0------|
E|-------------------------------|-------------------------------|
  comes



                      A Asus4 A                     Asus4     A7
e|------- ------- ------- ----0--|------- 0------ 0------ 0---3--|
B|--------3-------3---2---3---2--|--------2-------2---3---2---2--|
G|--------2-------2-------2---2--|--------2-------2---2---2---2--|
D|--------2-------2-------2------|-------------------------------|
A|0-------0-------0-------0------|0-------0-------0-------0------|
E|-------------------------------|-------------------------------|


                                  VERSE
                                  02:12  

e|------- ------- ------- -------|------- 2------ 0---2-- -------|
B|----2---2-------2-------2------|--------3---3---------------3--|
G|----0---0-------0-------0------|--------2-------------------2--|
D|----2---2-------2-------2------|0-------0-------0-------0------|
A|0-------0-------0-------0------|-------------------------------|
E|-------------------------------|-------------------------------|
                                          Little  darling




e|------- 2---0-- ------- -------|------- ----0-- ------- -------|
B|--------3-----------3-------0--|----3-------0-------3-------0--|
G|--------2-----------2-------0--|----0-------0-------0-------0--|
D|0-------0-------0-------0------|0-------0-------0-------0------|
A|-------------------------------|2-------2-------2-------2------|
E|-------------------------------|3-------3-------3-------3------|
      I       feel    that    ice     is      slowly      melting




e|------- ------- ----0-- -------|------- 2------ 0---2-- -------|
B|2---0---2---3-------2----------|--------3---3---------------3--|
G|2-------2----------------------|--------2-------------------2--|
D|2-------2----------------------|0-------0-------0-------0------|
A|0-------0-------0-------0------|-------------------------------|
E|-------------------------------|-------------------------------|
                                           Little  darling




e|------- 2---0-- ------- -------|----2-- ----0-- ------- -------|
B|--------3-----------3-------0--|----0-------0-------3-------2--|
G|--------2-----------2-------0--|----0-------0-------0-------2--|
D|0-------0-------0-------0------|0-------0-------0-------0---2--|
A|-------------------------------|2-------2-------2-------2------|
E|-------------------------------|3-------3-------3-------3------|
      it      seems   like    years       since       been    clear
                                              it's

                                  CHORUS
                                  02:26

e|------- ------- ------- -------|------- 2---0-- ----2-- -------|
B|--------2-------2-------2------|--------3-------------------3--|
G|--------2-------2-------2------|--------2-------------------2--|
D|--------2-------2-------2------|0-------0-------0-------0------|
A|0-------0-------0-------0------|-------------------------------|
E|-------------------------------|-------------------------------|
                                          Here        the     sun
                                              comes



e|------- 2------ 0---2-- -------|------- 2---0-- ----2-- -------|
B|--------3---3------------------|--------0---0-------0-------3--|
G|----2---2----------------------|--------0---0-------0-------1--|
D|0-------0-------0-------0------|0-------0-------0-------0---2--|
A|-------------------------------|2-------2-------2-------2---2--|
E|-------------------------------|3-------3-------3-------3------|
          Doo doo doo doo                 Here        the     sun
                                              comes



e|------- ------- ------- -------|----2-- ----0-- ------- -------|
B|--------3-------3-------3------|----3-------3-------0----------|
G|--------1-------1-------1------|----2-------2-------2-------2-/|
D|--------2-------2-------2------|0-------0-------0-------0------|
A|--------2-------2-------2------|-------------------------------|
E|0-------0-------0-------0------|-------------------------------|
              I       say             it's    allright




e|------- 0------ ----0-- -------|0------ ----0-- ------- -------|
B|----3-----------3-----------3--|--------3-------3---2---0------|
G|4-----------2-----------0------|----2-----------2-------2---2--|
D|-------------------------------|-------------------------------|
A|-------------------------------|-------------------------------|
E|-------------------------------|-------------------------------|



  02:39

e|------- 2---0-- ----2-- -------|------- 2------ 0---2-- -------|
B|--------3-----------3-------3--|--------3---3------------------|
G|--------2-------------------2--|----2---2----------------------|
D|0-------0-------0-------0------|0-------0-------0-------0------|
A|-------------------------------|-------------------------------|
E|-------------------------------|-------------------------------|
          Here        the     sun         Doo doo doo doo
              comes



e|------- 2---0-- ----2-- -------|------- ------- ------- -------|
B|--------0---0-------0-------3--|----3---3-------3-------3------|
G|--------0---0-------0-------1--|----1---1-------1-------1------|
D|0-------0-------0-------0---2--|----2---2-------2-------2------|
A|2-------2-------2-------2---2--|----2---2-------2-------2------|
E|3-------3-------3-------3------|0-------0-------0-------0------|
          Here        the     sun
              comes



e|----2-- ----0-- ------- -------|------- 0------ ----0-- -------|
B|----3-------3-------3----------|----3-----------3-----------3--|
G|----2-------2-------2-------2-/|4-----------2-----------0------|
D|0-------0-------0-------0------|-------------------------------|
A|-------------------------------|-------------------------------|
E|-------------------------------|-------------------------------|
      It's    allright


                                  02:53

e|0------ ----0-- ------- -------|------- 2------ 0------ -------|
B|--------3-------3---2---0------|--------3---3---3---3----------|
G|----2-----------2-------2---2--|--------2-------2-----------2-/|
D|-------------------------------|0-------0-------0-------0------|
A|-------------------------------|-------------------------------|
E|-------------------------------|-------------------------------|
                                          It's 
                                              allright



e|------- 0------ ----0-- -------|0------ ----0-- ------- -------|
B|----3-----------3-----------3--|--------3-------3---2---0------|
G|4-----------2-----------0------|----2-----------2-------2---2--|
D|-------------------------------|-------------------------------|
A|-------------------------------|----------------0-------0------|
E|-------------------------------|-------------------------------|




  F/D         C           G                   D¨¨¨¨¨¨¨¨¨¨¨¨¨¨¨¨¨¨
e|------- ------- ------- -------|------- ----2-- ------- -------|
B|--------1----------------------|------------3------------------|
G|----2---------------0----------|0-----------2------------------|
D|0---------------2-----------0--|------------0------------------|
A|------------3-----------2------|--------2----------------------|
E|-------------------------------|----3--------------------------|




        B  Bend
        R  Release
        /  slide up
        \  slide down
        H  hammer-on
        P  pull-off
        ~  vibrato
        +  harmonic
        x  Mute note
        . - play note like a dot in standard notation
        ^ - ties two notes together
        (. Pause



  -----------------------------------------------------------------

  THE BEATLES - BECAUSE (Lennon & McCartney) From ABBEY ROAD album.
                Released 26th September 1969.

  -----------------------------------------------------------------

  Tabbed by:PJVillanueva




  
  Because the world is round It turns me on
  Because the world is round  Aaaaaaahhhhhh

  Because the wind is high it blows my mind
  Because the wind is high  Aaaaaaaaaahhhh

  Love is all, love is new
  Love is all, love is you

  Because the sky is blue, it makes me cry
  Because the sky is blue  Aaaaaaaaahhhh

  Aaaaaaaahhhhhhh ...


    INTRO

    C#m
  e|------- ------- ------- -------|------- ------- ------- -------|
  B|------------5------------------|------------5------------------|
  G|--------6-------6--------------|--------6-------6--------------|
  D|----6---------------6-------6--|----6---------------6-------6--|
  A|4-----------------------7------|4-----------------------7------|
  E|-------------------------------|-------------------------------|


    Eb-5/7                          G#
  e|------- ------- ------- -------|------- ------- ------- -------|
  B|------------4------------------|------------4------------------|
  G|--------6-------6--------------|--------5-------5--------------|
  D|----7---------------7-------4--|----6---------------6-------6--|
  A|6-----------------------7------|6------------------------------|
  E|-------------------------------|------------------------4------|

    
    00:12
    A                               C#m
  e|------- ------- ------- -------|------- ------- ------- -------|
  B|------------5------------------|------------5------------------|
  G|--------6-------6--------------|--------6-------6--------------|
  D|----7---------------7-------7--|----6---------------6-------6--|
  A|0-----------------------7------|4-----------------------4------|
  E|-------------------------------|-------------------------------|


    A7                              A13
  e|------- ------- ------- -------|------- ------- ------- -------|
  B|------------8------------------|------------7------------------|
  G|--------6-------6--------------|--------6----------------------|
  D|----5---------------5-------5--|----5--------------------------|
  A|0-----------------------7------|0------------------------------|
  E|-------------------------------|-------------------------------|


    D                               D-5             Dm-5
  e|------- ------- ------- -------|------- ------- ------- -------|
  B|------------7------------------|------------7---6--------------|
  G|--------7-------7--------------|--------7----------------------|
  D|----7---------------7-------7--|----6--------------------------|
  A|5-----------------------9------|5------------------------------|
  E|-------------------------------|-------------------------------|
    Aaaaaaaaaaaaaaaaaaaaaaaaaaaaaaahhhhhhhhhhhhhhhhhhhh     Because

    00:30
    C#m    
  e|------- ------- ------- -------|------- ------- ------- -------|
  B|------------5------------------|------------5------------------|
  G|--------6-------6--------------|--------6-------6--------------|
  D|----6---------------6-------6--|----6---------------6-------6--|
  A|4-----------------------7------|4-----------------------7------|
  E|-------------------------------|-------------------------------|
                the world   is      round       it  turns   me


    Eb-5/7                          G#
  e|------- ------- ------- -------|------- ------- ------- -------|
  B|------------4------------------|------------4------------------|
  G|--------6-------6--------------|--------5-------5--------------|
  D|----7---------------7-------4--|----6---------------6-------6--|
  A|6-----------------------7------|6-----------------------6------|
  E|-------------------------------|-------------------------------|
    on                                                          Because

    00:42
    A                               C#m
  e|------- ------- ------- -------|------- ------- ------- -------|
  B|------------5------------------|------------5------------------|
  G|--------6-------6--------------|--------6-------6--------------|
  D|----7---------------7-------7--|----6---------------6-------6--|
  A|0-----------------------7------|4-----------------------4------|
  E|-------------------------------|-------------------------------|
                                the world                   is


    A7                              A13
  e|------- ------- ------- -------|------- ------- ------- -------|
  B|------------8------------------|------------7------------------|
  G|--------6-------6--------------|--------6----------------------|
  D|----5---------------5-------5--|----5--------------------------|
  A|0-----------------------7------|0------------------------------|
  E|-------------------------------|-------------------------------|
    round


    D                               D-5             Dm-5
  e|------- ------- ------- -------|------- ------- ------- -------|
  B|------------7------------------|------------7---6--------------|
  G|--------7-------7--------------|--------7----------------------|
  D|----7---------------7-------7--|----6--------------------------|
  A|5-----------------------9------|5------------------------------|
  E|-------------------------------|-------------------------------|
    Aaaaaaaaaaaaaaaaaaaaaaaaaahhhhhhhhhhhhhhhhhhhhhhh       Because

    01:00
    C#m
  e|------- ------- ------- -------|------- ------- ------- -------|
  B|------------5------------------|------------5------------------|
  G|--------6-------6--------------|--------6-------6--------------|
  D|----6---------------6-------6--|----6---------------6-------6--|
  A|4-----------------------7------|4-----------------------7------|
  E|-------------------------------|-------------------------------|
                the wind    is      high        it  blows   my


    Eb-5/7                          G#
  e|------- ------- ------- -------|------- ------- ------- -------|
  B|------------4------------------|------------4------------------|
  G|--------6-------6--------------|--------5-------5--------------|
  D|----7---------------7-------4--|----6---------------6-------6--|
  A|6-----------------------7------|6-----------------------6------|
  E|-------------------------------|-------------------------------|
    mind                                                        Because

    01:12
    A                               C#m
  e|------- ------- ------- -------|------- ------- ------- -------|
  B|------------5------------------|------------5------------------|
  G|--------6-------6--------------|--------6-------6--------------|
  D|----7---------------7-------7--|----6---------------6-------6--|
  A|7-----------------------7------|4-----------------------4------|
  E|-------------------------------|-------------------------------|
                                the wind                    is


    A7                              A13
  e|------- ------- ------- -------|------- ------- ------- -------|
  B|------------8------------------|------------7------------------|
  G|--------6-------6--------------|--------6----------------------|
  D|----5---------------5-------5--|----5--------------------------|
  A|0-----------------------7------|0------------------------------|
  E|-------------------------------|-------------------------------|
    high


    D                               D-5             Dm-5
  e|------- ------- ------- -------|------- ------- ------- -------|
  B|------------7------------------|------------7---6--------------|
  G|--------7-------7--------------|--------7----------------------|
  D|----7---------------7-------7--|----6--------------------------|
  A|5-----------------------9------|5------------------------------|
  E|-------------------------------|-------------------------------|
    Aaaaaaaaaaaaaaaaaaaaaaahhhhhhhhhhhhhhhh love    all     love 
                                                is              is

    01:30
    F#
  e|------- ------- ------- -------|------- ------- ------- -------|
  B|------------2------------------|------------2------------------|
  G|--------3-------3--------------|--------3-------3--------------|
  D|----4---------------4-------4--|----4---------------4-------4--|
  A|------------------------4------|------------------------6------|
  E|2------------------------------|2------------------------------|
    new                                     love    all     love   
                                                is              is

    G#
  e|------- ------- ------- -------|------- ------- 4------ -------|
  B|------------4------------------|------------4------------------|
  G|--------5-------5--------------|--------5----------------------|
  D|----6---------------4-------4--|----6--------------------------|
  A|------------------------7------|-------------------------------|
  E|4------------------------------|4------------------------------|
    you                                                     Because

    01:42
    C#m
  e|------- ------- ------- -------|------- ------- ------- -------|
  B|------------5------------------|------------5------------------|
  G|--------6-------6--------------|--------6-------6--------------|
  D|----6---------------6-------6--|----6---------------6-------6--|
  A|4-----------------------7------|4-----------------------7------|
  E|-------------------------------|-------------------------------|
                the sky     is      blue        it  makes   me


    Eb-5/7                          G#
  e|------- ------- ------- -------|------- ------- ------- -------|
  B|------------4------------------|------------4------------------|
  G|--------6-------6--------------|--------5-------5--------------|
  D|----7---------------7-------4--|----6---------------6-------6--|
  A|6-----------------------7------|6-----------------------6------|
  E|-------------------------------|-------------------------------|
    cry                                                         Because


    A                               C#m
  e|------- ------- ------- -------|------- ------- ------- -------|
  B|------------5------------------|------------5------------------|
  G|--------6-------6--------------|--------6-------6--------------|
  D|----7---------------7-------7--|----6---------------6-------6--|
  A|0-----------------------7------|4-----------------------4------|
  E|-------------------------------|-------------------------------|
                                the sky                     is


    A7                              A13
  e|------- ------- ------- -------|------- ------- ------- -------|
  B|------------8------------------|------------7------------------|
  G|--------6-------6--------------|--------6----------------------|
  D|----5---------------5-------5--|----5--------------------------|
  A|0-----------------------7------|0------------------------------|
  E|-------------------------------|-------------------------------|
    blue


    D                               D-5             Dm-5
  e|------- ------- ------- -------|------- ------- ------- -------|
  B|------------7------------------|------------7---6--------------|
  G|--------7-------7--------------|--------7----------------------|
  D|----7---------------7-------7--|----6--------------------------|
  A|5-----------------------9------|5------------------------------|
  E|-------------------------------|-------------------------------|
    Aaaaaaaaaaaaaaaaaaaaaaaaaaaaaaaaaaaaaaaaaahhhhhhhhhhhhhhhhhhhhh


    02:12
    C#m
  e|------- ------- ------- -------|------- ------- ------- -------|
  B|------------5------------------|------------5------------------|
  G|--------6-------6--------------|--------6-------6--------------|
  D|----6---------------6-------6--|----6---------------6-------6--|
  A|4-----------------------7------|4-----------------------7------|
  E|-------------------------------|-------------------------------|
    hhhhhhhhhhhhhh
  e|12----- ----9-- ------- 12-----|------- ------- 9------ 12-----|
  B|----------------9--------------|9-----------9------------------|
  G|-------------------------------|-------------------------------|
  D|-------------------------------|-------------------------------|
  A|-------------------------------|-------------------------------|
  E|-------------------------------|-------------------------------|



    Eb-5/7                          G#
  e|------- ------- ------- -------|------- ------- ------- -------|
  B|------------4------------------|------------4------------------|
  G|--------6-------6--------------|--------5-------5--------------|
  D|----7---------------7-------4--|----6---------------6-------6--|
  A|6-----------------------7------|6------------------------------|
  E|-------------------------------|------------------------4------|
    Aaaaaaaaaaaaaaaaaaaaaaaaaaaaaaaaaaaaaahhhhhhhhhhhhhhhhhhhhhhhhh
  e|------- ------- ------- -------|------- ------- ------- -------|
  B|10-----------------------------|9------------------------------|
  G|-------------------------------|-------------------------------|
  D|-------------------------------|-------------------------------|
  A|-------------------------------|-------------------------------|
  E|-------------------------------|-------------------------------|


    02:23
    A                               C#m
  e|------- ------- ------- -------|------- ------- ------- -------|
  B|------------5------------------|------------5------------------|
  G|--------6-------6--------------|--------6-------6--------------|
  D|----7---------------7-------7--|----6---------------6-------6--|
  A|0-----------------------7------|4-----------------------4------|
  E|-------------------------------|-------------------------------|
    hhhhhhhhhhhhh
  e|12----- ------- ------- -------|12----- ------- ------- -------|
  B|----------------------------14-|----------------------------14-|
  G|-------------------------------|-------------------------------|
  D|-------------------------------|-------------------------------|
  A|-------------------------------|-------------------------------|
  E|-------------------------------|-------------------------------|



    A7                              A13
  e|------- ------- ------- -------|------- ------- ------- -------|
  B|------------8------------------|------------7------------------|
  G|--------6-------6--------------|--------6----------------------|
  D|----5---------------5-------5--|----5--------------------------|
  A|0-----------------------7------|0------------------------------|
  E|-------------------------------|-------------------------------|
    Aaaaaaaaaaaaaaaaaaaaaaahhhhhhhhhhhhhhhhhh
  e|15----- ------- ------- -------|14----- ------- ------- -------|
  B|-------------------------------|-------------------------------|
  G|-------------------------------|-------------------------------|
  D|-------------------------------|-------------------------------|
  A|-------------------------------|-------------------------------|
  E|-------------------------------|-------------------------------|


    02:35                                          (.
    D                               D-5             Dm-5
  e|------- ------- ------- -------|------- ------- ------- -------|
  B|------------7------------------|------------7---6--------------|
  G|--------7-------7--------------|--------7----------------------|
  D|----7---------------7-------7--|----6--------------------------|
  A|5-----------------------9------|5------------------------------|
  E|-------------------------------|-------------------------------|
    Aaaaaaaaaaaaaaaaaaaaaaaaahhhhhhhhhhhhhhhhhhhhhhhh
  e|14----- ------- ------- -------|13----- ------- ------- -------|
  B|-------------------------------|-------------------------------|
  G|-------------------------------|-------------------------------|
  D|-------------------------------|-------------------------------|
  A|-------------------------------|-------------------------------|
  E|-------------------------------|-------------------------------|



      

        B  Bend
        R  Release
        /  Slide up
        \  Slide down
        H  Hammer-on
        P  Pull-off
        ~  Vibrato
        +  Harmonic
        x  Mute note
        .  Play note like a dot in standard notation
        ^  Ties two notes together
       (.  Pause



  ---------------------------------------------------------------

  THE BEATLES - YOU NEVER GIVE ME YOUR MONEY (Lennon & McCartney)
                From ABBEY ROAD album. Released 26th September
                1969.

  ---------------------------------------------------------------

  Tabbed by:PJVillanueva





  You never give me your money
  You only give me your funny paper
  and in the middle of negotiations
  you break down

  I never give you my number
  I only give you my situation
  and in the middle of investigation
  I break down

  Out of college, money spent
  See no future, pay no rent
  All the money's gone nowhere to go
  Any jobber got the sack
  Monday morning turning back
  Yellow lorry slow nowhere to go
  But oh, that magic feeling, nowhere to go
  Oh, that magic feeling
  Nowhere to go

  One sweet dream
  Pick up the bags and get in the limousine
  Soon we'll be away from here
  Step on the gas and wipe that tear away
  One sweet dream came true today
  Came true today
  Came true today, yes it did

  One two three four five six seven,
  All good children go to Heaven




                                               Dm7
  Am7
e|----12- 12--12- 12--12- 12-----|12----- ----10- ------- 10-----|
B|----10--10--10--10--10--10-----|10----------13----------13-----|
G|----12--12--12--12--12--12--12-|12----------10----------10-----|
D|-------------------------------|----12------12------12--12-----|
A|0------------------------------|--------12------------------12-|
E|-------------------------------|10-----------------------------|



 
  G7                        
e|----10- 10--10- 10--10- 10-----|13----- 12----- ------- -------|
B|----12--12--12--12--12--12-----|------------13-----------------|
G|----10--10--10--10--10--10--10-|--------------------12---------|
D|----12--12--12--12--12--12-----|------------------------10-----|
A|10-----------------------------|-------------------------------|
E|-------------------------------|-------------------------------|

e|------- ------- ------- -------|------- ------- ------- -------|
B|-------------------------------|-------------------------------|
G|-------------------------------|5H7-----5---5-------5----------|
D|-------------------------------|5-------5---5H7-----5----------|
A|-------------------------------|------------------------7\6/7--|
E|-------------------------------|-------------------------------|




  Fmaj7                           Bm7         E7
e|----8-- 8---8-- 8---8-- 8---8--|7------ ----0-- ------- 0---4--|
B|---10--10--10--10--10--10--10--|7-----------0-------0----------|
G|----9---9---9---9---9---9---9--|7-------7---1------------------|
D|---10--10--10--10--10--10--10--|7---9-------0------------------|
A|8------------------------------|-------------------------------|
E|-------------------------------|7-----------0------------------|

e|------- ------- ------- -------|------- ------- ------- -------|
B|-------------------------------|-------------------------------|
G|-------------------------------|-------------------------------|
D|-------------------------------|-------------------------------|
A|-------------------------------|-------------------------------|
E|8------------------------------|-------------------------------|



  
  Am                                          A7
e|5------ ----8-- ------- -------|------- ----12- ------- -------|
B|5------------------------------|------------10-----------------|
G|5------------------------------|------------12-----------------|
D|7-------7-------7-------7------|-------------------------------|
A|----7-------7-------7-------7--|12------12--------------12--0--|
E|-------------------------------|----12---------------12--------|

e|------- ------- ------- -------|------- ------- ------- -------|
B|------------5------------------|-------------------------------|
G|5-----------5------------------|----------------------------5--|
D|5H7----------------------------|----------------------------5--|
A|-------------------------------|--------------------7\6/7------|
E|-------------------------------|-------------------------------|  




  Am7                                          Dm
e|----12- 12--12- 12--12- 12--12-|12----- ----10- ------- 10-----|
B|----10--10--10--10--10--10--10-|10----------10----------10-----|
G|----12--12--12--12--12--12--12-|12----------10----------10-----|
D|-------------------------------|-0---0----------0---0----------|
A|0------------------------------|---------------------------12--|
E|-------------------------------|-------------------------------|
      You never   give me  your   money



  G7                               C
e|10----- ----10- ------- 10-----|-8----- -----8- ------- 8------|
B|12----------12----------12-----|-8-----------8----------8------|
G|10----------10----------10-----|-9-----------9----------9------|
D|12----------12------12--12-----|10----------10---------10------|
A|10----------10----------10-----|--------------------10------10-|
E|-------------------------------|-8-----------8-----------------|
      You only    give me your    funny        paper
e|------- ------- ------- -------|------- ------- ------- -------|
B|-------------------------------|-------------------------------|
G|-------------------------------|5H7-----5---5---------------5--|
D|-------------------------------|5-------5---5------------------|
A|-------------------------------|--------------------7\6/7------|
E|-------------------------------|-------------------------------|




   Fmaj7                           E7sus4      E7
e|-8----- ----8-- ------- 8------|-7----- 7----7- ------- 7------|
B|10---------10----------10------|10-----10----9----------9------|
G|-9----------9-----------9------|-7------7----7----------7------|
D-10---------10----------10------|-9------9----9----------9------|
A|-8----------8-------8---8------|-7------7---------------7------|
E|-------------------------------|----------------0---0-------0--|
      and in  the middle  of negotiations                     you
e|------- ------- ------- -------|------- ------- ------- -------|
B|-------------------------------|-------------------------------|
G|-------------------------------|-------------------------------|
D|-------------------------------|-------------------------------|
A|8------------------------------|-------------------------------|
E|8------------------------------|-------------------------------|




  Am                                          Am7
e|5------ 5------ 5---5-- 5------|------- ----12- ------- -------|
B|5-------5-------5---5---5------|----10--13--10-----------------|
G|5-------5-------5---5---5------|------------12-----------------|
D|7-------7-------7---7---7------|-------------------------------|
A|-------------------------------|--------------------0---0---0--|
E|5---------------5-----------5--|-------------------------------|
  break           down
e|------- ------- ------- -------|------- ------- ------- -------|
B|------------5------------------|-------------------------------|
G|5-----------5------------------|----------------7P5------------|
D|5H7----------------------------|--------------------7P5H7P5----|
A|-------------------------------|----------------------------7P5/
E|-------------------------------|-------------------------------|




  Am7                                          Dm
e|------- 12----- ----12- -------|12----- ----10- ------- 10-----|
B|--------10----------10---------|10----------10----------10-----|
G|--------12----------12---------|12----------10----------10-----|
D|-------------------------------|-0-----------------------0-----|
A|0------------------------------|----------------------------10-|
E|-------------------------------|-------------------------------|
      I   never   give you my     number
e|------- ------- ------- -------|------- ------- ------- -------|
B|-------------------------------|-------------------------------|
G|-------------------------------|-------------------------------|
D|-------------------------------|-------------------------------|
A|7------------------------------|-------------------------------|
E|-------------------------------|-------------------------------|




  G7                               C
e|10----- ----10- ------- 10-----|-8----- -----8- ------- 8------|
B|12----------12----------12-----|-8-----------8----------8------|
G|10----------10----------10-----|-9-----------9----------9------|
D|12----------12----------12-----|10----------10----------9------|
A|10----------10----------10-----|-------------------------------|
E|-------------------------------|-8-----------8----------8------|
      I   only    give you my     situation
e|------- ------- ------- -------|------- ------- ------- -------|
B|-------------------------------|-------------------------------|
G|-------------------------------|5-----------5-------5----------|
D|-------------------------------|5-----------5H7-----5----------|
A|-------------------------------|------------------------7\6/7--|
E|-------------------------------|-------------------------------|




   Fmaj7                           E7sus4      E7
e|-8----- ----8-- ------- 8------|-7----- 7----7- ------- 7------|
B|10---------10----------10------|10-----10----9----------9------|
G|-9----------9-----------9------|-7------7----7----------7------|
D-10---------10----------10------|-9------9----9----------9------|
A|-8----------8-----------8------|-7------------------7----------|
E|-------------------------------|------------------------0------|
      and in  the middle  of investigation                    I
e|------- ------- ------- -------|------- ------- ------- -------|
B|-------------------------------|-------------------------------|
G|-------------------------------|-------------------------------|
D|-------------------------------|-------------------------------|
A|-------------------------------|-------------------------------|
E|8------------------------------|-------------------------------|



                                  x   x x x   x x x x x   X X X
  Am                                  C           G
e|5------ ----5-- ------- -------|----0-- 0------ ------- -------|
B|5-----------5------------------|----1---1-------3--------------|
G|5-----------5------------------|----0---0-------0--------------|
D|7-----------7------------------|----2---2-------0--------------|
A|-------------------------------|----3---3-------2--------------|
E|5-----------5------------------|----------------3--------------|
  break       down



  C                               E
e|0----0- 0----0- 0----0- 0------|0------ 0------ 0------ 0----0-|
B|1----1--1----1--1----1--1------|0-------0-------0-------0----0-|
G|0----0--0----0--0----0--0------|1-------1-------1-------1----1-|
D|2----2--2----2--2----2--2------|2-------2-------2-------2----2-|
A|3----3--3----3--3----3--3------|2-------2-------2-------2----2-|
E|3----3--3----3--3----3--3------|0-------0-------0-------0----0-|
          Out  of college,        money        spent



  Am                              C7
e|0----0- -----0- -----0- 0------|0----0- 0------ 0----0- 0----0-|
B|1----1-------1-------1--1------|1----1--1-------1----1--1----1-|
G|2----2-------2-------2--2------|3----3--3-------3----3--3----3-|
D|2----2-------2-------2--2------|2----2--2-------2----2--2----2-|
A|0----0-------0-------0--0------|3----3--3-------3----3--3----3-|
E|-------------------------------|-------------------------------|
  See     no   future,            pay     no   rent



  F                            G
e|1----1- 1----1- 1------ 1----3-|3------ ------- ------- -------|
B|1----1--1----1--1-------1----3-|3------------------------------|
G|2----2--2----2--2-------2----4-|4------------------------------|
D|3----3--3----3--3-------3----5-|5------------------------------|
A|3----3--3----3--3-------3----5-|5------------------------------|
E|1----1--1----1--1-------1----3-|3------------------------------|
  All     the  money's         gone       nowhere         to   go



  C7
e|0----0- -----0- -----0- 0------|0----0- 0------ 0----0- 0------|
B|1----1--x----1-------1--1------|1----1--1----x--1----1--1------|
G|3----3--x----3-------3--3------|3----3--3----x--3----3--3------|
D|2----2--x----2-------2--2------|2----2--2----x--2----2--2------|
A|3----3-------3-------3--3------|3----3--3-------3----3--3------|
E|-------------------------------|-------------------------------|  




  C                               E
e|0------ ------- ------- 0---0--|0------ 0------ 0------ -------|
B|1-----------------------1---1--|0-------0-------0--------------|
G|0-----------------------0---0--|1-------1-------1--------------|
D|2-----------------------2---2--|2-------2-------2--------------|
A|3-----------------------3---3--|2-------2-------2--------------|
E|3-----------------------3---3--|0-------0-------0--------------|
          Any     jobber          got     the  sack



  Am                              C7
e|0------ 0------ ------- -------|0------ 0------ ------- 0------|
B|1-------1----------------------|1-------1---------------1------|
G|2-------2----------------------|3-------3---------------3------|
D|2-------2----------------------|2-------2---------------2------|
A|0-------0----------------------|3-------3---------------3------|
E|-------------------------------|-------------------------------|
  Monday       morning            turning      back



  F                            G
e|1------ 1------ 1----1- 1----3-|3----3- 3------ 3------ 3----3-|
B|1-------1-------1----1--1----3-|3----3--3-------3-------3----3-|
G|2-------2-------2----2--2----4-|4----4--4-------4-------4----4-|
D|3-------3-------3----3--3----5-|5----5--5-------5-------5----5-|
A|3-------3-------3----3--3----5-|5----5--5-------5-------5----5-|
E|1-------1-------1----1--1----3-|3----3--3-------3-------3----3-|
  Yellow       lorry           slow       nowhere         to   go



  C
e|0----0- 0----0- 0------ 0------|0----0- 0------ 0----0- 0------|
B|1----1--1----1--1-------1------|1----1--1-------1----1--1------|
G|0----0--0----0--0-------0------|0----0--0-------0----0--0------|
D|2----2--2----2--2-------2------|2----2--2-------2----2--2------|
A|3----3--3----3--3-------3------|3----3--3-------3----3--3------|
E|3----3--3----3--3-------3------|3----3--3-------3----3--3------|
                                                          But  oh, 



  Bb                              F
e|1------ ----1-- ------- -------|1------ ----1-- ------- -------|
B|3-----------3------------------|1-----------1------------------|
G|3-----------3------------------|2-----------2------------------|
D|3-----------3------------------|3-----------3------------------|
A|1-----------1------------------|3-----------3------------------|
E|-------------------------------|1-----------1------------------|
          that magic      feeling                    nowhere to go  
e|----10- ------- ------- -------|----8-- ------- ------- -------|
B|--------11---------------------|--------10---------------------|
G|------------10-----------------|------------10-----------------|
D|-------------------------------|-------------------------------|
A|-------------------------------|-------------------------------|
E|-------------------------------|-------------------------------|




  C                               Bb
e|0------ ----0-- ------- -------|1------ ----1-- ------- -------|
B|1-----------1------------------|3-----------3------------------|
G|0-----------0------------------|3-----------3------------------|
D|2-----------2------------------|3-----------3------------------|
A|3-----------3------------------|1-----------1------------------|
E|3-----------3------------------|-------------------------------|
                                  Oh,     that magic      feeling
e|----8-- ------- ------- -------|----10- ------- ------- -------|
B|----8--------------------------|--------11---------------------|
G|7/9----------------------------|10----------10-----------------|
D|-------------------------------|-------------------------------|
A|-------------------------------|-------------------------------|
E|-------------------------------|-------------------------------|




  F                               C
e|1------ ----1-- ------- -------|0------ ----0-- ------- -------|
B|1-----------1------------------|1-----------1------------------|
G|2-----------2------------------|0-----------0------------------|
D|3-----------3------------------|2-----------2------------------|
A|3-----------3------------------|3-----------3------------------|
E|1-----------1------------------|3-----------3------------------|  
                     nowhere to go            nowhere to go 
e|----8-- ------- ------- -------|----8-- ------- ------- -------|
B|--------10---------------------|----8--------------------------|
G|------------10-----------------|7/9----------------------------|
D|-------------------------------|-------------------------------|
A|-------------------------------|-------------------------------|
E|-------------------------------|-------------------------------|




          Bb                      F
e|-------10---6-- ------- 6------|8---8-- ----8-- ------- 8------|
B|--------6---6-----------6------10--10------10----------10------|
G|--------7---7-----------7------10--10------10----------10------|
D|--------6---8-----------8------10--10------10----------10------|
A|--------8---8-----------8------|8---8-------8-----------8------|
E|--------6---6-----------6------|-------------------------------|    
          
e|--13--- 13----10----10- --10---|--12--- 12-----8----8-- ---8---|
B|----15----15----11----11----11-|----13----13----10---10-----10-|
G|15----15----15----10----10-----|10----10----10----10----10-----|
D|-------------------------------|-------------------------------|
A|-------------------------------|-------------------------------|
E|-------------------------------|-------------------------------|

e|------- ------- ------- -------|------- ------- ------- -------|
B|-------------------------------|-------------------------------|
G|-------------------------------|-------------------------------|
D|-------------------------------|------------------------10--10-|
A|-----------8/10-----8----------|--------8/10-8----8H10/12------|
E|-----------------------8B10R8-6|5------------------------------|




  C                                   Bb
e|8---8-- ----8-- ------- 8------|----6-- ----6-- ------- 6------|
B|8---8-------8-----------8------|----6-------6-----------6------|
G|9---9-------9-----------9------|----7-------7-----------7------|
D10--10------10----------10------|----8-------8-----------8------|
A10--10------10----------10------|----8-------8-----------8------|
E|8---8-------8-----------8------|----6-------6-----------6------|
                                
e|--8---- 8------ ------- -------|--13--- 13----10----10- --10---|
B|----8--------------------------|----15----15----11----11----11-|
G/9-----9------------------------|15----15----15----10----10-----|
D|-------------------------------|-------------------------------|
A|-------------------------------|-------------------------------|
E|-------------------------------|-------------------------------|

e|------- ------- ------- -------|------- ------- ------- -------|
B|-------------------------------|-------------------------------|
G|-------------------------------|-------------------------------|
D|10-----------------------------|-------------------------------|
A|------------------------12P10--|---8/10-8----------------------|
E|----------------------------12\|6---------(8)108108108--6---5--|
                                               B RB RB R



  F                               C
e|8---8-- ----8-- ------- 8------|8---8-- ----8-- ------- 8------|
B10--10------10----------10------|8---8-------8-----------8------|
G10--10------10----------10------|9---9-------9-----------9------|
D10--10------10----------10------10--10------10----------10------|
A|8---8-------8-----------8------10--10------10----------10------|
E|-------------------------------|8---8-------8-----------8------|

e|--12--- 12-----8-----8- ---8---|--8---- 8------ ------- -------|
B|----13----13----10----10----10-|----8--------------------------|
G|10----10----10----10----10-----/9-----9------------------------|
D|-------------------------------|-------------------------------|
A|-------------------------------|-------------------------------|
E|-------------------------------|-------------------------------|

e|------- ------- ------- -------|------- ------- ------- -------|
B|-------------------------------|-------------------------------|
G|-------------------------------|-------------------------------|
D|-------------10------10------10|12/14-10-----------------------|
A|8/10-8----/12----10H12---10H12-|-------------------------------|
E|--------8----------------------|-------------------------------|




      Bb                              F
e|---10-- 6------ 6---6-- ----6--|----8-- 8------ 8---8-- ----8--|
B|----6---6-------6---6-------6--|---10--10------10--10------10--|
G|----7---7-------7---7-------7--|---10--10------10--10------10--|
D|----6---8-------8---8-------8--|---10--10------10--10------10--|
A|----8---8-------8---8-------8--|----8---8-------8---8-------8--|
E|----6---6-------6---6-------6--|-------------------------------|

e|--13--- 13----10----10- --10---|--12--- 12-----8----8-- ---8---|
B|----15----15----11----11----11-|----13----13----10---10-----10-|
G|15----15----15----10----10-----|10----10----10----10----10-----|
D|-------------------------------|-------------------------------|
A|-------------------------------|-------------------------------|
E|-------------------------------|-------------------------------|
          
e|------- ------- ------- -------|------- ------- ------- -------|
B|-------------------------------|-------------------------------|
G|-------------------------------|-------------------------------|
D|-------------------------------|-----------------10----10---12-B
A|---8/10-8----------------------|--8/10\8---8H10/12-10H12-------|
E|6-----------8B10--R-8---6------|5------------------------------|




          C                       D
e|------- 8-----8 ----8-- ----8--|10----- 10----10----10- ----10-|
B|--------8-----8-----8-------8--|10------10----10----10------10-|
G|--------9-----9-----9-------9--|11------11----11----11------11-|
D|-------10----10----10------10--|10------10----10----10------10-|
A|-------10----10----10------10--|12------12----12----12------12-|
E|--------8-----8-----8-------8--|10------10----10----10------10-|

e|--8---- 8------ ------- -------|------- ------- ------- -------|
B|----8--------------------------|-------------------------------|
G/9-----9------------------------|-------------------------------|
D|-------------------------------|-------------------------------|
A|-------------------------------|-------------------------------|
E|-------------------------------|-------------------------------|

e|------- ------- ------- -------|------- ------- ------- -------|
B|------------------------13-----|-------------------------------|
G|-------------------------------|12B14-~------------------------|   
D|14-----------------------------|-------------------------------|
A|-------------------------------|-------------------------------|
E|-------------------------------|-------------------------------|




  D#              G               C           A
e|6------ 6------ 3------ 3------|3------ ----5-- ------- -------|
B|8-------8-------3-------3------|5-----------5------------------|
G|8-------8-------4-------4------|5-----------6------------------|
D|8-------8-------5-------5------|5-----------7------------------|
A|6-------6-------5-------5------|3-----------7------------------|
E|----------------3-------3------|------------5------------------|

e|------- ------- ------- -------|------- -----9- ------- -------|
B|-------------------------------|--8---8-111088-----------------|
G|10B12--121081012-121212-12-108-/9---------P-P9-----------------|
D|---------R----B------------R---|-------------------------------|
A|-------------------------------|-------------------------------|
E|-------------------------------|-------------------------------|




  D#          C                    F#         D#
e|6------ ----8-- ----8-8 8------|-9----- ----11- ------- -------|
B|8-----------8-------8-8-8------|10----------11-----------------|
G|8-----------9-------9-9-9------|10----------12-----------------|
D|8----------10------101010------|10----------13-----------------|
A|6----------10------101010------|-9----------13-----------------|
E|------------8-------8-8-8------|------------11-----------------|

e|------- ------12------- -------|------- ------15------- -------|
B|--11-11-14131111---------------|--14-14-17161414---------------|
G/12--------P-P-12---------------/15------------15---------------|
D|-------------------------------|-------------------------------|
A|-------------------------------|-------------------------------|
E|-------------------------------|-------------------------------|




  A           F#      G       G#
e|12----- ----9-- ----10- ----11-|
B|14---------11-------12------13-|
G|14---------11-------12------13-|
D|14---------11-------12------13-|
A|12----------9-------10------11-|
E|-------------------------------|

e|------- ------18----19- ----20-|
B|--17-17-20191717----18------19-|
G/18--------P-P-18----19------20-|
D|-------------------------------|
A|-------------------------------|
E|-------------------------------|




  A5      A6    A5        A6  A5  B5                      B6  B5
e|------- ------- ------- -------|------- ------- ------- -------|
B|-------------------------------|-------------------------------|
G|-------------------------------|-------------------------------|
D|-------------------------------|-------------------------------|
A|7---7---9-----7---7---7-9---7--|9---9---9-----9-9---9---9H119--|
E|5---5---5-----5---5---5-5---5--|7---7---7-----7-7---7---7---7--|
                  One sweet   dream
e|12----- ------- ------- -------|------- ------- ------- -------|
B|14-----------------------------|-------------------------------|
G|14-----------------------------|-------------------------------|
D|14-----------------------------|-------------------------------|
A|12-----------------------------|-------------------------------|
E|-------------------------------|-------------------------------|

e|21----- ------- ------- -------|------- ------- ------- -------|
B|20-----------------------------|-------------------------------|
G|21-----------------------------|-------------------------------|
D|-------------------------------|------------------9-9---9H11P9-|
A|-------------------------------|--6-6H9-9---9-9H11-------------|
E|-------------------------------|7------------------------------|





  C5              E               A5      A6    A7        A6  A7
e|------- ------- 7-7---7 7---7--|------- ------- ------- -------|
B|----------------9-9---9-9---9--|----------------------------5-\|
G|----------------9-9---9-9---9--|----------------------------6-\|
D|----------------9-9---9-9---9--|--------------5---5---------5-\|
A|10--10--12--10--7-7---7-7---7--|7---7---9---9-7---7---7-9---7--|
E|-8---8---8---8-----------------|5---5---5---5-5---5---5-5---5--|
  Pick    bags and get 
    up the          in the limousine
e|------- ------- ------- -------|------- ------- ------- -------|
B|-------------------------------|-------------------------------|
G|-------------------------------|-------------------------------|
D|-------------------------------|9B11--9P7-7-7---7P5------------|
A|-------------------------------|--------------------7----------|
E|-------------------------------|-------------------------------|




  Dm          G                   D7          G
e|1------ ----3-- ------- -------|5------ ----3-- ------- -------|
B|3-----------0------------------|3-----------0------------------|
G|2-----------4------------------|5-----------4------------------|
D|0-----------0------------------|0-----------0------------------|
A|-------------------------------|-------------------------------|
E|-------------------------------|-------------------------------|
  Soon we'll         from here    Step       and wipe that tear away
          be  away                  on the gas



  A5      A6  A5                  B5
e|------- ------- ------- -------|------- -------|
B|-------------------------------|---------------|
G|-------------------------------|---------------|
D|-------------------------------|---------------|
A|7---7---9---7-7---7---7-7------|9--------------|
E|5---5---5---5-5---5---5-5------|7--------------|
                  One sweet   dream       came true 
e|------- ------- ------- -------|------- -------|
B|-------------------------------|---------------|
G|-------------------------------|---------------|
D|----7-7-7-7-7---7-7---7-7-7-9B10R9-7-7--7------|
A|-------------------------------|---------------|
E|-------------------------------|---------------|




  C           Cmaj7               A
e|------- ------- ------- -------|------- ----5-- ------- -------|
B|------------------------0------|------------2------------------|
G|--------0-----------0-------0--|--------2----------------------|
D|----2-----------0--------------|----2--------------------------|
A|3-----------2------------------|0------------------------------|
E|-------------------------------|-------------------------------|
                          today                           came true 



  C           Cmaj7               A
e|------- ------- ------- -------|------- ----5-- ------- -------|
B|------------------------0------|------------2------------------|
G|--------0-----------0-------0--|--------2----------------------|
D|----2-----------0--------------|----2--------------------------|
A|3-----------2------------------|0------------------------------|
E|-------------------------------|-------------------------------|
                          today                           came true 



  C           Cmaj7               A
e|------- ------- ------- -------|------- ----5-- ------- -------|
B|------------------------0------|------------2------------------|
G|--------0-----------0-------0--|--------2----------------------|
D|----2-----------0--------------|----2--------------------------|
A|3-----------2------------------|0------------------------------|
E|-------------------------------|-------------------------------|
                          today,      yes     it  did                        



  C           Cmaj7               A
e|------- ------- ------- -------|------- ----5-- ------- -------|
B|------------------------0------|------------2------------------|
G|--------0-----------0-------0--|--------2----------------------|
D|----2-----------0--------------|----2--------------------------|
A|3-----------2------------------|0------------------------------|
E|-------------------------------|-------------------------------|
                         
e|------- ------- ------- -------|------- ------- ------- -------|
B/10-----------------------------|----8-------10-----------------|
G|-------------------------------|-------------------------------|
D|-------------------------------|-------------------------------|
A|-------------------------------|-------------------------------|
E|-------------------------------|-------------------------------|




  C           Cmaj7               A
e|------- ------- ------- -------|------- ----5-- ------- -------|
B|------------------------0------|------------2------------------|
G|--------0-----------0-------0--|--------2----------------------|
D|----2-----------0--------------|----2--------------------------|
A|3-----------2------------------|0------------------------------|
E|-------------------------------|-------------------------------|  
  One two three                   All good children go to Heaven 
              four five six seven,



  C           Cmaj7               A
e|------- ------- ------- -------|------- ----5-- ------- -------|
B|------------------------0------|------------2------------------|
G|--------0-----------0-------0--|--------2----------------------|
D|----2-----------0--------------|----2--------------------------|
A|3-----------2------------------|0------------------------------|
E|-------------------------------|-------------------------------|
  One two three                   All good children go to Heaven 
              four five six seven,
e|------- ------- ------- -------|------- ------- ------- -------|
B|-------------------------------|------------8B10---------------|
G|--8P7P5-7---5B6----------5H7H8-|9---9---9----------------------|
D|----------------7---5H6H7------|-------------------------------|
A|-------------------------------|-------------------------------|
E|-------------------------------|-------------------------------|




  C           Cmaj7               A
e|------- ------- ------- -------|------- ----5-- ------- -------|
B|------------------------0------|------------2------------------|
G|--------0-----------0-------0--|--------2----------------------|
D|----2-----------0--------------|----2--------------------------|
A|3-----------2------------------|0------------------------------|
E|-------------------------------|-------------------------------|
  One two three                   All good children go to Heaven 
              four five six seven,
e|------- ------- ------- -------|------- ------- ------- -------|
B|--10-10-10R8-8B10-1010--10R8---|-------------------------------|
G|------------9---------------9-8|7P5H7B9-5B6--------------------|
D|-------------------------------|------------7------------------|
A|-------------------------------|-------------------------------|
E|-------------------------------|-------------------------------|




  C           Cmaj7               A
e|------- ------- ------- -------|------- ----5-- ------- -------|
B|------------------------0------|------------2------------------|
G|--------0-----------0-------0--|--------2----------------------|
D|----2-----------0--------------|----2--------------------------|
A|3-----------2------------------|0------------------------------|
E|-------------------------------|-------------------------------|
  One two three                   All good children go to Heaven 
              four five six seven,
e|------- ------- ------- -------|------- ------- ------- -------|
B|-------------------------------|-------------------------------|
G|-------------------------------|---------------------------12-/|
D|-------------------------------|-------------------------------|
A|-------------------------------|-------------------------------|
E|-------------------------------|-------------------------------|




  C           Cmaj7               A
e|------- ------- ------- -------|------- ----5-- ------- -------|
B|------------------------0------|------------2------------------|
G|--------0-----------0-------0--|--------2----------------------|
D|----2-----------0--------------|----2--------------------------|
A|3-----------2------------------|0------------------------------|
E|-------------------------------|-------------------------------|
  One two three                   All good children go to Heaven 
              four five six seven,
e|------- ------- ------- -------|------- ----15B17------ -------|
B|--13-13-15P13--B15R1315B17R1513|----13--13---------------------|
G|14-----------------------------|14-----------------------------|
D|-------------------------------|-------------------------------|
A|-------------------------------|-------------------------------|
E|-------------------------------|-------------------------------|




  C           Cmaj7               A
e|------- ------- ------- -------|------- ----5-- ------- -------|
B|------------------------0------|------------2------------------|
G|--------0-----------0-------0--|--------2----------------------|
D|----2-----------0--------------|----2--------------------------|
A|3-----------2------------------|0------------------------------|
E|-------------------------------|-------------------------------|
  One two three                   All good children go to Heaven 
              four five six seven,
e|15B1717 17--15- 12----- -------|------- ------- ------- -------|
B|--------------------15--13B14--|-------------------------------|
G|----------------------------14-|14--12------14-----------------|
D|-------------------------------|-------------------------------|
A|-------------------------------|-------------------------------|
E|-------------------------------|-------------------------------|
  .............................Fade..............................



  C           Cmaj7               A
e|------- ------- ------- -------|------- ----5-- ------- -------|
B|------------------------0------|------------2------------------|
G|--------0-----------0-------0--|--------2----------------------|
D|----2-----------0--------------|----2--------------------------|
A|3-----------2------------------|0------------------------------|
E|-------------------------------|-------------------------------|
  One two three                   All good children go to Heaven 
              four five six seven,
  ...............................................................


  C           Cmaj7               A
e|------- ------- ------- -------|------- ----5-- ------- -------|
B|------------------------0------|------------2------------------|
G|--------0-----------0-------0--|--------2----------------------|
D|----2-----------0--------------|----2--------------------------|
A|3-----------2------------------|0------------------------------|
E|-------------------------------|-------------------------------|
  One two three                   All good children go to Heaven 
              four five six seven,
  ...............................................................



  C           Cmaj7               A
e|------- ------- ------- -------|------- ----5-- ------- -------|
B|------------------------0------|------------2------------------|
G|--------0-----------0-------0--|--------2----------------------|
D|----2-----------0--------------|----2--------------------------|
A|3-----------2------------------|0------------------------------|
E|-------------------------------|-------------------------------|
  One two three                   All good children go to Heaven 
              four five six seven,
  ...............................................................



  C           Cmaj7               A
e|------- ------- ------- -------|------- ----5-- ------- -------|
B|------------------------0------|------------2------------------|
G|--------0-----------0-------0--|--------2----------------------|
D|----2-----------0--------------|----2--------------------------|
A|3-----------2------------------|0------------------------------|
E|-------------------------------|-------------------------------|
  One two three                   All good children go to Heaven 
              four five six seven,
  ...............................................................





        B  Bend
        R  Release
        /  Slide up
        \  Slide down
        H  Hammer-on
        P  Pull-off
        ~  Vibrato
        +  Harmonic
        x  Mute note
        .  Play note like a dot in standard notation
        ^  Ties two notes together
        (. Pause



  ------------------------------------------------------------------

  THE BEATLES - SUN KING (Lennon & McCartney) From ABBEY ROAD album.
                Released 26th September 1969.

  ------------------------------------------------------------------

  Tabbed by:PJVillanueva




  Here comes the sun king
  Here comes the sun king
  Everybody's laughing
  Everybody's happy
  Here comes the sun king

  Quando paramucho mi amore de felice carathon
  Mundo paparazzi mi amore cicce verdi parasol
  Questo abrigado tantamucho que canite carousel

  Quando para mucho mia more de felice corazon

  Cuesto obrigado tanta mucho que can eat it carousel 


                                     
  
e|------- ------- ------- -------|------- ------- ------- -------|
B|-------------------------------|-------------------------------|
G|-------------------------------|----------------------------2--|
D|-------------------------------|----------------------------2--|
A|-------------------------------|--------------------2---2/4----|
E|-------------------------------|-------------------------------|




e|------- ------- ------- -------|------- ------- ------- -------|
B|-------------------------------|-------------------------------|
G|-------------------------------|----------------------------2--|
D|------------2---2--------------|------------2-2-2-----------2--|
A|4\2----------------------------|--------------------2--2/4-----|
E|0------------------------------|0------------------------------|




e|------- ------- ------- -------|------- ------- ------- -------|
B|-------------------------------|-------------------------------|
G|-------------------------------|-------------------------------|
D|-----------2----2--------------|------------2-2-2--------------|
A|4\2----------------------------|----------------------------2--|
E|0------------------------------|0-------------------0-2/4------|



  F#m7                                                    B6
e|0------ --2---- 0------ --2----|0------ --2---- 0------ --4----|
B|------2-----2---------2-----2--|------2-----2---------2/4---4--|
G|----2---------------2----------|----2---------------2----------|
D|------------2---2--------------|------------2---2--------------|
A|-------------------------------|------------------------2------|
E|2------------------------------|2------------------------------|



  E6                       
e|0------ ------- ------- -------|------- ------- ------- -------|
B|----------2--------------------|-------------------------------|
G|------1-----1---------------2--|-------------------------------|
D|----2-------2---2-----------2--|------------2------------------|
A|--------------------2--2/4-----|4\2-----------------0---2------|
E|0------------------------------|0---------------4-----------2--|



  F#m7                                                    B6
e|0------ --2---- 0------ --2----|0------ --2---- 0------ --4----|
B|------2-----2---------2-----2--|------2-----2---------2/4---4--|
G|----2---------------2----------|----2---------------2----------|
D|------------2---2--------------|------------2---2--------------|
A|-------------------------------|------------------------2------|
E|-------------------------------|2------------------------------|



  E6
e|0------ ------- ------- -------|------- ------- ------- -------|
B|----------2-----0--------------|-------------------------------|
G|------1-----1---------------2--|-------------------------------|
D|----2-------2---2-----------2--|------------2-2-2--------------|
A|--------------------2--2/4-----|4\2---------------------0---2--|
E|0------------------------------|0-------------------4----------|



  F#m7                                                 Gm7  B6   
e|2----2- --2---- 2------ -------|------- ------- 2----3- --4----|
B|2----2----2-----2--------------|----------------2----3----4----|
G|2----2----2-----2--------------|----------------2----3----4----|
D|------------2---2--------------|------------2-2-2----3----4----|
A|-------------------------------|--------------------------2----|
E|2------------------------------|2------------------------------|



  E6                                                           G7sus2
e|-----0- ------- ------- -------|9------ ------- ------- -----1-|
B|----2--------------------------|9-----------------------------3|
G|---1------------------------2--|9------------------------------2
D|--2---------2---2-----------2--|9---------------2--------------|
A|-2------------------2--2/4-----|------------2-----------2------|
E|0------------------------------|0------------------------------|

 
 

e|------- ------- ------- -------|------- ------- ------- -------|
B|-------------------------------|-------------------------------|
G|-------------------------------|-------------------------------|
D|-------------------------------|-------------------------------|
A|-------------------------------|-------------------------------|
E|3------------------------------|-------------------------------|

e|------- ------- ------- -------|------- --17--- 13--12- 10-----|
B|-------------------------------|--------------------------10/13|
G|-------------------------------|-------------------------------|
D|-------------------------------|-------------------------------|
A|-------------------------------|-------------------------------|
E|-------------------------------|-------------------------------|



  C                               Cmaj7
e|0---0-- ----0-- 0---0-- ----0--|0------ ----0-- 0---0-- -------|
B|1---1-------1---1---1-------1--|0-----------0---0---0----------|
G|0---0-------0---0---0-------0--|0-----------0---0---0----------|
D|2---2-------2---2---2-------2--|2-----------2---2---2----------|
A|3---3-------3---3---3-------3--|3-----------3---3---3----------|
E|3---3-------3---3---3-------3--|3-----------3---3---3----------|
  Here                            comes                   the
e|------- ------- ------- -------|7------ ------- ------- 8------|
B|8------------------------------|-------------------------------|
G|-------------------------------|-------------------------------|
D|-------------------------------|-------------------------------|
A|-------------------------------|-------------------------------|
E|-------------------------------|-------------------------------|



      Gm7                             A
e|----3-- ----3-- 3---3-- 3------|----0-- 0---0-- 0---0-- 0------|
B|----3-------3---3---3---3------|----2---2---2---2---2---2------|
G|----3-------3---3---3---3------|----2---2---2---2---2---2------|
D|----3-------3---3---3---3------|----2---2---2---2---2---2------|
A|-------------------------------|----0---0---0---0---0---0------|
E|----3-------3---3---3---3------|-------------------------------|
  Sun                             King
e|------- ------- ------- -------|------- ------- ------- -------|
B|8------------------------------|10-----------------------------|
G|-------------------------------|-------------------------------|
D|-------------------------------|-------------------------------|
A|-------------------------------|-------------------------------|
E|-------------------------------|-------------------------------|



  C                                   Cmaj7
e|0---0-- ----0-- ----0-- ----0--|----0-- ----0-- ----0-- 0---0--|
B|1---1-------1-------1-------1--|----0-------0-------0---0---0--|
G|0---0-------0-------0-------0--|----0-------0-------0---0---0--|
D|2---2-------2-------2-------2--|----2-------2-------2---2---2--|
A|3---3-------3-------3-------3--|----3-------3-------3---3---3--|
E|3---3-------3-------3-------3--|----3-------3-------3---3---3--|
  Here                            comes                   the
e|------- ------- ------- -------|7------ ------- ------- 8------|
B|8------------------------------|-------------------------------|
G|-------------------------------|-------------------------------|
D|-------------------------------|-------------------------------|
A|-------------------------------|-------------------------------|
E|-------------------------------|-------------------------------|



      Gm7                             A
e|----3-- 3---3-- ----3-- 3---3--|----0-- 0---0-- ----0-- 0---0--|
B|----3---3---3-------3---3---3--|----2---2---2-------2---2---2--|
G|----3---3---3-------3---3---3--|----2---2---2-------2---2---2--|
D|----3---3---3-------3---3---3--|----2---2---2-------2---2---2--|
A|-------------------------------|----0---0---0-------0---0---0--|
E|----3---3---3-------3---3---3--|-------------------------------|
  Sun                             King
e|------- ------- ------- -------|------- ------- ------- -------|
B|8------------------------------|10--------------8---7----------|
G|-------------------------------|------------------------10--9--|
D|-------------------------------|-------------------------------|
A|-------------------------------|-------------------------------|
E|-------------------------------|-------------------------------|

e|------- ------- ------- -------|------- ------- ------- -------|
B|-------------------------------|----------------8---7----------|
G|----10--9---7---10--9---7---9--|6---7---9---10----------10--9--|
D|-------------------------------|-------------------------------|
A|-------------------------------|-------------------------------|
E|-------------------------------|-------------------------------|



  F                               D
e|1------ ----1-- ----1-- 1---1--|2---2-- 2---2-- 2---2-- 2---2--|
B|1-----------1-------1---1---1--|3---3---3---3---3---3---3---3--|
G|2-----------2-------2---2---2--|2---2---2---2---2---2---2---2--|
D|3-----------3-------3---3---3--|0---0---0---0---0---0---0---0--|
A|3-----------3-------3---3---3--|-------------------------------|
E|1-----------1-------1---1---1--|-------------------------------|
          Everybody's         laughing
e|------- ------- ------- -------|------- ------- ------- -------|
B|-------------------------------|----------------8---7----------|
G|-------------------------------|---------------9--------10--9--|
D|10-----------------------------|--------------10---------------|
A|-------------------------------|-------------------------------|
E|-------------------------------|-------------------------------|



  F                               D7
e|1---1-- 1---1-- ----1-- 1---1--|2---2-- 2---2-- 2---2-- 2---2--|
B|1---1---1---1-------1---1---1--|1---1---1---1---1---1---1---1--|
G|2---2---2---2-------2---2---2--|2---2---2---2---2---2---2---2--|
D|3---3---3---3-------3---3---3--|0---0---0---0---0---0---0---0--|
A|3---3---3---3-------3---3---3--|-------------------------------|
E|1---1---1---1-------1---1---1--|-------------------------------|
          Everybody's         happy
e|------- ------- ------- -------|------- ------- ------- -------|
B|-------------------------------|----7-5-7-----------8---7------|
G|-------------------------------|----7-5-7---7-------7---7---7--|
D|10-----------------------------|------------7---------------7--|
A|-------------------------------|-------------------------------|
E|-------------------------------|-------------------------------|



  C                               Em
e|0---0-- 0---0-- 0---0-- 0---0--|0------ ----0-- 0---0-- ----0--|
B|1---1---1---1---1---1---1---1--|0-----------0---0---0-------0--|
G|0---0---0---0---0---0---0---0--|0-----------0---0---0-------0--|
D|2---2---2---2---2---2---2---2--|2-----------2---2---2-------2--|
A|3---3---3---3---3---3---3---3--|2-----------2---2---2-------2--|
E|3---3---3---3---3---3---3---3--|0-----------0---0---0-------0--|
  Here                            comes                   the
e|------- ------- ------- -------|------- ------- ------- -------|
B|8------------------------------|8------------------------------|
G|9------------------------------|9------------------------------|
D10------------------------------|9------------------------------|
A|-------------------------------|-------------------------------|
E|-------------------------------|-------------------------------|



  C7                              F
e|0---0-- ----0-- 0---0-- ----0--|1------ ----1-- ----1-- -------|
B|1---1-------1---1---1-------1--|1-----------1-------1----------|
G|3---3-------3---3---3-------3--|2-----------2-------2----------|
D|2---2-------2---2---2-------2--|3-----------3-------3----------|
A|3---3-------3---3---3-------3--|3-----------3-------3----------|
E|-------------------------------|1-----------1-------1----------|
  Sun                             King
e|------- ------- ------- -------|------- ------- ------- -------|
B|8------------------------------|6------------------------------|
G|9------------------------------|5------------------------------|
D|8------------------------------|7------------------------------|
A|-------------------------------|-------------------------------|
E|-------------------------------|-------------------------------|

e|------- ------- ------- -------|------- ------- ------- -------|
B|-------------------------------|----------------10--8----------|
G|-------------------------------|------------------------9B10R9-|
D|-------------------------------|-------------------------------|
A|-------------------------------|-------------------------------|
E|-------------------------------|-------------------------------|



  F#m7                                                    B6
e|0------ --2---- 0------ --2----|0------ --2---- 0------ --4----|
B|------2-----2---------2-----2--|------2-----2---------2/4---4--|
G|----2---------------2----------|----2---------------2----------|
D|------------2---2--------------|----------2-2-2-2--------------|
A|-------------------------------|------------------------2------|
E|2------------------------------|2------------------------------|
  Quando      paramucho       mi amore        de felice       cara..


  E6
e|0------ ------- ------- -------|------- ------- ------- -------|
B|----------2-----0--------------|-------------------------------|
G|------1-----1---------------2--|-------------------------------|
D|----2-------2---2-----------2--|------------------------2------|
A|--------------------2--2/4-----|4\2-------------0---2-------2--|
E|0------------------------------|0-----------4------------------|
  thon


  F#m7                                                    B6
e|0------ --2---- 0------ --2----|0------ --2---- 0------ --4----|
B|------2-----2---------2-----2--|------2-----2---------2/4---4--|
G|----2---------------2----------|----2---------------2----------|
D|------------2---2--------------|------2-2-2-2-2-2--------------|
A|-------------------------------|------------------------2------|
E|2------------------------------|2------------------------------|
  Mundo       paparazzi       mi amore        cicce verdi     para..


  E6
e|-----0- ------- ------- -------|------- ------- ------- -------|
B|----2--------------------------|-------------------------------|
G|---1------------------------2--|-------------------------------|
D|--2---------2-2-2-----------2--|------------2------------------|
A|-2------------------2--2/4-----|4\2-----------------0---2------|
E|0------------------------------|0---------------4-----------0--|
  sol


  F#m7                                                 Gm7  B6
e|2----2- --2---- 2----2- --2----|2------ ------- 2----3- --4----|
B|2----2----2-----2----2----2----|2---------------2----3----4----|
G|2----2----2-----2----2----2----|2---------------2----3----4----|
D|------------2---2--------------|----2-------2---2----3----4----|
A|-------------------------------|------------------------2------|
E|2------------------------------|2-------2-------2--------------|
  Questo      abrigado      tantamucho        que canite     carou..

                                 (.
  E6
e|-----0- ------- ------- -------|9------ ------- ------- -------|
B|----2--------------------------|9------------------------------|
G|---1------------------------2--|9------------------------------|
D|--2---------2-2-2-----------2--|9------------------------------|
A|-2------------------2--2/4-----|-------------------------------|
E|0------------------------------|0------------------------------|
  sel




        B  Bend
        R  Release
        /  slide up
        \  slide down
        H  hammer-on
        P  pull-off
        ~  vibrato
        +  harmonic
        x  Mute note
        . - play note like a dot in standard notation
        ^ - ties two notes together
        (.  pause



  -------------------------------------------------------------------

  THE BEATLES - MEAN MR. MUSTARD (Lennon & McCartney) From ABBEY ROAD 
                album. Released 26th September 1969.

  -------------------------------------------------------------------
  Tabbed by:PJVillanueva





  Mean Mister Mustard sleeps in the park
  Shaves in the dark trying to save paper
  Sleeps in a hole in the road
  Saving up to buy some clothes
  Keeps a ten-bob note up his nose
  Such a mean old man
  Such a mean old man

  His sister Pam works in a shop
  She never stops, she's a go-getter
  Takes him out to look at the queen
  Only place that he's ever been
  Always shouts out something obscene
  Such a dirty old man
  Dirty old man


                                               xxxX   X x     X X
    
e|------- ------- ------- -------|------- ------- ------- -------|
B|-------------------------------|-------------------------------|
G|-------------------------------|-------------------------------|
D|-------------------------------|-------------------------------|
A|-------------------------------|-------------------------------|
E|-------------------------------|-------------------------------|


  E
e|------- ------- ------- -------|------- ------- ------- -------|
B|--------0---------------0---0--|--------0---0-----------0---0--|
G|--------1---------------1---1--|--------1---1-----------1---1--|
D|2---2--------------------------|2---2--------------------------|
A|----------------2---2----------|----------------2---2----------|
E|-------------------------------|-------------------------------|
  Mean    Mr.     Mustard sleeps  in the  park    shaves  in the




e|------- ------- ------- -------|------- ------- ------- -------|
B|--------0---------------0---0--|--------0---0-----------0------|
G|--------1---------------1---1--|--------1---1-----------1------|
D|2---2--------------------------|2---2---------2-2---1-------4--|
A|----------------2---2----------|------------------------4/2----|
E|-------------------------------|-------------------------------|
  dark    trying  to      save paper


  B7
e|------- ------- ------- -------|------- ------- ------- -------|
B|-------------------------------|-------------------------------|
G|--------2---2-----------2---2--|--------2---2-----------2---2--|
D|--------4---4-----------4---4--|--------4---4-----------4---4--|
A|2---2--------------------------|2---2--------------------------|
E|----------------2---2----------|----------------2---2----------|
  Sleeps  in  a   hole in the road
e|------- ------- ------- -------|------- ------- ------- -------|
B|-------------------------------|-------------------------------|
G|--------8---------------8------|--------8-----8-8---9---10--11-|
D|--------7---------------7------|--------7-----7-7---8----9--10-|
A|--------9---------------9------|--------9-----9-9--10---11--12-|
E|--------7---------------7------|--------7-----7-7---8----9--10-|



  D7
e|------- ------- ------- -------|------- ------- ------- -------|
B|-------------------------------|-------------------------------|
G|--------5---5-----------5---5--|--------5---5-----------5---5--|
D|--------7---7-----------7---7--|--------7---7-----------7---7--|
A|5---5--------------------------|5---5--------------------------|
E|----------------5---5----------|---------------5----5----------|
  Saving  up  to  buy     some clothes
e|------- ------- ------- -------|------- ------- ------- -------|
B|-------------------------------|-------------------------------|
G|--------11--------------11-----|--------11---11-11--10--9---8--|
D|--------10--------------10-----|--------10---10-10---9--8---7--|
A|--------12--------------12-----|--------12---12-12--11-10---9--|
E|--------10--------------10-----|--------10---10-10---9--8---7--|



  B7
e|------- ------- ------- -------|------- ------- ------- -------|
B|-------------------------------|-------------------------------|
G|--------2---2-----------2---2--|--------2---2-----------2---2--|
D|--------4---4-----------4---4--|--------4---4-----------4---4--|
A|2---2--------------------------|2---2--------------------------|
E|----------------2---2----------|----------------2---2----------|
  Keeps a ten bob note up his nose                        Such a
e|------- ------- ------- -------|------- ------- ------- -------|
B|-------------------------------|-------------------------------|
G|--------8---------------8------|--------8---------------8------|
D|--------7---------------7------|--------7---------------7------|
A|--------9---------------9------|--------9---------------9------|
E|--------7---------------7------|--------7---------------7------|



  E               C7              B7
e|------- ------- ------- -------|------- ------- ------- -------|
B|--------0---0------------------|-------------------------------|
G|--------1---1-----------3---3--|--------2---2-----------2---2--|
D|2---2-------------------5---5--|--------4---4-----------4---4--|
A|----------------3---3----------|2---2--------------------------|
E|-------------------------------|----------------2---2----------|
  Mean old    man                                         Such a
e|------- ------- ------- -------|------- ------- ------- -------|
B|--------9----------------------|-------------------------------|
G|--------9---------------9------|--------8-------8-------8------|
D|--------9---------------8------|--------7-------7-------7------|
A|--------7--------------10------|--------9-------9-------9------|
E|------------------------8------|--------7-------7-------7------|



  E               C7              B7
e|------- ------- ------- -------|------- ------- ------- -------|
B|--------0---0------------------|-------------------------------|
G|--------1---1-----------3---3--|--------2---2-----------2---2--|
D|2---2-------------------5---5--|--------4---4-----------4---4--|
A|----------------3---3----------|2---2--------------------------|
E|-------------------------------|----------------2---2----------|
  Mean old    man
e|------- ------- ------- -------|------- ------- ------- -------|
B|--------9----------------------|-------------------------------|
G|--------9---------------9------|--------8-------8-------8------|
D|--------9---------------8------|--------7-------7-------7------|
A|--------7--------------10------|--------9-------9-------9------|
E|------------------------8------|--------7-------7-------7------|   



  E
e|------- ------- ------- -------|------- ------- ------- -------|
B|--------0---------------0---0--|--------0---0-----------0---0--|
G|--------1---------------1---1--|--------1---1-----------1---1--|
D|2---2--------------------------|2---2--------------------------|
A|----------------2---2----------|----------------2---2----------|
E|-------------------------------|-------------------------------|
  His     sister  Pam     works   in  a   shop    She     never
e|------- ------- ------- -------|------- ------- ------- -------|
B|--------0---------------0------|--------0---------------0------|
G|--------1---------------1------|--------1---------------1------|
D|--------2---------------2------|--------2---------------2------|
A|--------2---------------2------|--------2---------------2------|
E|--------0---------------0------|--------0---------------0------|




e|------- ------- ------- -------|------- ------- ------- -------|
B|--------0---------------0---0--|--------0---0-----------0------|
G|--------1---------------1---1--|--------1---1-----------1------|
D|2---2--------------------------|2---2---------2-2---1-------4--|
A|----------------2---2----------|------------------------4/2----|
E|-------------------------------|-------------------------------|
  Stops   She's a go-     getter
e|------- ------- ------- -------|------- ------- ------- -------|
B|--------0---------------0------|--------0---------------0------|
G|--------1---------------1------|--------1---------------1------|
D|--------2---------------2------|--------2---------------2------|
A|--------2---------------2------|--------2---------------2------|
E|--------0---------------0------|--------0---------------0------|



  B7
e|------- ------- ------- -------|------- ------- ------- -------|
B|-------------------------------|-------------------------------|
G|--------2---2-----------2---2--|--------2---2-----------2---2--|
D|--------4---4-----------4---4--|--------4---4-----------4---4--|
A|2---2--------------------------|2---2--------------------------|
E|----------------2---2----------|----------------2---2----------|  
  Takes him out to look at the queen 
e|------- ------- ------- -------|------- ------- ------- -------|
B|-------------------------------|-------------------------------|
G|--------8---------------8------|--------8-----8-8---9---10--11-|
D|--------7---------------7------|--------7-----7-7---8----9--10-|
A|--------9---------------9------|--------9-----9-9--10---11--12-|
E|--------7---------------7------|--------7-----7-7---8----9--10-|



  D7
e|------- ------- ------- -------|------- ------- ------- -------|
B|-------------------------------|-------------------------------|
G|--------5---5-----------5---5--|--------5---5-----------5---5--|
D|--------7---7-----------7---7--|--------7---7-----------7---7--|
A|5---5--------------------------|5---5--------------------------|
E|----------------5---5----------|---------------5----5----------|
  Only   place that he's ever been
e|------- ------- ------- -------|------- ------- ------- -------|
B|-------------------------------|-------------------------------|
G|--------11--------------11-----|--------11---11-11--10--9---8--|
D|--------10--------------10-----|--------10---10-10---9--8---7--|
A|--------12--------------12-----|--------12---12-12--11-10---9--|
E|--------10--------------10-----|--------10---10-10---9--8---7--|



  B7
e|------- ------- ------- -------|------- ------- ------- -------|
B|-------------------------------|-------------------------------|
G|--------2---2-----------2---2--|--------2---2-----------2---2--|
D|--------4---4-----------4---4--|--------4---4-----------4---4--|
A|2---2--------------------------|2---2--------------------------|
E|----------------2---2----------|----------------2---2----------|
  Always shouts out something obscene                     Such a
e|------- ------- ------- -------|------- ------- ------- -------|
B|-------------------------------|-------------------------------|
G|--------8---------------8------|--------8---------------8------|
D|--------7---------------7------|--------7---------------7------|
A|--------9---------------9------|--------9---------------9------|
E|--------7---------------7------|--------7---------------7------|




3/4 Time
 
  E                    C7                   B7                            
e|------ 0----- 0-----|------ ------ ------|------ ------ ------|
B|-------0------0-----|-------5------5-----|-------4------4-----|
G|-------1------1-----|-------3------3-----|-------2------2-----|
D|2-------------------|-------5------5-----|-------4------4-----|
A|--------------------|3-------------------|2-------------------|
E|--------------------|--------------------|--------------------|
  Dirty         old    man


                       E                    C7
e|------ ------ ------|------ ------ ------|------ ------ ------|
B|--------------4-----|-------0------0-----|-------5------5-----|
G|-------2------2-----|-------1------1-----|-------3------3-----|
D|-------4------1-----|2-------------------|-------5------5-----|
A|2------4------------|--------------------|3-------------------|
E|--------------------|--------------------|--------------------|
                       Dirty         old    man


  B7                          C7     C#7
e|------ ------ ------|------ ------ ------|
B|-------4------4-----|4------5------6-----|
G|-------2------2-----|2------3------4-----|
D|-------4------4-----|4------5------6-----|
A|2-------------------|2------3------4-----|
E|--------------------|--------------------|
                      (This measure, with the following chords, is
                       the nexus to the following song in the album,
                       Polythene Pam.) 
                       
  D               A               E
e|2------ ------- 0------ -------|0------ ------- ------- -------|
B|3---------------2--------------|0------------------------------|
G|2---------------2--------------|1------------------------------|
D|0---------------2--------------|2------------------------------|
A|----------------0--------------|2------------------------------|
E|0---------------0--------------|0------------------------------|

e|5------ ------- 5------ -------|4------ ------- ------- -------|
B|7---------------5--------------|5------------------------------|
G|7---------------6--------------|4------------------------------|
D|7---------------7--------------|6------------------------------|
A|5---------------7--------------|7------------------------------|
E|----------------5--------------|-------------------------------|





        B  Bend
        R  Release
        /  slide up
        \  slide down
        H  hammer-on
        P  pull-off
        ~  vibrato
        +  harmonic
        x  Mute note
        . - play note like a dot in standard notation
        ^ - ties two notes together
        (. Pause

                            

  ----------------------------------------------------------------

  THE BEATLES - POLYTHENE PAM (Lennon & McCartney) From ABBEY ROAD
               album. Released on 26th September 1969.

  ----------------------------------------------------------------

  Tabbed by:PJVillanueva




It looks that POLYTHENE PAM and SHE CAME IN THROUGH THE BATHROOM WINDOW
were rehearsed together and finally cut from the same take. Both are 
linked by four descending bars in E Major as a introductory dominant to 
A Major, which is the main key for the second one. I have included those 
four measures here at the end of POLYTHENE PAM because it makes much more 
sense this way than the way it is presented on the CD, as if this brief 
transition belonged to the second song - SHE CAME IN THROUGH THE BATHROOM 
WINDOW.



Well, you should see Polythene Pam,
She's so good looking but she looks like a man.
Well, you should see her in drag, dressed in her polythene bag.
Yes you should see Polythene Pam.
Yeah, yeah, yeah.

Get a dose of her in jackboot and kilt,
She's killer-diller when she's dressed to the hilt.
She's the kind of a girl that makes the News Of The World,
Yes, you could say she was attractively built.
Yeah, yeah, yeah.




  D               A               E
e|2------ ------- 0------ -------|0------ ------- ------- -------|
B|3---------------2--------------|0------------------------------|
G|2---------------2--------------|1------------------------------|
D|0---------------2--------------|2------------------------------|
A|0---------------0--------------|2------------------------------|
E|-------------------------------|0------------------------------|

e|------- ------- ------- -------|--/-7-- 7---7-- 7-\---- -------|
B|-------------------------------|--/-9---9---9---9-\------------|
G|-------------------------------|--/-9---9---9---9-\------------|
D|-------------------------------|-------------------------------|
A|-------------------------------|-------------------------------|
E|-------------------------------|-------------------------------|



  D               A               E
e|2------ ------- 0------ -------|0------ ------- ------- -------|
B|3---------------2--------------|0------------------------------|
G|2---------------2--------------|1------------------------------|
D|0---------------2--------------|2------------------------------|
A|0---------------0--------------|2------------------------------|
E|-------------------------------|0------------------------------|
                                                     Well, you should 
e|------- ------- ------- -------|--/-7-- 7---7-- 7-\---- -------|
B|-------------------------------|--/-9---9---9---9-\------------|
G|-------------------------------|--/-9---9---9---9-\------------|
D|-------------------------------|-------------------------------|
A|-------------------------------|-------------------------------|
E|-------------------------------|-------------------------------|



  D               A                   E
e|2------ ------- 0------ -------|----0-- 0------ 0------ -------|
B|3---------------2--------------|----0---0-------0--------------|
G|2---------------2--------------|----1---1-------1--------------|
D|0---------------2--------------|----2---2-------2--------------|
A|0---------------0--------------|----2---2-------2--------------|
E|-------------------------------|----0---0-------0--------------|
  see             Polythene       Pam,               She's so good
e|------- ------- ------- -------|----7\- /7----- ------- -------|
B|-------------------------------|----9\--/9---------------------|
G|-------------------------------|----9\--/9---------------------|
D|-------------------------------|-------------------------------|
A|-------------------------------|-------------------------------|
E|-------------------------------|-------------------------------|



  D               A           E
e|2---2-- 2---2-- 0---0-- 0---0--|0---0-- 0------ 0------ -------|
B|3---3---3---3---2---2---2---0--|0---0---0-------0--------------|
G|2---2---2---2---2---2---2---1--|1---1---1-------1--------------|
D|0---0---0---0---2---2---2---2--|2---2---2-------2--------------|
A|0---0---0---0---0---0---0---2--|2---2---2-------2--------------|
E|----------------------------0--|0---0---0-------0--------------|
  looking but she looks like a man.                  Well, you should 
  (Aaaaaaaaaaaaaaaaaaaaaaaaaaaaaaahh)
e|------- ------- ------- -------|----7\- --/7--- ------- -------|
B|-------------------------------|----9\----/9-------------------|
G|-------------------------------|----9\----/9-------------------|
D|-------------------------------|-------------------------------|
A|-------------------------------|-------------------------------|
E|-------------------------------|-------------------------------|



  G                               B
e|3---3-- 3---3-- ----3-- ----3--|2---2-- 2---2-- ----2-- 2---2--|
B|3---3---3---3-------3-------3--|4---4---4---4-------4---4---4--|
G|0---0---0---0-------0-------0--|4---4---4---4-------4---4---4--|
D|0---0---0---0-------0-------0--|4---4---4---4-------4---4---4--|
A|2---2---2---2-------2-------2--|2---2---2---2-------2---2---2--|
E|3---3---3---3-------3-------3--|-------------------------------|
  see her in drag, dressed in her polythene   bag.    Yes you should 
 (Aaaaaaaaaaaaaaaaaaaaaaaaaaaaaaaaaaaaaaaaaaaaaaaaaaaaaaaaaaaaaaa


  C               D           E
e|0------ 0------ 2---2-- 2---0--|----0-- 0------ 0------ -------|
B|1-------1-------3---3---3---0--|----0---0-------0--------------|
G|0-------0-------2---2---2---1--|----1---1-------1--------------|
D|2-------2-------0---0---0---2--|----2---2-------2--------------|
A|3-------3-------0---0---0---2--|----2---2-------2--------------|
E|3-------3-------------------0--|----0---0-------0--------------|
  see             Polythene       Pam.
  aaaaaaaaaaaaaaaaaaaaaaaaaaaaaaaaaaaahhh)
e|------- ------- ------- -------|----7-- 7------ 7-\---- -------|
B|-------------------------------|----9---9-------9-\------------|
G|-------------------------------|----9---9-------9-\------------|
D|-------------------------------|-------------------------------|
A|-------------------------------|-------------------------------|
E|-------------------------------|-------------------------------|



  C           D               E
e|0---0-- 0---2-- 2---2-- 2---0--|----0-- 0------ 0------ -------|
B|1---1---1---3---3---3---3---0--|----0---0-------0--------------|
G|0---0---0---2---2---2---2---1--|----1---1-------1--------------|
D|2---2---2---0---0---0---0---2--|----2---2-------2--------------|
A|3---3---3---0---0---0---0---2--|----2---2-------2--------------|
E|3---3---3-------------------0--|----0---0-------0--------------|
  Yeah,           yeah,       yeah.
 (Yeah,           yeah,       yeah.)
e|------- ------- ------- -------|---/7-- 7------ 7-\---- -------|
B|-------------------------------|---/9---9-------9-\------------|
G|-------------------------------|---/9---9-------9-\------------|
D|-------------------------------|-------------------------------|
A|-------------------------------|-------------------------------|
E|-------------------------------|-------------------------------|



  D               A               E
e|2------ ------- 0------ -------|0------ ------- ------- -------|
B|3---------------2--------------|0------------------------------|
G|2---------------2--------------|1------------------------------|
D|0---------------2--------------|2------------------------------|
A|0---------------0--------------|2------------------------------|
E|-------------------------------|0------------------------------|

e|------- ------- ------- -------|------- ------- ------- -------|
B|-------------------------------|----9---9---9---9-\------------|
G|-------------------------------|----9---9---9---9-\------------|
D|-------------------------------|----9---9---9---9-\----------/-|
A|-------------------------------|-------------------------------|
E|-------------------------------|-------------------------------|



  D               A               E
e|2------ ------- 0------ -------|0------ ------- ------- -------|
B|3---------------2--------------|0------------------------------|
G|2---------------2--------------|1------------------------------|
D|0---------------2--------------|2------------------------------|
A|0---------------0--------------|2------------------------------|
E|-------------------------------|0------------------------------|
                                                          Get a 
e|------- ------- ------- -------|----7-- 7---7-- 7-\---- -------|
B|-------------------------------|----9---9---9---9-\------------|
G|-------------------------------|----9---9---9---9-\------------|   
D|9------------------------------|----9---9---9---9-\------------|
A|-------------------------------|-------------------------------|
E|-------------------------------|-------------------------------|



  D               A           E
e|2------ 2---2-- 0---0-- 0---0--|----0-- 0------ 0------ -------|
B|3-------3---3---2---2---2---0--|----0---0-------0--------------|
G|2-------2---2---2---2---2---1--|----1---1-------1--------------|
D|0-------0---0---2---2---2---2--|----2---2-------2--------------|
A|0-------0---0---0---0---0---2--|----2---2-------2--------------|
E|----------------------------0--|----0---0-------0--------------|
  dose of her in jackboot and kilt,                  She's killer-
e|------- ------- ------- -------|---/7-- -------/7\----- -------|
B|-------------------------------|---/9----------/9\-------------|
G|-------------------------------|---/9----------/9\-------------|
D|-------------------------------|-------------------------------|
A|-------------------------------|-------------------------------|
E|-------------------------------|-------------------------------|



  D               A           E
e|2---2-- 2---2-- 0------ 0---0--|----0-- 0------ 0------ -------|
B|3---3---3---3---2-------2---0--|----0---0-------0--------------|
G|2---2---2---2---2-------2---1--|----1---1-------1--------------|
D|0---0---0---0---2-------2---2--|----2---2-------2--------------|
A|0---0---0---0---0-------0---2--|----2---2-------2--------------|
E|----------------------------0--|----0---0-------0--------------|
  diller when she's dressed                              She's the 
                      to  the hilt.
 (Aaaaaaaaaaaaaaaaaaaaaaaaaaaaaaahh)
e|------- ------- ------- -------|---/7-- -------/7\----- -------|
B|-------------------------------|---/9----------/9\-------------|
G|-------------------------------|---/9----------/9\-------------|
D|-------------------------------|-------------------------------|
A|-------------------------------|-------------------------------|
E|-------------------------------|-------------------------------|



  G                               B
e|3------ 3---3-- ----3-- 3------|2---2-- 2---2-- ----2-- 2---2--|
B|3-------3---3-------3---3------|4---4---4---4-------4---4---4--|
G|0-------0---0-------0---0------|4---4---4---4-------4---4---4--|
D|0-------0---0-------0---0------|4---4---4---4-------4---4---4--|
A|2-------2---2-------2---2------|2---2---2---2-------2---2---2--|
E|3-------3---3-------3---3------|-------------------------------|
  kind of a   girl  that makes the News Of The World, Yes, you could 
 (Aaaaaaaaaaaaaaaaaaaaaaaaaaaaaaaaaaaaaaaaaaaaaaaaaaaaaaaaaaaaaaa


  C               D           E
e|0------ 0---0-- 2---2-- 2---0--|0---0-- 0------ 0------ -------|
B|1-------1---1---3---3---3---0--|0---0---0-------0--------------|
G|0-------0---0---2---2---2---1--|1---1---1-------1--------------|
D|2-------2---2---0---0---0---2--|2---2---2-------2--------------|
A|3-------3---3---0---0---0---2--|2---2---2-------2--------------|
E|3-------3---3---------------0--|0---0---0-------0--------------|
  say she was attractively    built.
  aaaaaaaaaaaaaaaaaaaaaaaaaaaaaaaaaaaahhh)
e|------- ------- ------- -------|---/7-- 7---7-- 7\----- -------|
B|-------------------------------|---/9---9---9---9\-------------|
G|-------------------------------|---/9---9---9---9\-------------|
D|-------------------------------|-------------------------------|
A|-------------------------------|-------------------------------|
E|-------------------------------|-------------------------------|



  C               D           E
e|0---0-- 0------ 2---2-- 2---0--|----0-- 0------ 0------ -------|
B|1---1---1-------3---3---3---0--|----0---0-------0--------------|
G|0---0---0-------2---2---2---1--|----1---1-------1--------------|
D|2---2---2-------0---0---0---2--|----2---2-------2--------------|
A|3---3---3-------0---0---0---2--|----2---2-------2--------------|
E|3---3---3-------------------0--|----0---0-------0--------------|
  Yeah,           yeah,       yeah.
 (Yeah,           yeah,       yeah.)
e|------- ------- ------- -------|---/7-- 7---7-- 7\----- -------|
B|-------------------------------|---/9---9---9---9\-------------|
G|-------------------------------|---/9---9---9---9\-------------|
D|-------------------------------|-------------------------------|
A|-------------------------------|-------------------------------|
E|-------------------------------|-------------------------------|



  D               A               E
e|2------ ------- 0------ -------|0------ ------- ------- -------|
B|3---------------2--------------|0------------------------------|
G|2---------------2--------------|1------------------------------|
D|0---------------2--------------|2------------------------------|
A|0---------------0--------------|2------------------------------|
E|-------------------------------|0------------------------------|

e|------- ------- ------- -------|---/7-- 7---7-- 7\----- -------|
B|-------------------------------|---/9---9---9---9\-------------|
G|-------------------------------|---/9---9---9---9\-------------|
D|-------------------------------|-------------------------------|
A|-------------------------------|-------------------------------|
E|-------------------------------|-------------------------------|



  D               A               E
e|2------ ------- 0------ -------|0------ ------- ------- -------|
B|3---------------2--------------|0------------------------------|
G|2---------------2--------------|1------------------------------|
D|0---------------2--------------|2------------------------------|
A|0---------------0--------------|2------------------------------|
E|-------------------------------|0------------------------------|

e|------- ------- ------- -------|---/7-- 7---7-- 7\----- -------|
B|-------------------------------|---/9---9---9---9\-------------|
G|-------------------------------|---/9---9---9---9\-------------|
D|-------------------------------|-------------------------------|
A|-------------------------------|-------------------------------|
E|-------------------------------|-------------------------------|



  x           x   x           x       x       x   x ....
  D           A               E
e|2------ 2---0-- 0---0-- 0---0--|----0-- 0------ 0------ -------|
B|3-------3---2---2---2---2---0--|----0---0-------0--------------|
G|2-------2---2---2---2---2---1--|----1---1-------1--------------|
D|0-------0---2---2---2---2---2--|----2---2-------2--------------|
A|0-------0---0---0---0---0---2--|----2---2-------2--------------|
E|----------------------------0--|----0---0-------0--------------|

e|------- ------- ------- -------|------- ------- ------- -------|
B|-------------------------------|--------------------5-H-8------|
G|-------------------------------|------------4-H-7--------------|
D|-------------------------------|-------------------------------|
A|-------------------------------|-------------------------------|
E|-------------------------------|-------------------------------|




  D               A           E
e|2------ 2------ 0------ 0---0--|----0-- 0---0-- 0------ -------|
B|3-------3-------2-------2---0--|----0---0---0---0--------------|
G|2-------2-------2-------2---1--|----1---1---1---1--------------|
D|0-------0-------2-------2---2--|----2---2---2---2--------------|
A|0-------0-------0-------0---2--|----2---2---2---2--------------|
E|----------------------------0--|----0---0---0---0--------------|

e|------- ------- ------- -------|------- ------- ------- -------|
B|8B10R8B10-~-------------5H8P5--|--------------------5-------8--|
G|-------------------------------|7------------------------------|
D|-------------------------------|-------------------------------|
A|-------------------------------|-------------------------------|
E|-------------------------------|-------------------------------|




  D               A           E
e|2------ 2------ 0---0-- 0---0--|----0-- 0---0-- 0------ -------|
B|3-------3-------2---2---2---0--|----0---0---0---0--------------|
G|2-------2-------2---2---2---1--|----1---1---1---1--------------|
D|0-------0-------2---2---2---2--|----2---2---2---2--------------|
A|0-------0-------0---0---0---2--|----2---2---2---2--------------|
E|----------------------------0--|----0---0---0---0--------------|

e|------- ------- ------- -------|------- ------- ------- -------|
B|8-B-10----------8B10R8--5------|5-----------------------5---8--|
G|-------------------------------|--------------------7----------|
D|-------------------------------|-------------------------------|
A|-------------------------------|-------------------------------|
E|-------------------------------|-------------------------------|




  D               A           E
e|2---2-- 2------ 0---0-- 0---0--|----0-- 0---0-- 0------ -------|
B|3---3---3-------2---2---2---0--|----0---0---0---0--------------|
G|2---2---2-------2---2---2---1--|----1---1---1---1--------------|
D|0---0---0-------2---2---2---2--|----2---2---2---2--------------|
A|0---0---0-------0---0---0---2--|----2---2---2---2--------------|
E|----------------------------0--|----0---0---0---0--------------|

e|------- ------- ------- -------|------- ------- ------- -------|
B|8-B-10----------10-R-8--5------|5-------------------8-------10-|
G|-------------------------------|--------7H9P7---9--------------|
D|-------------------------------|-------------------------------|
A|-------------------------------|-------------------------------|
E|-------------------------------|-------------------------------|




  D               A           E
e|2------ 2---2-- 0---0-- 0---0--|----0-- 0---0-- 0---0-- -------|
B|3-------3---3---2---2---2---0--|----0---0---0---0---0----------|
G|2-------2---2---2---2---2---1--|----1---1---1---1---1----------|
D|0-------0---0---2---2---2---2--|----2---2---2---2---2----------|
A|0-------0---0---0---0---0---2--|----2---2---2---2---2----------|
E|----------------------------0--|----0---0---0---0---0----------|

e|------- ------- ------- ----12-|------- ------- ------- -------|
B|12B14---12--12--12--10--8H10---|------------------------8---10-|
G|-------------------------------|-------------------------------|
D|-------------------------------|-------------------------------|
A|-------------------------------|-------------------------------|
E|-------------------------------|-------------------------------|




  D               A           E
e|2------ 2---2-- 0---0-- 0---0--|----0-- 0---0-- 0------ -------|
B|3-------3---3---2---2---2---0--|----0---0---0---0--------------|
G|2-------2---2---2---2---2---1--|----1---1---1---1--------------|
D|0-------0---0---2---2---2---2--|----2---2---2---2--------------|
A|0-------0---0---0---0---0---2--|----2---2---2---2--------------|
E|----------------------------0--|----0---0---0---0--------------|

e|------- ------- ------- -------|------- ------- ------- -------|
B|10B12-----------10-B-12-----R--|10--8-------------------8---10-|
G|-------------------------------|--------------------9----------|
D|-------------------------------|-------------------------------|
A|-------------------------------|-------------------------------|
E|-------------------------------|-------------------------------|




  D               A           E
e|2---2-- 2---2-- 0---0-- 0---0--|----0-- 0---0-- 0------ -------|
B|3---3---3---3---2---2---2---0--|----0---0---0---0--------------|
G|2---2---2---2---2---2---2---1--|----1---1---1---1--------------|
D|0---0---0---0---2---2---2---2--|----2---2---2---2--------------|
A|0---0---0---0---0---0---0---2--|----2---2---2---2--------------|
E|----------------------------0--|----0---0---0---0--------------|

e|------- ------- ------- -------|------- ------- ------- -------|
B|10B12-------10B12---10--8------|8-----------------------8---10-|
G|-------------------------------|--------------------9----------|
D|-------------------------------|-------------------------------|
A|-------------------------------|-------------------------------|
E|-------------------------------|-------------------------------|




  D               A           E
e|2---2-- 2---2-- 0---0-- 0---0--|----0-- 0---0-- 0------ -------|
B|3---3---3---3---2---2---2---0--|----0---0---0---0--------------|
G|2---2---2---2---2---2---2---1--|----1---1---1---1--------------|
D|0---0---0---0---2---2---2---2--|----2---2---2---2--------------|
A|0---0---0---0---0---0---0---2--|----2---2---2---2--------------|
E|----------------------------0--|----0---0---0---0--------------|

e|------- ------- ------- -------|------- ------- ------- -------|
B|10B12-~------R--10--8-------8--|----8B10----8---------------8--|
G|------------------------9------|-------------------------------|
D|-------------------------------|-------------------------------|
A|-------------------------------|-------------------------------|
E|-------------------------------|-------------------------------|




  E                          
e|0---0-- 0---0-- 0---0-- 0---0--|0---0-- 0---0-- 0---0-- 0---0--|
B|0---0---0---0---0---0---0---0--|0---0---0---0---0---0---0---0--|
G|1---1---1---1---1---1---1---1--|1---1---1---1---1---1---1---1--|
D|2---2---2---2---2---2---2---2--|2---2---2---2---2---2---2---2--|
A|2---2---2---2---2---2---2---2--|2---2---2---2---2---2---2---2--|
E|0---0---0---0---0---0---0---0--|0---0---0---0---0---0---0---0--|

e|------- ------- ------- -------|------- ------- ------- -------|
B|10B12---10B12--10B12R10-8------|-------------------------------|
G|---------------------------9---|--------7---4------------------|
D|-------------------------------|----------------7--P5H7-5------|
A|-------------------------------|-------------------------------|
E|-------------------------------|-------------------------------|





  E
e|0---0-- 0---0-- 0---0-- 0---0--|0---0-- 0---0-- 0---0-- 0---0--|
B|0---0---0---0---0---0---0---0--|0---0---0---0---0---0---0---0--|
G|1---1---1---1---1---1---1---1--|1---1---1---1---1---1---1---1--|
D|2---2---2---2---2---2---2---2--|2---2---2---2---2---2---2---2--|
A|2---2---2---2---2---2---2---2--|2---2---2---2---2---2---2---2--|
E|0---0---0---0---0---0---0---0--|0---0---0---0---0---0---0---0--|

e|------- ------- ------- -------|------- ------- ------- -------|
B|-------------------------------|-------------------------------|
G|-------------------------------|-------------------------------|
D|-------------------------------|-------------------------------|
A|7------------------------------|5------------------------------|
E|-------------------------------|-------------------------------|





e|0---0-- 0---0-- 0---0-- 0---0--|0---0-- 0---0-- 0---0-- 0---0--|
B|0---0---0---0---0---0---0---0--|0---0---0---0---0---0---0---0--|
G|1---1---1---1---1---1---1---1--|1---1---1---1---1---1---1---1--|
D|2---2---2---2---2---2---2---2--|2---2---2---2---2---2---2---2--|
A|2---2---2---2---2---2---2---2--|2---2---2---2---2---2---2---2--|
E|0---0---0---0---0---0---0---0--|0---0---0---0---0---0---0---0--|
                           Oh, look out!
e|------- ------- ------- -------|------- ------- ------- -------|
B|-------------------------------|-------------------------------|
G|-------------------------------|-------------------------------|
D|-------------------------------|-------------------------------|
A|4------------------------------|-------------------------------|
E|-------------------------------|7------------------------------| ....




        B  Bend
        R  Release
        /  Slide up
        \  Slide down
        H  Hammer-on
        P  Pull-off
        ~  Vibrato
        +  Harmonic
        x  Mute note
        .  Play note like a dot in standard notation
        ^  Ties two notes together
        (. Pause



    --------------------------------------------------------
  
    THE BEATLES - SHE CAME IN THROUGH THE BATHROOM WINDOW 
                 (Lennon & McCartney) From ABBEY ROAD album. 
                  Released on 26th September 1969.

    --------------------------------------------------------

      Tabbed by:PJVillanueva




    She came in through the bathroom window
    Protected by a silver spoon
    But now she sucks her thumb and wanders
    By the banks of her own lagoon

    Didn't anybody tell her?
    Didn't anybody see?
    Sundays on the phone to Monday,
    Tuesdays on the phone to me

    She said she'd always been a dancer
    She worked at fifteen clubs a day
    And though she thought I knew the answer
    Well I knew what I could not say.

    And so I quit the police department
    And got myself a steady job
    And though she tried her best to help me
    She could steal but she could not rob

    Didn't anybody tell her?
    Didn't anybody see?
    Sunday's on the phone to Monday,
    Tuesday's on the phone to me
    Oh yeah.



                        x x   x x x
    00:06                                    
                           
  e|0------ ------- ------- -------|------- ------- 2-2---2 --2-2-2|
  B|2------------------------------|----------------3-3---3---3-3-3|
  G|2------------------------------|----------------2-2---2---2-2-2|
  D|2------------------------------|----------------0-0---0---0-0-0|
  A|0------------------------------|-------------------------------|
  E|-------------------------------|-------------------------------|

  e|------- ------- ------- -------|------- -10---- 10---10 -1010--|
  B|-------------------------------|-----------------7----7---8-7--|
  G|-------------------------------|------------7H9----7--7---7-7--|
  D|-------------------------------|----------------------7---9-7--|
  A|-------------------------------|-------------------------------|
  E|-------------------------------|-------------------------------|
          She in  through bathroom 
            came        the       window



  e|0---0-- 0-----0 --0---- 0---0-0|2---2-- 2-2-2-2 --2---2 --2-2--|
  B|2---2---2-----2---2-----2---2-2|3---3---3-3-3-3---3---3---3-3--|
  G|2---2---2-----2---2-----2---2-2|2---2---2-2-2-2---2---2---2-2--|
  D|2---2---2-----2---2-----2---2-2|0---0---0-0-0-0---0---0---0-0--|
  A|0---0---0-----0---0-----0---0-0|-------------------------------|
  E|-------------------------------|-------------------------------|

  e|9------ ------- ------- -------|------- -10---- 10----- -------|
  B10------------------------------|------------------7H8-7-----7--|
  G|9------------------------------|------------------7---7---7----|
  D|-------------------------------|------------7H9---7H9-7--------|
  A|-------------------------------|-------------------------------|
  E|-------------------------------|-------------------------------|
          protected by  a silver  spoon




  e|0---0-- 0---0-- 0---0-- 0---0-0|2-2-2-- 2---2-2 --2---2 2-2-2-2|
  B|2---2---2---2---2---2---2---2-2|3-3-3---3---3-3---3---3-3-3-3-3|
  G|2---2---2---2---2---2---2---2-2|2-2-2---2---2-2---2---2-2-2-2-2|
  D|2---2---2---2---2---2---2---2-2|0-0-0---0---0-0---0---0-0-0-0-0|
  A|0---0---0---0---0---0---0---0-0|-------------------------------|
  E|-------------------------------|-------------------------------|

  e|9------ ------- ------- -------|------- -10---- 10---10 -------|
  B10------------------------------|------------7H8---7H8---7---7--|
  G|9------------------------------|------------7-----7-----7---7--|
  D|-------------------------------|------------7H9---7H9---7---7--|
  A|-------------------------------|-------------------------------|
  E|-------------------------------|-------------------------------|
          But   she     her     and                         by  the
            now   sucks   thumb   wanders                         banks


                                                    x X   x X X X X

  e|2---2-- 2---2-2 --2---2 --2-2-2|0------ ------- ------- -------|
  B|3---3---3---3-3---3---3---3-3-3|2------------------------------|
  G|2---2---2---2-2---2---2---2-2-2|2------------------------------|
  D|0---0---0---0-0---0---0---0-0-0|2------------------------------|
  A|-------------------------------|0------------------------------|
  E|-------------------------------|-------------------------------|

  e/14----- ---12-- 10-\--- 5-----/|9------ ------- ------- -------|
  B|-------------------------------|-------------------------------|
  G/14---------12---11-\----7-----/|9------------------------------|
  D|-------------------------------|-------------------------------|
  A|-------------------------------|-------------------------------|
  E|-------------------------------|-------------------------------|
            of  her     lagoon          Didn't                  tell    
                  own                       anybody


    00:29

  e|1---1-- 1-----1 --1-1-- 1-----0|0---0-- 0---0-0 --0-0-0 0---0-1|
  B|3---3---3-----3---3-3---3-----2|2---2---2---2-2---2-2-2-2---2-3|
  G|2---2---2-----2---2-2---2-----2|2---2---2---2-2---2-2-2-2---2-2|
  D|0---0---0-----0---0-0---0-----2|2---2---2---2-2---2-2-2-2---2-0|
  A|------------------------------0|0---0---0---0-0---0-0-0-0---0--|
  E|-------------------------------|-------------------------------|

  e|------- ------- ------- -------|------- ------- ------- -------|
  B|-----------------B-------------|-------------------------------|
  G|------------7-9-910R9-7-7----9-|6-~----------------------------|
  D|----------7--------------------|-------------------------------|
  A|-------------------------------|-------------------------------|
  E|-------------------------------|-------------------------------|
        her                             didn't                  see
                                            anybody



  e|1---1-- 1-----1 --1---1 1-1-1--|3---3-- 3---3-3 --3-3-- 3---3--|
  B|3---3---3-----3---3---3-3-3-3--|3---3---3---3-3---3-3---3---3--|
  G|2---2---2-----2---2---2-2-2-2--|0---0---0---0-0---0-0---0---0--|
  D|0---0---0-----0---0---0-0-0-0--|0---0---0---0-0---0-0---0---0--|
  A|-------------------------------|2---2---2---2-2---2-2---2---2--|
  E|-------------------------------|3---3---3---3-3---3-3---3---3--|

  e|------- ------- ------- -------|------- ------- ------- -------|
  B|-----------------B-------HP----|-------------------------------|
  G|------------7---910-9---797----|-------------------------------|
  D|----------7--------------------|-------------------------------|
  A|-------------------------------|-------------------------------|
  E|-------------------------------|-------------------------------|
                                    sundays on  the phone   to  monday




  e|0---0-- 0---0-- ----0-- 0-0-0--|3---3-- 3-3---3 --3-3-- 3---3--|
  B|1---1---1---1-------1---1-1-1--|3---3---3-3---3---3-3---3---3--|
  G|0---0---0---0-------0---0-0-0--|0---0---0-0---0---0-0---0---0--|
  D|2---2---2---2-------2---2-2-2--|0---0---0-0---0---0-0---0---0--|
  A|3---3---3---3-------3---3-3-3--|2---2---2-2---2---2-2---2---2--|
  E|-------------------------------|3---3---3-3---3---3-3---3---3--|
              B   
  e|----8-- 101210P8------- -------|------- ------- ------- -------|
  B/10---------------10P8----------|-------------------------------|
  G|----------------------9---5H7--|-------------------------------|
  D|-------------------------------|5------------------------------|
  A|-------------------------------|-------------------------------|
  E|-------------------------------|-------------------------------|
                                    tuesdays    the phone   to  me
                                            on


                                      xxx x   x X X 

  e|0---0-0 0---0--|0------ ------- ------- -------|
  B|1---1-1-1---1--|2------------------------------|
  G|0---0-0-0---0--|2------------------------------|
  D|2---2-2-2---2--|2------------------------------|
  A|3---3-3-3---3--|0------------------------------|
  E|---------------|-------------------------------|

  e|------- ----9--|------- ------- ------- -------|
  B|--------8---8--|-------------------------------|
  G|---/9-------9--|-------------------------------|
  D|---------------|-------------------------------|
  A|---------------|-------------------------------|
  E|---------------|-------------------------------|
                          She   she'd       been  dancer
                            said  always        a

    X                                                           x
    00:51
    
  e|------- 2---2-2 3-3-3-2 --2-2-2|0------ 0-----0 --0---- 0-----2|
  B|--------3---3-3-3-3-3-3---3-3-3|2-------2-----2---2-----2-----3|
  G|--------2---2-2 2-2-2-2---2-2-2|2-------2-----2---2-----2-----2|
  D|--------0---0-0-0-0-0-0---0-0-0|2-------2-----2---2-----2-----0|
  A|-------------------------------|0-------0-----0---0-----0------|
  E|-------------------------------|-------------------------------|

  e|------- -10---- ------- -------|9------ ------- ------- -------|
  B|------------7H8-7---8-7-----7--10------------------------------|
  G|------------7---7-7-7-7-7------|9------------------------------|
  D|-------------------------------|-------------------------------|
  A|-------------------------------|-------------------------------|
  E|-------------------------------|-------------------------------|
                                          She  at          clubs
                                            worked              a day
                                                  fifteen


  e|--2-2-- 2-2---3 --3-3-3 3-2-2-2|0---0-- 0-----0 --0---0 0---0-0|
  B|--3-3---3-3---3---3-3-3-3-3-3-3|2---2---2-----2---2---2-2---2-2|
  G|--2-2---2-2---2---2-2-2 2-2-2-2|2---2---2-----2---2---2-2---2-2|
  D|--0-0---0-0---0---0-0-0-0-0-0-0|2---2---2-----2---2---2-2---2-2|
  A|-------------------------------|0---0---0-----0---0---0-0---0-0|
  E|-------------------------------|-------------------------------|

  e|------- -10---- ------- ---10--|9------ ------- ------- -------|
  B|------------7H8-7---8-7-----7--10------------------------------|
  G|------------7---7-7-7-7-7------|9------------------------------|
  D|-------------------------------|-------------------------------|
  A|-------------------------------|-------------------------------|
  E|-------------------------------|-------------------------------|
                                          And   she     I knew  the
                                            though                answer
                                                  thought

                                        x

  e|2---2-- 2-----3 --3-3-3 3-2-2-2|2---2-- 2-----2 --2---2 --2-2--|
  B|3---3---3-----3---3-3-3-3-3-3-3|3---3---3-----3---3---3---3-3--|
  G|2---2---2-----2---2-2-2-2-2-2-2|2---2---2-----2---2---2---2-2--|
  D|0---0---0-----0---0-0-0-0-0-0-0|0---0---0-----0---0---0---0-0--|
  A|-------------------------------|-------------------------------|
  E|-------------------------------|-------------------------------|

  e|------- -10----10----10 ---10--|14----- ---12-- 10-\--- 5----/-|
  B|----------------7--H8-7-----7--|-------------------------------|
  G|------------7H9-7-7---7-----7--|14---------12---11-\----7----/-|
  D|-------------------------------|-------------------------------|
  A|-------------------------------|-------------------------------|
  E|-------------------------------|-------------------------------|
                            well    knew    what  could   say
                              I               I       not

                    x x   x X X X X
    01:09

  e|0------ ------- ------- -------|2---2-- 2---2-3 --3-3-3 3-2-2--|
  B|2------------------------------|3---3---3---3-3---3-3-3-3-3-3-0|
  G|2------------------------------|2---2---2---2-2---2-2-2-2-2-2-0|
  D|2------------------------------|0---0---0---0-0---0-0-0-0-0-0-0|
  A|0------------------------------|-------------------------------|
  E|-------------------------------|-------------------------------|

  e/9------ ------- ------- -------|------- ------- ------- -------|
  B|-------------------------------|------------------------B------|
  G/9------------------------------|--------------------5-7-8R7P5--|
  D|-------------------------------|------------------7------------|
  A|-------------------------------|-------------------------------|
  E|-------------------------------|-------------------------------|
          And   I quit  the     department
            so            police



  e|0---0-- 0---0-0 --0---- 0-0-0-2|2-2-2-- 2---2-3 --3-3-3 3-3-2-2|
  B|2---2---2---2-2---2-----2-2-2-3|3-3-3---3---3-3---3-3-3-3-3-3-3|
  G|2---2---2---2-2---2-----2-2-2-2|2-2-2---2---2-2---2-2-2-2-2-2-2|
  D|2---2---2---2-2---2-----2-2-2-0|0-0-0---0---0-0---0-0-0-0-0-0-0|
  A|0---0---0---0-0---0-----0-0-0--|-------------------------------|
  E|-------------------------------|-------------------------------|

  e|------- ------- ------- -------|------- ------- ------- -----B-R
  B|-------------------------------|-----------------B----------810|
  G|6-~----------------------------|--------------7-911R9-7-7------|
  D|-------------------------------|----------710------------------|
  A|-------------------------------|-----------H-------------------|
  E|-------------------------------|-------------------------------|
          and   myself  a   steady  
            got                   job



  e|0---0-- 0-----0 --0---- 0---0-0|2-2-2-- 2-2-2-3 --3-3-3 3-2-2-2|
  B|2---2---2-----2---2-----2---2-2|3-3-3---3-3-3-3---3-3-3-3-3-3-3|
  G|2---2---2-----2---2-----2---2-2|2-2-2---2-2-2-2---2-2-2-2-2-2-2|
  D|2---2---2-----2---2-----2---2-2|0-0-0---0-0-0-0---0-0-0-0-0-0-0|
  A|0---0---0-----0---0-----0---0-0|-------------------------------|
  E|-------------------------------|-------------------------------|

  e|------- ------- ------- -------|------- -10----10----10 ---10--|
  B|8-~----------------------------|------------7H8-7-7H8-7-----7--|
  G|-------------------------------|------------7---7-----7-----7--|
  D|-------------------------------|-------------------------------|
  A|-------------------------------|-------------------------------|
  E|-------------------------------|-------------------------------|
          and   she     her     to      me                  She could
            though        best    help                            steal
                  tried 



  e|2---2-- 2---2-2 --2---2 --2-2--|0------ ------- ------- -------|
  B|3---3---3---3-3---3---3---3-3--|2------------------------------|
  G|2---2---2---2-2---2---2---2-2--|2------------------------------|
  D|0---0---0---0-0---0---0---0-0--|2------------------------------|
  A|-------------------------------|0------------------------------|
  E|-------------------------------|-------------------------------|

  e|14----- ---12-- 10-\--- 5-----/|9------ ------- ------- -------|
  B|-------------------------------|-------------------------------|
  G|14---------12---11-\----7-----/|9------------------------------|
  D|-------------------------------|-------------------------------|
  A|-------------------------------|-------------------------------|
  E|-------------------------------|-------------------------------|
            but she   not rob           Didn't                  tell
                  could                     anybody


    01:33

  e|1------ 1-----1 1-1-1-- 1---0-0|0------ 0-----0 0-0-0-- 0-----1|
  B|3-------3-----3-3-3-3---3---2-2|2-------2-----2-2-2-2---2-----3|
  G|2-------2-----2-2-2-2---2---2-2|2-------2-----2-2-2-2---2-----2|
  D|0-------0-----0-0-0-0---0---2-2|2-------2-----2-2-2-2---2-----0|
  A|----------------------------0-0|0-------0-----0-0-0-0---0------|
  E|-------------------------------|-------------------------------|

  e|------- ------- ------- -------|------- ------- ------- -------|
  B|-------------------------------|-------------------------------|
  G|------------7---9-------9109P7-|6-~----------------------------|
  D|----------7--------------B-R---|-------------------------------|
  A|-------------------------------|-------------------------------|
  E|-------------------------------|-------------------------------|
        her                             didn't                  see
                                            anybody



  e|1---1-- 1---1-1 1-1-1-- 1---1--|3---3-- 3---3-3 3-3-3-- 3---3-3|
  B|3---3---3---3-3-3-3-3---3---3--|3---3---3---3-3-3-3-3---3---3-3|
  G|2---2---2---2-2-2-2-2---2---2--|0---0---0---0-0-0-0-0---0---0-0|
  D|0---0---0---0-0-0-0-0---0---0--|0---0---0---0-0-0-0-0---0---0-0|
  A|-------------------------------|2---2---2---2-2-2-2-2---2---2-2|
  E|-------------------------------|3---3---3---3-3-3-3-3---3---3-3|

  e|------- ------- ------- -------|------- ------- ------- -------|
  B|-------------------------------|8-~----------------------------|
  G|------------7---9B10----9109P7-|-------------------------------|
  D|----------7--------------B-R---|-------------------------------|
  A|-------------------------------|-------------------------------|
  E|-------------------------------|-------------------------------|
                                    sundays on  the phone   to  monday




  e|0---0-- 0---0-- ----3-- 3---3-3|3------ 3---3-3 --3-3-3 3---3--|
  B|1---1---1---1-------3---3---3-3|3-------3---3-3---3-3-3-3---3--|
  G|0---0---0---0-------0---0---0-0|0-------0---0-0---0-0-0-0---0--|
  D|2---2---2---2-------0---0---0-0|0-------0---0-0---0-0-0-0---0--|
  A|3---3---3---2-------2---2---2-2|2-------2---2-2---2-2-2-2---2--|
  E|--------------------3---3---3-3|3-------3---3-3---3-3-3-3---3--|

  e|----8-- 1210P8- ------- -------|------- ------- ------- -------|
  B/10-----B--R-----10P8-----------|-------------------------------|
  G|----------------------9\7---5--|-----------------------------12/
  D|-------------------------------|5-~----------------------------|
  A|-------------------------------|-------------------------------|
  E|-------------------------------|-------------------------------|
                                    tuesdays    the phone   to  me
                                            on

               (.             

  e|0---0-0 0---0--|------- ------- ------- -------|
  B|1---1-1-1---2--|-------------------------------|
  G|0---0-0-0---2--|-------------------------------|
  D|2---2-2-2---2--|-------------------------------|
  A|3---3-3-3---0--|-------------------------------|
  E|---------------|-------------------------------|

  e|------- -------|------- ------- ------- -------|
  B|----13-171314-~|-------------------------------|
  G|14-----B-P-/---|-------------------------------|
  D|---------------|-------------------------------|
  A|---------------|-------------------------------|
  E|---------------|-------------------------------|
            Oh  yeah




        B  Bend
        R  Release
        /  Slide up
        \  Slide down
        H  Hammer-on
        P  Pull-off
        ~  Vibrato
        +  Harmonic
        x  Mute note
        .  Play note like a dot in standard notation
        ^  Ties two notes together
        (. Pause



   -------------------------------------------------------------
  
   THE BEATLES - GOLDEN SLUMBERS (Lennon & McCartney) From ABBEY 
                 ROAD album. Released on 26th September 1969.

   --------------------------------------------------------------

    Tabbed by:PJVillanueva





    Once there was a way to get back homeward
    Once there was a way to get back home
    Sleep pretty darling do not cry
    And I will sing a lullabye

    Golden slumbers fill your eyes
    Smiles awake you when you rise
    Sleep pretty darling do not cry
    And I will sing a lullabye

    Once there was a way to get back homeward
    Once there was a way to get back home
    Sleep pretty darling do not cry
    And I will sing a lullabye





                                    Am7
  e|------- ------- ------- -------|------- ------- ------- -------|
  B|-------------------------------|8-------8-------8-------8------|
  G|-------------------------------|5-------5-------5-------5------|
  D|-------------------------------|----7-------7-------7-------7--|
  A|-------------------------------|-------------------------------|
  E|-------------------------------|-------------------------------|



    00:03

  e|------- ------- ------- -------|------- ------- ------- -------|
  B|8-------8-------8-------8------|8-------8-------8-------8------|
  G|5-------5-------5-------5------|5-------5-------5-------5------|
  D|----7-------7-------7-------7--|----7-------7-------7-------7--|
  A|-------------------------------|-------------------------------|
  E|-------------------------------|-------------------------------|
    Once    way                                   to    back    homeward
      there                                         get
        was 
          a

    Dm              A7              A+5             A7      Dm              
  e|------- ------- ------- -------|------- ------- ------- -------|
  B|6-------6-------8-------8------|10------10------8-------6------|
  G|7-------7-------9-------9------|10------10------9-------7------|
  D|----7-------7-------7-------7--|----7-------7-------7-------7--|
  A|-------------------------------|-------------------------------|
  E|-------------------------------|-------------------------------|




    G7
  e|------- ------- ------- -------|------- ------- ------- -------|
  B|6-------6-------6-------6------|6-------6-------6-------6------|
  G|4-------4-------4-------4------|4-------4-------4-------4------|
  D|----5-------5--------5------5--|----5-------5--------5------5--|
  A|-------------------------------|-------------------------------|
  E|-------------------------------|-------------------------------|
    Once    way                                   to    back    home
      there                                         get
        was 
          a

    C               E7              Am      G6
  e|3------ 3------ 4------ 4------|------- -------|
  B|5-------5-------3-------3------|5-------5------|
  G|5-------5-------4-------4------|5-------4------|
  D|----5-------5------------------|7-------5------|
  A|-------------------------------|---------------|
  E|-------------------------------|---------------|
                    Sleep pretty            do    
                              darling         not



    Fmaj7                           G7      G7sus4  G7      
  e|------- ------- ------- -------|------- ------- ------- -------|
  B|5-------5-------5-------5------|6-------6-------7-------6------|
  G|2-------2-------2-------2------|4-------5-------6-------4------|
  D|----3-------3-------3-------3--|------------5-------5-------5--|
  A|-------------------------------|-------------------------------|
  E|-------------------------------|-------------------------------|
    cry                                 And     will    a   lullabye
                                          I         sing


                    x x   X x X x
    C
  e|------- ------- ------- -------|
  B|5-------5-------5-------5------|
  G|5-------5-------5-------5------|
  D|------------5-------5-------5--|
  A|-------------------------------|
  E|-------------------------------|




    00:34
    C                               Fadd9
  e|3------ 3------ 3------ 3------|3------ 3------ 3------ 3------|
  B|5-------5-------5-------5------|1-------1-------1-------1------|
  G|5-------5-------5-------5------|----2-------2-------2-------2--|
  D|----5-------5-------5-------5--|3-------3------3--------3------|
  A|-------------------------------|-------------------------------|
  E|-------------------------------|-------------------------------|
    Golden                      slumbers        spill       your
                                                                eyes



    C
  e|3------ 3------ 3------ 3------|
  B|5-------5-------5-------5------|
  G|5-------5-------5-------5------|
  D|----5-------5-------5-------5--|
  A|-------------------------------|
  E|-------------------------------|
                                                      




  e|3------ 3------ 3------ 3------|3------ 3------ 3------ 3------| 
  B|5-------5-------5-------5------|1-------1-------1-------1------|
  G|5-------5-------5-------5------|----2-------2-------2-------2--|
  D|----5---------------5----------|3-------3------3--------3------|
  A|-------------------------------|-------------------------------|
  E|-------------------------------|-------------------------------|
    Smiles                  awake           you when        you rise               




    C       C6      E7              Am      G6
  e|------- ------- ------- -------|------- -------|
  B|5-------5-------5---5---5------|5-------5------|
  G|5-------5-------7---7---7------|5-------4------|
  D|5-------7---5---6---6---6------|7-------5------|
  A|-------------------------------|---------------|
  E|-------------------------------|---------------|
                    Sleep       darling     do  not
                        pretty        



    Fmaj7                           G7      G7sus4  G7 
  e|------- ------- ------- -------|------- ------- ------- -------|
  B|5-------5-------5-------5------|6-------6-------7-------6------|
  G|2-------2-------2-------2------|4-------5-------6-------4------|
  D|----3-------3-------3-------3--|------------5------------------|
  A|-------------------------------|-------------------------------|
  E|-------------------------------|-------------------------------|
    cry                                 and   will  sing    lullaby
                                          I             a



    C
  e|------- ------- ------- -------|
  B|5-------5-------5-------5------|
  G|5-------5-------5-------5------|
  D|----5-------5-------5-------5--|
  A|-------------------------------|
  E|-------------------------------|




    01:02

  e|------- ------- ------- -------|------- ------- ------- -------|  
  B|8-------8-------8-------8------|8-------8-------8-------8------|
  G|5-------5-------5-------5------|5-------5-------5-------5------|
  D|----7-------7-------7-------7--|----7-------7-------7-------7--|
  A|-------------------------------|-------------------------------|
  E|-------------------------------|-------------------------------|
    Once    way                                   to    back    homeward
      there                                         get
        was 
          a

  e|------- ------- ------- -------|------- ------- ------- -------|
  B|6-------6-------8-------8------|10------10--8-------8---6---5--|
  G|7-------7-------9-------9------|10------10--9-------9---7---5--|
  D|----7-------7-------7-------7--|----7-----------7--------------|
  A|-------------------------------|-------------------------------|
  E|-------------------------------|-------------------------------|





  e|------- ------- ------- -------|------- ------- ------- -------|
  B|6-------6-------6-------6------|6-------6-------6-------6------|
  G|4-------4-------4-------4------|4-------4-------4-------4------|
  D|----5-------5--------5------5--|----5-------5--------5------5--|
  A|-------------------------------|-------------------------------|
  E|-------------------------------|-------------------------------|
    Once    way                                   to    back    home
      there                                         get
        was 
          a


  e|------- ------- ------- -------|------- -------|
  B|5-------5-------5-------5------|5-------5------|
  G|5-------5-------7-------7------|5-------5------|
  D|5-------7-------6-------6------|7-------5------|
  A|-------------------------------|---------------|
  E|-------------------------------|---------------|
                    Sleep pretty            do    
                              darling         not




  e|------- ------- ------- -------|------- ------- ------- -------|
  B|5-------5-------5-------5------|6-------6-------7-------6------|
  G|2-------2-------2-------2------|4-------5-------6-------4------|
  D|----3-------3-------3-------3--|------------5------------------|
  A|-------------------------------|-------------------------------|
  E|-------------------------------|-------------------------------|
    cry                                 And     will    a   lullabye
                                          I         sing


   (.             

  e|3------ 3------ ------- -------| 
  B|5-------5----------------------|
  G|5-------5----------------------|
  D|----5-------5------------------|
  A|-------------------------------|
  E|-------------------------------|

    
    This is the last measure of Golden Slumbers (beats 1 and 2) and
    the first of Carry That Weight (beats 3 and 4), where the intro
    drum fill and the same two C piano chord in fourths are placed.





        B  Bend
        R  Release
        /  Slide up
        \  Slide down
        H  Hammer-on
        P  Pull-off
        ~  Vibrato
        +  Harmonic
        x  Mute note
        .  Play note like a dot in standard notation
        ^  Ties two notes together
        (. Pause



  ---------------------------------------------------------------
  
  THE BEATLES - CARRY THAT WEIGHT (Lennon & McCartney) From ABBEY 
                ROAD album. Released on 26th September 1969.

  ---------------------------------------------------------------

  Tabbed by:PJVillanueva






  Boy, you're going to carry that weight
  Carry that weight a long time
  Boy, you're going to carry that weight
  Carry that weight a long time

  I never give you my pillow
  I only send you my invitation
  And in the middle of the celebrations
  I break down

  Boy, you're going to carry that weight
  Carry that weight a long time
  Boy, you're going to carry that weight
  Carry that weight a long time




                                                  x X   X x X x
                                                  C
e|------- ------- ------- -------|------- ------- 3------ 3------|
B|-------------------------------|----------------5-------5------|
G|-------------------------------|----------------5-------5------|
D|-------------------------------|--------------------5-------5--|
A|-------------------------------|-------------------------------|
E|-------------------------------|-------------------------------|



  CHORUS
                                  G
e|3------ 3------ 3------ 3------|3------ 3------ 3------ 3------|
B|5-------5-------5-------5------|3-------3-------3-------3------|
G|5-------5-------5-------5------|4-------4-------4-------4------|
D|----5-------5-------5-------5--|----5-------5-------5-------5--|
A|-------------------------------|-------------------------------|
E|-------------------------------|-------------------------------|
  Boy                 you're      carry   that
                          gonna               weight


                                  C
e|3------ 3------ 3------ 3------|3------ 3------ 3---3-3 --3-3--|
B|3-------3-------3-------3------|5-------5-------5---5-5---5-5--|
G|4-------4-------4-------4------|5-------5-------5---5-5---5-5--|
D|----5-------5-------5-------5--|----5-------5-----5-----5------|
A|-------------------------------|-------------------------------|
E|-------------------------------|-------------------------------|
  carry   that            a   long    time
              weight



e|3------ 3------ 3------ 3------|3------ 3------ 3------ 3------|
B|5-------5-------5-------5------|3-------3-------3-------3------|
G|5-------5-------5-------5------|4-------4-------4-------4------|
D|----5-------5-------5-------5--|----5-------5-------5-------5--|
A|-------------------------------|-------------------------------|
E|-------------------------------|-------------------------------|
  Boy                 you're      carry   that
                          gonna               weight



e|3------ 3------ 3------ 3------|3------ 3------ 3------ 3------|
B|3-------3-------3-------3------|5-------5-------3-------3------|
G|4-------4-------4-------4------|5-------5-------4-------4------|
D|----5-------5-------5-------5--|----5-------5-------5-------5--|
A|-------------------------------|-------------------------------|
E|-------------------------------|-------------------------------|
  carry   that            a   long    time
              weight


           (Recapitulation of You Never Give Me Your Money)
  00:24 
      Am                          Dmadd9      Dm
e|----12- 12--12- 12--12- 12-----|12----- ----10- ------- -------|
B|----13--13--13--13--13--13-----|10----------10-----------------|
G|----14--14--14--14--14--14-----|10----------10-----------------|
D|-------------------------------|-0-----------------------------|
A|0------------------------------|-------------------------------|
E|-------------------------------|-------------------------------|




      G                           G7          C
e|----10- 10--10- 10--10- 10-----|13----- 12----- ------- -------|
B|----12--12--12--12--12--12-----|12----------13------13---------|
G|----12--12--12--12--12--12-----|12----------12------12---------|
D|-------------------------------|--------------------14---------|
A|10-----------------------------|-------------------------------|
E|-------------------------------|-------------------------------|



  00:36
  F                               Esus4           E
e|-8----- ------- ------- -------|-7----- ------- 7------ -------|
B|10-----------------------------|10--------------9--------------|
G|10-----------------------------|-9--------------9--------------|
D|-------------------------------|-------------------------------|
A|-------------------------------|-------------------------------|
E|-------------------------------|-------------------------------|

e|------- ------- ------- -------|------- 5------ ------- -------|
B|-------------------------------|-------------------------------|
G|--------5------B8R7-5---5---7-5|7B9---------7B8-----7---5---7--|
D/7-----------7---------7--------|-------------------------------|
A|-------------------------------|-------------------------------|
E|-------------------------------|-------------------------------|




  Am
e|-8----- ------- ------- -------|
B|10-----------------------------|
G|-9-----------------------------|
D|-------------------------------|
A|-------------------------------|
E|-------------------------------|

e|------- ------- ------- -------|
B|-------------------------------|
G|5------------------------------|
D|------------7P5-7--~-----------|
A|-------------------------------|
E|-------------------------------|



  00:44
      Am7                                     Dm
e|----3-- 3---3-- 3---3-- 3------|3------ ----1-- ------- -------|
B|----1---1---1---1---1---1------|1-----------3------------------|
G|----2---2---2---2---2---2------|2-----------2------------------|
D|-------------------------------|------------0------------------|
A|0------------------------------|0------------------------------|
E|-------------------------------|-------------------------------|
      I   never   give    my      pillow
                      you


  G7                              Csus4   C
e|----1-- 1---1-- 1---1-- 1------|1------ 0------ ------- -------|
B|----3---3---3---3---3---3------|1-------1---1------------------|
G|----0---0---0---0---0---0------|0-------0---0-------0----------|
D|-------------------------------|--------------------2----------|
A|-------------------------------|3-----------3------------------|
E|3------------------------------|-------------------------------|
      I   only    send    my      invitation
                      you


  Fmaj7                               Bm7     E7          E
e|--0-0-- 0-----0 --0---0 0-0-0--|----5-- ----4-- ------7 -------|
B|--1-1---1-----1---1---1-1-1-1--|----3-------3-------------5----|
G|--2-2---2-----2---2---2-2-2-2--|----2-------4-------------4----|
D|-------------------------------|------------2-----------6------|
A|-------------------------------|2------------------------------|
E|1------------------------------|-------------------------------|
      And in  the middle  of  the celebrations                I



  Am                              G                   Gsus4/6 G
e|------- ------- ------- 0------|3------ 0------ ----0-- 0---3--|
B|------------1-----------1------|3-------1-----------1---1---0--|
G|2-----------2-----------2------|0-------0-----------0---0---0--|
D|2-----------2------------------|-------------------------------|
A|0------------------------------|-------------------------------|
E|-------------------------------|3-------3-----------3---3---3--|
  break       down


  CHORUS
  01:07                                       

e|3------ 3------ 3------ 3------|3------ 3------ 3------ 3------|
B|5-------5-------5-------5------|3-------3-------3-------3------|
G|5-------5-------5-------5------|4-------4-------4-------4------|
D|----5--------------------------|----5-------5-------5-------5--|
A|-------------------------------|-------------------------------|
E|-------------------------------|-------------------------------|
  Boy                 you're      carry   that
                          gonna               weight



e|3------ 3------ 3------ 3------|3------ 3------ 3-3-3-3 3-3-3--|
B|3-------3-------3-------3------|5-------5-------5-5-5-5-5-5-5--|
G|4-------4-------4-------4------|5-------5-------5-5-5-5-5-5-5--|
D|----5-------5-------5-------5--|------------5------------------|
A|-------------------------------|-------------------------------|
E|-------------------------------|-------------------------------|
  carry   that            a   long    time
              weight



e|3------ 3------ 3------ 3------|3------ 3------ 3------ 3------|
B|5-------5-------5-------5------|3-------3-------3-------3------|
G|5-------5-------5-------5------|4-------4-------4-------4------|
D|----5-------5------------------|----5-------5---------------5--|
A|-------------------------------|-------------------------------|
E|-------------------------------|-------------------------------|
  Boy                 you're      carry   that
                          gonna               weight



e|3------ 3------ 3------ 3------|
B|3-------3-------3-------3------|
G|4-------4-------4-------4------|
D|----5-------5-------5---5------|
A|-------------------------------|
E|-------------------------------|
  carry   that            a   long    
              weight


  CODA
  C           Cmaj7               A
e|0------ ----0-- ------- 0------|0------ ------- ------- -------|
B|1-----------1-----------1------|2------------------------------|
G|0-----------0-----------0------|2------------------------------|
D|-------------------------------|-------------------------------|
A|3-----------2-----------2------|0------------------------------|
E|-------------------------------|-------------------------------|

e|------- ------- ------- -------|------- ----5-- ------- -------|
B|------------------------0------|-------------------------------|
G|--------0-----------0-------0--|--------2----------------------|
D|----2-----------0--------------|----2--------------------------|
A|3-----------2------------------|0------------------------------|
E|-------------------------------|-------------------------------|
      time




e|3---3-- ----3-- ------- -------|0------ ------- ------- -------|
B|5---5-------5------------------|2------------------------------|
G|5---5-------4------------------|2------------------------------|
D|5---5-------5------------------|-------------------------------|
A|-------------------------------|0------------------------------|
E|-------------------------------|-------------------------------|

e|------- ------- ------- -------|------- ----5-- ------- -------|
B|------------------------0------|-------------------------------|
G|--------0-----------0-------0--|--------2----------------------|
D|----2-----------0--------------|----2--------------------------|
A|3-----------2------------------|0------------------------------|
E|-------------------------------|-------------------------------|



   This ending was assembled to The End crossfading both numbers.




        B  Bend
        R  Release
        /  Slide up
        \  Slide down
        H  Hammer-on
        P  Pull-off
        ~  Vibrato
        +  Harmonic
        x  Mute note
        .  Play note like a dot in standard notation
        ^  Ties two notes together
        (. Pause



  ----------------------------------------------------------
  
  THE BEATLES - THE END (Lennon & McCartney) From ABBEY ROAD 
                  album. Released on 26th September 1969.

  ----------------------------------------------------------

  Tabbed by:PJVillanueva




  Oh, yeah, all right
  Are you going to be in my dreams
  Tonight?


  Drums solo

  Guitar solos


  And in the end
  The love you take
  Is equal to the love you make.



                                                          A
e|------- ------- ------- -------|------- ------- ------- 5------|
B|-------------------------------|------------------------5------|
G|-------------------------------|------------------------6------|
D|-------------------------------|------------------------7------|
A|-------------------------------|------------------------7------|
E|-------------------------------|------------------------5------|
                                                    
e|------- ------- ------- -------|------- ------- ------- -9-----|
B|-------------------------------|------------------------10-----|
G|-------------------------------|-------------------------9-----|
D|-------------------------------|------------------------11-----|
A|-------------------------------|-------------------------------|
E|-------------------------------|-------------------------------|



  x   x   x   x   x   x   x       x   x   x   x   x   x   x   X
  D                       B       E
e|5------ ------- ------- 7------|7------ ------- ------- -------|
B|7-----------------------7------|9------------------------------|
G|7-----------------------8------|9------------------------------|
D|7-----------------------9------|9------------------------------|
A|5-----------------------9------|7------------------------------|
E|------------------------7------|----------------------------5--|
  
e|10----- ------- ------- 11-----|12----- ------- ------- -------|
B|10----------------------12-----|12-----------------------------|
G|11----------------------11-----|13--------------------------6--|
D|12----------------------13-----|14--------------------------7--|
A|-------------------------------|-------------------------------|
E|-------------------------------|-------------------------------|





e|------- ------- ------- -------|------- ------- ------- -------|
B|-------------------------------|-------------------------------|
G|-------------------------------|-------------------------------|
D|-------------------------------|-------------------------------|
A|--------5---6---7---8---9---10-|--------------------5---3B5----|
E|--------7---8---9--10--11---12-|----------------------------5--|

e|------- ------- ------- -------|------- ------- ------- -------|
B|-------------------------------|-------------------------------|
G|--------7---8---9--10--11---14-|-------------------------------|
D|--------9--10--11--12--13---14-|-------------------------------|
A|-------------------------------|-------------------------------|
E|-------------------------------|-------------------------------|

     


      x x   x x   x x   x x   x   x   x   x   x   x   x   x
                                                          A
e|------- ------- ------- -------|------- ------- ------- 5------|
B|-------------------------------|------------------------5------|
G|-------------------------------|------------------------6------|
D|-------------------------------|------------------------7------|
A|-------------------------------|------------------------7------|
E|-------------------------------|------------------------5------|
                                                           Oh,
e|------- ------- ------- -------|------- ------- ------- -9-----|
B|-------------------------------|------------------------10-----|
G|-------------------------------|-------------------------9-----|
D|-------------------------------|------------------------11-----|
A|-------------------------------|-------------------------------|
E|-------------------------------|-------------------------------|



  x   x   x   x   x   x   x       x   x   x   x   x   x   x
  D                       B       E
e|5------ ------- ------- 7------|7------ ------- ------- -------|
B|7-----------------------7------|9------------------------------|
G|7-----------------------8------|9------------------------------|
D|7-----------------------9------|9------------------------------|
A|5-----------------------9------|7------------------------------|
E|------------------------7------|----------------------------5--|
  yeah,                   all     right                       Are 
e|10----- ------- ------- 11-----|12----- ------- ------- -------|
B|10----------------------12-----|12-----------------------------|
G|11----------------------11-----|13--------------------------6--|
D|12----------------------13-----|14--------------------------7--|
A|-------------------------------|-------------------------------|
E|-------------------------------|-------------------------------|





e|------- ------- ------- -------|------- ------- ------- -------|
B|-------------------------------|-------------------------------|
G|-------------------------------|-------------------------------|
D|-------------------------------|-------------------------------|
A|--------5---6---7---8---9---10-|--------------------5---3B5----|
E|--------7---8---9--10--11---12-|----------------------------5--|
      you gonna   be  in  my  dreams                      tonight
e|------- ------- ------- -------|------- ------- ------- -------|
B|-------------------------------|-------------------------------|
G|--------7---8---9--10--11---14-|-------------------------------|
D|--------9--10--11--12--13---14-|-------------------------------|
A|-------------------------------|-------------------------------|
E|-------------------------------|-------------------------------|




                          x x   x x               x x   x X X  X  
  X   X   X   X   X   X   X   X   X   X   X   X   X   X   X   X 

e|------- ------- ------- -------|------- ------- ------- -------|
B|-------------------------------|-------------------------------|
G|-------------------------------|-------------------------------|
D|-------------------------------|-------------------------------|
A|-------------------------------|-------------------------------|
E|-------------------------------|-------------------------------|


  X                               X X   X X   X X   X X   X X  X
  X   X   X   X   X   X   X   X   X   X   X   X   X   X   X   X  

e|------- ------- ------- -------|------- ------- ------- -------|
B|-------------------------------|-------------------------------|
G|-------------------------------|-------------------------------|
D|-------------------------------|-------------------------------|
A|-------------------------------|-------------------------------|
E|-------------------------------|-------------------------------|


  X                               x x  x  X
  X   X   X   X   X   X   X   X   X   X   X   X   X   X   X   X    

e|------- ------- ------- -------|------- ------- ------- -------|
B|-------------------------------|-------------------------------|
G|-------------------------------|-------------------------------|
D|-------------------------------|-------------------------------|
A|-------------------------------|-------------------------------|
E|-------------------------------|-------------------------------|


  x x  x  X   X X   X X   x x  x  X   x   x   x   x   x   x   x
  X   X   X   X   X   X   X   X   X   X   X   X   X   X   X   X  

e|------- ------- ------- -------|------- ------- ------- -------|
B|-------------------------------|-------------------------------|
G|-------------------------------|-------------------------------|
D|-------------------------------|-------------------------------|
A|-------------------------------|-------------------------------|
E|-------------------------------|-------------------------------|




  A7                              D7
e|------- ------- ------- -------|2------ ----2-- ------- -------|
B|2-----------2------------------|1-----------1------------------|
G|0-----------0------------------|2-----------2------------------|
D|2-----------2------------------|0-----------0------------------|
A|0-----------0------------------|-------------------------------|
E|-------------------------------|-------------------------------|




  A7                              D7
e|------- ------- ------- -------|2------ ----2-- ------- -------|
B|2-----------2------------------|1-----------1------------------|
G|0-----------0------------------|2-----------2------------------|
D|2-----------2------------------|0-----------0------------------|
A|0-----------0------------------|-------------------------------|
E|-------------------------------|-------------------------------|




  A7                              D7
e|------- ------- ------- -------|2------ ----2-- ------- -------|
B|2-----------2------------------|1-----------1------------------|
G|0-----------0------------------|2-----------2------------------|
D|2-----------2------------------|0-----------0------------------|
A|0-----------0------------------|-------------------------------|
E|-------------------------------|-------------------------------|  
  Love        you                 Love        you




  A7                              D7
e|------- ------- ------- -------|2------ ----2-- ------- -------|
B|2-----------2------------------|1-----------1------------------|
G|0-----------0------------------|2-----------2------------------|
D|2-----------2------------------|0-----------0------------------|
A|0-----------0------------------|-------------------------------|
E|-------------------------------|-------------------------------|
  Love        you                 Love        you



  A7                              D7
e|------- ------- ------- -------|2------ ----2-- ------- -------|
B|2-----------2------------------|1-----------1------------------|
G|0-----------0------------------|2-----------2------------------|
D|2-----------2------------------|0-----------0------------------|
A|0-----------0------------------|-------------------------------|
E|-------------------------------|-------------------------------|
  Love        you                 Love        you
e|------- ------- ------- -------|------- ------- ------- -------|
B|-------------------------------|-------------------------------|
G|-------------------------------|-------------------------------|
D|-------------------------------|-------------------1414-14--14-|
A|-------------------------------|-------------------------------|
E|-------------------------------|-------------------------------|
                                                      Paul




  A7                              D7
e|------- ------- ------- -------|2------ ----2-- ------- -------|
B|2-----------2------------------|1-----------1------------------|
G|0-----------0------------------|2-----------2------------------|
D|2-----------2------------------|0-----------0------------------|
A|0-----------0------------------|-------------------------------|
E|-------------------------------|-------------------------------|
  Love        you                 Love        you
e|------- ------- ------- -------|------- ------- ------- -------|
B|-------------------------------|--------------------------H-P-H|
G|14--------------14--12---------|------------------------12141214
D|------------14---------12\10-10H12------10---------------------|
A|----------------------------12-|----------------12P10----------|
E|-------------------------------|-------------------------------|
                                                           George



  A7                              D7
e|------- ------- ------- -------|2------ ----2-- ------- -------|
B|2-----------2------------------|1-----------1------------------|
G|0-----------0------------------|2-----------2------------------|
D|2-----------2------------------|0-----------0------------------|
A|0-----------0------------------|-------------------------------|
E|-------------------------------|-------------------------------|
  Love        you                 Love        you
e|------- ------- ------- --H-P--|------- ------- ------- -------|
B|13B15-~-----------R13--101310--|-------------------------------|
G|----------------------------H12|1412---------------------------|
D|-------------------------------|-----14----12------10B11-------|
A|-------------------------------|------------------------12-----|
E|-------------------------------|-------------------------------|




  A7                              D7
e|------- ------- ------- -------|2------ ----2-- ------- -------|
B|2-----------2------------------|1-----------1------------------|
G|0-----------0------------------|2-----------2------------------|
D|2-----------2------------------|0-----------0------------------|
A|0-----------0------------------|-------------------------------|
E|-------------------------------|-------------------------------|
  Love        you                 Love        you
e|------- ------- ------- -------|------- ------- ------- -------|   
B1212--1212--12121012121012121012|12-\---(7)--5-------13--13--13-|
G1212--1212--12121012121012121012|12-\---(7)--5------------------|
D1212--1212--12121012121012121012|12-\---(7)--5------------------|
A|---------------P-----P-----P---|-------------------------------|
E|-------------------------------|-------------------------------|
  John                                                 Paul



  A7                              D7
e|------- ------- ------- -------|2------ ----2-- ------- -------|
B|2-----------2------------------|1-----------1------------------|
G|0-----------0------------------|2-----------2------------------|
D|2-----------2------------------|0-----------0------------------|
A|0-----------0------------------|-------------------------------|
E|-------------------------------|-------------------------------|
  Love        you                 Love        you
e|------- ------- ------- -------|------- ------- ------- -------|
B|13-----------------------------|------------13B15-~-------5--5-|
G|-------------------------------|14--12--14----------------5--5-|
D|----12--10------10--14--13--14-|------------------------7------|
A|------------12-----------------|-------------------------------|
E|-------------------------------|-------------------------------|
                                                          George



  A7                              D7
e|------- ------- ------- -------|2------ ----2-- ------- -------|
B|2-----------2------------------|1-----------1------------------|
G|0-----------0------------------|2-----------2------------------|
D|2-----------2------------------|0-----------0------------------|
A|0-----------0------------------|-------------------------------|
E|-------------------------------|-------------------------------|
  Love        you                 Love        you
e|------- ------- ------- -------|------- ------- ------- -------|
B|--5-5-5-5-5-------5---5---5----|7B8R7-------8B10-~-------------|
G|--5-5-5-5-5-------5---5---5----|7B8R7---5H7P5------------------|
D|7-----------7---7-------7------|-------------------------------|
A|-------------------------------|-------------------------------|
E|-------------------------------|--------------------0---3---5--|
                                                      Paul



  A7                              D7
e|------- ------- ------- -------|2------ ----2-- ------- -------|
B|2-----------2------------------|1-----------1------------------|
G|0-----------0------------------|2-----------2------------------|
D|2-----------2------------------|0-----------0------------------|
A|0-----------0------------------|-------------------------------|
E|-------------------------------|-------------------------------|
  Love        you                 Love        you
e|------- ------- ------- -------|------- ------- ------- -------|
B|-------------------------------|-------------------------------|
G|-------------------------------|-------------------------------|
D|-------------------------------|----------------2--------------|
A|3-B-----5---3-B-----5----------|----3---5---3-------5---3---5--|
E|-------------------------------|-------------------------------|




  A7                              D7
e|------- ------- ------- -------|2------ ----2-- ------- -------|
B|2-----------2------------------|1-----------1------------------|
G|0-----------0------------------|2-----------2------------------|
D|2-----------2------------------|0-----------0------------------|
A|0-----------0------------------|-------------------------------|
E|-------------------------------|-------------------------------|
  Love        you                 Love        you
e|------- ------- ------- -------|------- ------- ------- -------|
B|-------------------------------|-------------------------------|
G|------------4-4---4-4----------|----4-4---4-4------------------|
D|4-4--4--4---------------4-4--4-|4------------------------------|
A|-------------------------------|----------------9\7-7\5-3B4----|
E|-------------------------------|----------------------------5--|
  George



  A7                              D7
e|------- ------- ------- -------|2------ ----2-- ------- -------|
B|2-----------2------------------|1-----------1------------------|
G|0-----------0------------------|2-----------2------------------|
D|2-----------2------------------|0-----------0------------------|
A|0-----------0------------------|-------------------------------|
E|-------------------------------|-------------------------------|
  Love        you                 Love        you
e|------- ------- ---15B17-~-----|----15- ------- ------- -------|
B|----------------13-------------|--------13B1513---------5---7P5|
G|--/-12--12-B-14----------------|--------------------7---5---7P5|
D|-------------------------------|--------------------7---5---7P5|
A|-------------------------------|--------------------7----------|
E|-------------------------------|-------------------------------|
                                                      John



  A7                              D7
e|------- ------- ------- -------|2------ ----2-- ------- -------|
B|2-----------2------------------|1-----------1------------------|
G|0-----------0------------------|2-----------2------------------|
D|2-----------2------------------|0-----------0------------------|
A|0-----------0------------------|-------------------------------|
E|-------------------------------|-------------------------------|
  Love        you                 Love        you
e|------- ------- ------- -------|------- ------- ------- -------|
B|7BP57BP57BP57BP57BP57BP57BP57BP57BP57BP57BP57BP57BP57BP57BP57BP5
G|7BP57BP57BP57BP57BP57BP57BP57BP57BP57BP57BP57BP57BP57BP57BP57BP5
D|7BP57BP57BP57BP57BP57BP57BP57BP57BP57BP57BP57BP57BP57BP57BP57BP5
A|-------------------------------|-------------------------------|
E|-------------------------------|-------------------------------|
 (keep 5th fret barred, half bending at the 7th fret and pulling 
  to the 5th each time)



  A
e|12--12- 12--12- 12--12- 12--12-|12--12- 12--12- 12--12- 12--12-|
B|14--14--14--14--14--14--14--14-|14--14--14--14--14--14--14--14-|
G|14--14--14--14--14--14--14--14-|14--14--14--14--14--14--14--14-|
D|-------------------------------|-------------------------------|
A|-------------------------------|-------------------------------|
E|-------------------------------|-------------------------------|





e|12--12- 12--12- 12--12- 12--12-|12--12- 12--12- 12--12- 12--12-|
B|14--14--14--14--14--14--14--14-|14--14--14--14--14--14--14--14-|
G|14--14--14--14--14--14--14--14-|14--14--14--14--14--14--14--14-|
D|-------------------------------|-------------------------------|
A|-------------------------------|-------------------------------|
E|-------------------------------|-------------------------------|
  And         in      the end                                 the
e|------- ------- ------- -------|------- ----9\8/9------ -------|
B|-------------------------------|-------------------------------|
G|-------------------------------|------------9\8/9--------------|
D|-------------------------------|-------------------------------|
A|-------------------------------|-------------------------------|
E|-------------------------------|-------------------------------|

e|------- ------- ------- -------|------- ------- ----9\7/9------|
B|-------------------------------|-------------------------------|
G|-------------------------------|--------------------9\7/9------|
D|-------------------------------|-------------------------------|
A|-------------------------------|-------------------------------|
E|-------------------------------|-------------------------------|




  G
e|10--10- 10--10- 10--10- 10--10-|10--10- 10--10- 10--10- 10--10-|
B|12--12--12--12--12--12--12--12-|12--12--12--12--12--12--12--12-|
G|12--12--12--12--12--12--12--12-|12--12--12--12--12--12--12--12-|
D|-------------------------------|-------------------------------|
A|-------------------------------|-------------------------------|
E|-------------------------------|-------------------------------|

e|------- ------- ------- -------|------- ----7\6/7------ -------|
B|-------------------------------|-------------------------------|
G|-------------------------------|------------9\8/9--------------|
D|-------------------------------|-------------------------------|
A|-------------------------------|-------------------------------|
E|-------------------------------|-------------------------------|
  love        you         take                                is



  F
e|8---8-- 8---8-- 8---8-- 8---8--|8---8-- 8---8--|
B10--10--10--10--10--10--10--10--10--10--10--10--|
G10--10--10--10--10--10--10--10--10--10--10--10--|
D|-------------------------------|---------------|
A|-------------------------------|---------------|
E|-------------------------------|---------------|
  equal                   to          the      


                      x x X X X   X
  Dm              G               C
e|------- ------- ------- -------|------- ------- ------- -------|
B|6---5-----------3--------------|5-------5-------5-------5------|
G|7-------7---5---4--------------|5-------5-------5-------5------|
D|7-------7-------5--------------|5-------5-------5-------5------|
A|5-------5-------5--------------|3-------3-------3-------3------|
E|----------------3--------------|-------------------------------|
  love                    you make                        Aaaaaaa
e|------- ------- ------- -------|------- ------- ------8 10/12-8|
B|-------------------------------|--------------------8----------|
G|-------------------------------|------------------9------------|
D|-------------------------------|----------------10-------------|
A|-------------------------------|------------7-10---------------|
E|-------------------------------|----------8--------------------|



                      x x   X X   X                   x x X X X
  D/C                             Cm7             D/C
e|------- ------- ------- -------|------- ------- ------- -------|
B|7-------7-------7-------7------|8-------8------10------10------|
G|7-------7-------7-------7------|8-------8------10------10------|
D|7-------7-------7-------7------|8-------8------10------10------|
A|-------------------------------|-------------------------------|
E|8-------8-------8-------8------|8-------8-------8-------8------|
  aaaaaaaaaaaaaaaaaaaaaaaaahhhhhh
e|15B17-- ------- ------- -------|-1513/151311--- ------- -------|
B|-------------------------------|-----------13/1513-------------|
G|-------------------------------|------------------------14-----|
D|-------------------------------|-------------------------------|
A|-------------------------------|-------------------------------|
E|-------------------------------|-------------------------------|



 (.
  C
e|8------ ------- ------- -------|------- ------- ------- -------|
B|8------------------------------|-------------------------------|
G|9------------------------------|-------------------------------|
D10------------------------------|-------------------------------|
A10------------------------------|-------------------------------|
E|8------------------------------|-------------------------------|

e|------- ------- ------- -------|------- ------- ------- -------|
B|15B17--------------------------|-------------------------------|
G|-------------------------------|-------------------------------|
D|-------------------------------|-------------------------------|
A|-------------------------------|-------------------------------|
E|-------------------------------|-------------------------------|




        B  Bend
        R  Release
        /  Slide up
        \  Slide down
        H  Hammer-on
        P  Pull-off
        ~  Vibrato
        +  Harmonic
        x  Mute note
        .  Play note like a dot in standard notation
        ^  Ties two notes together
        (. Pause



  --------------------------------------------------------------
  
  THE BEATLES - HER MAJESTY (Lennon & McCartney) From ABBEY ROAD 
                album. Released on 26th September 1969.

  --------------------------------------------------------------

  Tabbed by:PJVillanueva




  Her Majesty's a pretty nice girl,
  but she doesn't have a lot to say
  Her Majesty's a pretty nice girl
  but she changes from day to day

  I want to tell her that I love her a lot
  But I gotta get a bellyful of wine
  Her Majesty's a pretty nice girl
  Someday I'm going to make her mine, oh yeh,
  someday I'm going to make her mine.




                                  ¨¨¨¨¨¨¨¨¨¨¨¨¨¨¨¨¨¨¨¨¨¨¨¨¨¨¨¨¨¨¨   
                                  D
e|------- ------- ------- -------|2------ ------- ------- -------|
B|-------------------------------|3------------------------------|
G|-------------------------------|2------------------------------|
D|-------------------------------|0------------------------------|
A|-------------------------------|0------------------------------|
E|-------------------------------|-------------------------------|


  D                               Bm
e|2------ 2---2-- ----2-- 2------|------- ------- ------- -------|
B|--------3---3-------3---3------|3-------3---3-------3---3------|
G|--------2---2-------2---2------|--------4---4-------4---4------|
D|0------------------------------|--------4---4-------4---4------|
A|----------------4--------------|2---------------0--------------|
E|-------------------------------|-------------------------------|
          Her Ma.......jesty's a  pretty nice girl,        but she

  Em              A7              D
e|------- ------- ------- -------|2------ ------- ------- -------|
B|3---------------2--------------|-------------------------------|
G|0---------------0--------------|-------------------------------|
D|------------------------2------|0------------------------------|
A|--------2-------0--------------|--------0-------2-------4------|
E|0------------------------------|-------------------------------|
  doesn't have a  lot to       say.

                                  Bm         
e|2------ 2---2-- ----2-- 2------|2------ ------- ------- -------|
B|--------3---3-------3---3------|--------3---3-------3---3------|
G|--------2---2-------2---2------|--------4---4-------4---4------|
D|0------------------------------|--------4---4-------4---4------|
A|----------------4--------------|2---------------0--------------|
E|-------------------------------|-------------------------------|
          Her Ma........jesty's a pretty nice girl,        but she

  Em7                             A             Asus4/6   A
e|------- ------- ------- -------|------- ------- ------- -------|
B|3-------3---3-------3---3------|2-------2---2-H-3-P-2---2------|
G|--------0---0-------0---0------|--------2---2---2---2---2------|
D|--------0---0-------0---0------|--------2---2-H-4-P-2---2------|
A|-------------------------------|0-----------------------0------|
E|0---------------0--------------|-------------------------------|
  changes from    day     to   day.

  Bm                              Bsus2
e|------- ------- ------- -------|------- ------- ------- -------|
B|3-------3---3-------3---3------|2-------2---2-------2---2------|
G|--------4---4-------4---4------|--------4---4-------4---4------|
D|--------4---4-------4---4------|--------4---4-------4---4------|
A|2------------------------------|2------------------------------|
E|----------------2--------------|----------------2--------------|
      I   want to tell her that I love her a lot           but I

  D7                              G
e|------- ------- ------- -------|------- ------- ------- -------|
B|2-------2---2-------2---2------|0-------0---0-------0---0------|
G|--------5---5-------5---5------|--------0---0-------0---0------|
D|--------4---4-------4---4------|--------0---0-------0---0------|
A|5---------------5--------------|-------------------------------|
E|-------------------------------|3---------------3--------------|
   gotta  get a    bellyful  of   wine.

  Em                              D               Bm
e|------- ------- ------- -------|------- ------- ------- -------|
B|--------5---------------5------|3-------3-------3---3---3------|
G|--------0---------------0------|--------2-----------4---4------|
D/5---------------5--------------|0-------------------4---4------|
A|-------------------------------|----------------2--------------|
E|-------------------------------|-------------------------------|
          Her Ma..... jesty's  a   pretty nice    girl    someday

  Em7             A               D               Bm
e|------- ------- ------- -------|2------ 2---2-- ------- -------|
B|3------------------------------|--------3---3-------3---3------|
G|0------------------------------|--------2---2-------4---4------|
D|-------------------------------|0-------------------4---4------|
A|----------------0--------------|----------------2--------------|
E|0------------------------------|-------------------------------|
      I'm going to make her mine,    oh      yeah,            some

  Em7             A               D       A
e|------- ------- ------- -------|2------ ------- ------- -------|
B|3------------------------------|3------------------------------|
G|0------------------------------|-------------------------------|
D|-------------------------------|0------------------------------|
A|----------------0--------------|--------0----------------------|
E|0------------------------------|-------------------------------|
  day I'm gonna   make her mine.






        B  Bend
        R  Release
        /  slide up
        \  slide down
        H  hammer-on
        P  pull-off
        ~  vibrato
        +  harmonic
        x  Mute note
        . - play note like a dot in standard notation
        ^ - ties two notes together
        (. Pause



comments
print report bad tab
I want to post or [tab]
guest
You may want to rate the tab now too:
select rating
Please do not post tabs as comments. Select "correction" instead!